0
SECTION
2
HEADER
9
$ACADVER
1
AC1015
9
$ACADMAINTVER
 70
6
9
$DWGCODEPAGE
3
ANSI_932
9
$EXTMIN
10
0.000
20
0.000
30
0.0
9
$EXTMAX
10
1682.000
20
1188.000
30
0.0
9
$LIMMIN
10
0.000
20
0.000
9
$LIMMAX
10
1682.000
20
1188.000
9
$DIMSCALE
40
2.000000
9
$LTSCALE
40
2.000
9
$PDMODE
70
0
9
$PDSIZE
40
40.0
9
$HANDSEED
5
62136
9
$UNITMODE
70
0
9
$VISRETAIN
70
0
9
$PLINEGEN
70
0
9
$PSLTSCALE
70
1
9
$TREEDEPTH
70
3020
9
$CMLSTYLE
2
STANDARD
9
$CMLJUST
70
0
9
$CMLSCALE
40
1.0
9
$PROXYGRAPHICS
70
1
9
$MEASUREMENT
70
0
9
$CELWEIGHT
370
-1
9
$ENDCAPS
280
0
9
$JOINSTYLE
280
0
9
$LWDISPLAY
290
0
9
$INSUNITS
70
0
9
$HYPERLINKBASE
1

9
$STYLESHEET
1

9
$XEDIT
290
1
9
$CEPSNTYPE
380
0
9
$PSTYLEMODE
290
1
9
$FINGERPRINTGUID
2
{5F082321-0195-11D3-BDFB-0060B0CD5109}
9
$VERSIONGUID
2
{12943756-294D-11D3-98C2-0060B087942D}
9
$EXTNAMES
290
1
9
$PSVPSCALE
40
0.0
9
$OLESTARTUP
290
0
0
ENDSEC
0
SECTION
  2
CLASSES
0
ENDSEC
0
SECTION
2
TABLES
0
TABLE
2
VPORT
5
190
100
AcDbSymbolTable
70
2
0
VPORT
5
191
100
AcDbSymbolTableRecord
100
AcDbViewportTableRecord
2
*ACTIVE
70
0
10
0.0
20
0.0
11
1.0
21
1.0
12
841.000
22
594.000
13
0.0
23
0.0
14
1.0
24
1.0
15
0.0
25
0.0
16
0.0
26
0.0
36
1.0
17
0.0
27
0.0
37
0.0
40
1218.841
41
2.0
42
50.0
43
0.0
44
0.0
50
0.0
51
0.0
71
0
72
1000
73
1
74
1
75
0
76
0
77
0
78
0
0
ENDTAB
0
TABLE
2
LTYPE
5
1f4
100
AcDbSymbolTable
70
9
0
LTYPE
5
1f5
100
AcDbSymbolTableRecord
100
AcDbLinetypeTableRecord
2
BYBLOCK
70
 64
3

72
 65
73
  0
40
0.0
0
LTYPE
5
1f6
100
AcDbSymbolTableRecord
100
AcDbLinetypeTableRecord
2
BYLAYER
70
 64
3

72
 65
73
  0
40
0.0
0
LTYPE
5
1f7
100
AcDbSymbolTableRecord
100
AcDbLinetypeTableRecord
2
CONTINUOUS
70
64
3
SolidLine
72
65
73
0
40
0.0
0
LTYPE
5
1f8
100
AcDbSymbolTableRecord
100
AcDbLinetypeTableRecord
2
DOT
70
64
3
--  --  --  --  --  --  --  --     
72
65
73
2
40
3.000
49
1.000
74
0
49
-2.000
74
0
0
LTYPE
5
1f9
100
AcDbSymbolTableRecord
100
AcDbLinetypeTableRecord
2
DASHED
70
64
3
----    ----    ----    ----    
72
65
73
2
40
5.000
49
2.000
74
0
49
-3.000
74
0
0
LTYPE
5
1fa
100
AcDbSymbolTableRecord
100
AcDbLinetypeTableRecord
2
DASHED2
70
64
3
------  ------  ------  ------ 
72
65
73
2
40
10.000
49
4.000
74
0
49
-6.000
74
0
0
LTYPE
5
1fb
100
AcDbSymbolTableRecord
100
AcDbLinetypeTableRecord
2
CENTER
70
64
3
----- - ----- - ----- - ----- - 
72
65
73
4
40
10.000
49
6.000
74
0
49
-3.000
74
0
49
1.000
74
0
49
-3.000
74
0
0
LTYPE
5
1fc
100
AcDbSymbolTableRecord
100
AcDbLinetypeTableRecord
2
CENTER2
70
64
3
----------  --  ----------  -- 
72
65
73
4
40
17.000
49
12.000
74
0
49
-5.000
74
0
49
2.000
74
0
49
-5.000
74
0
0
LTYPE
5
1fd
100
AcDbSymbolTableRecord
100
AcDbLinetypeTableRecord
2
PHANTOM
70
64
3
--- - - --- - - --- - - --- - -
72
65
73
6
40
13.000
49
5.000
74
0
49
-3.000
74
0
49
1.000
74
0
49
-3.000
74
0
49
1.000
74
0
49
-3.000
74
0
0
LTYPE
5
1fe
100
AcDbSymbolTableRecord
100
AcDbLinetypeTableRecord
2
PHANTOM2
70
64
3
--------  -  -  --------  -  -
72
65
73
6
40
20.000
49
6.000
74
0
49
-5.000
74
0
49
2.000
74
0
49
-5.000
74
0
49
2.000
74
0
49
-5.000
74
0
0
LTYPE
5
1ff
100
AcDbSymbolTableRecord
100
AcDbLinetypeTableRecord
2
HIDDEN
70
64
3
-   -   -   -   -   -   -   -   
72
65
73
2
40
3.000
49
0.500
74
0
49
-2.500
74
0
0
ENDTAB
0
TABLE
2
STYLE
5
200
100
AcDbSymbolTable
70
1
0
STYLE
5
201
100
AcDbSymbolTableRecord
100
AcDbTextStyleTableRecord
2
STANDARD
70
0
40
0.0
41
1.0
50
0.0
71
0
42
0.0
3
txt.shx
4
extfont.shx
0
STYLE
5
202
100
AcDbSymbolTableRecord
100
AcDbTextStyleTableRecord
2
TATEGAKI
70
4
40
0.0
41
1.0
50
0.0
71
0
42
0.0
3
txt.shx
4
extfont.shx
0
STYLE
5
203
100
AcDbSymbolTableRecord
100
AcDbTextStyleTableRecord
2
DIM
70
0
40
0.0
41
0.75
50
0.0
71
0
42
0.0
3
txt.shx
4
extfont.shx
0
STYLE
5
204
100
AcDbSymbolTableRecord
100
AcDbTextStyleTableRecord
2
_Gothic_
70
0
40
1.0
41
1.0
50
0.0
71
0
42
10.0
3

4

1001
ACAD
1000
MS Gothic
1071
32817
0
STYLE
5
205
100
AcDbSymbolTableRecord
100
AcDbTextStyleTableRecord
2
_TateGothic_
70
4
40
0.0
41
1.0
50
0.0
71
0
42
0.0
3
@MS Gothic
4

0
ENDTAB
0
TABLE
2
VIEW
5
206
100
AcDbSymbolTable
70
0
0
ENDTAB
0
TABLE
2
UCS
5
207
100
AcDbSymbolTable
70
0
0
ENDTAB
0
TABLE
2
APPID
5
208
100
AcDbSymbolTable
70
1
0
APPID
5
209
100
AcDbSymbolTableRecord
100
AcDbRegAppTableRecord
2
ACAD
70
0
0
ENDTAB
0
TABLE
2
DIMSTYLE
5
403
330
0
100
AcDbSymbolTable
70
1
100
AcDbDimStyleTable
71
0
0
DIMSTYLE
105
404
330
402
100
AcDbSymbolTableRecord
100
AcDbDimStyleTableRecord
2
JAC_DIM
70
0
41
4.000
42
0.000
44
0.0
73
0
74
0
77
1
78
8
79
2
140
0.000
170
0
171
2
172
0
173
0
174
0
175
0
176
0
177
0
178
0
270
2
271
0
272
0
273
2
274
2
340
201
275
0
280
0
281
0
282
0
283
0
284
0
285
0
286
0
287
3
288
0
0
ENDTAB
0
TABLE
2
BLOCK_RECORD
5
405
100
AcDbSymbolTable
70
0
0
BLOCK_RECORD
5
406
100
AcDbSymbolTableRecord
100
AcDbBlockTableRecord
2
*MODEL_SPACE
0
BLOCK_RECORD
5
407
100
AcDbSymbolTableRecord
100
AcDbBlockTableRecord
2
*PAPER_SPACE
0
BLOCK_RECORD
5
408
100
AcDbSymbolTableRecord
100
AcDbBlockTableRecord
2
_JACCONVERT_
0
ENDTAB
0
TABLE
2
LAYER
5
409
100
AcDbSymbolTable
70
10
0
LAYER
5
40a
100
AcDbSymbolTableRecord
100
AcDbLayerTableRecord
2
0
70
0
62
7
6
CONTINUOUS
370
-3
390
14
0
LAYER
5
40b
100
AcDbSymbolTableRecord
100
AcDbLayerTableRecord
2
0-0
70
0
62
7
6
CONTINUOUS
370
-3
390
14
0
LAYER
5
40c
100
AcDbSymbolTableRecord
100
AcDbLayerTableRecord
2
0-1
70
0
62
7
6
CONTINUOUS
370
-3
390
14
0
LAYER
5
40d
100
AcDbSymbolTableRecord
100
AcDbLayerTableRecord
2
0-2
70
0
62
7
6
CONTINUOUS
370
-3
390
14
0
LAYER
5
40e
100
AcDbSymbolTableRecord
100
AcDbLayerTableRecord
2
F-4
70
0
62
7
6
CONTINUOUS
370
-3
390
14
0
LAYER
5
40f
100
AcDbSymbolTableRecord
100
AcDbLayerTableRecord
2
F-E_J_ADD
70
0
62
-7
6
CONTINUOUS
290
0
370
-3
390
14
0
LAYER
5
410
100
AcDbSymbolTableRecord
100
AcDbLayerTableRecord
2
F-F
70
0
62
7
6
CONTINUOUS
370
-3
390
14
0
ENDTAB
0
ENDSEC
0
SECTION
2
BLOCKS
0
BLOCK
5
411
100
AcDbEntity
67
1
8
0
100
AcDbBlockBegin
2
*MODEL_SPACE
70
0
10
0.0
20
0.0
30
0.0
3
*MODEL_SPACE
1

0
ENDBLK
5
412
100
AcDbEntity
8
0
100
AcDbBlockEnd
0
BLOCK
5
413
100
AcDbEntity
67
1
8
0
100
AcDbBlockBegin
2
*PAPER_SPACE
70
0
10
0.0
20
0.0
30
0.0
3
*PAPER_SPACE
1

0
ENDBLK
5
414
100
AcDbEntity
67
1
8
0
100
AcDbBlockEnd
0
BLOCK
5
415
100
AcDbEntity
8
0
100
AcDbBlockBegin
2
_JACCONVERT_
70
2
10
0.0
20
0.0
30
0.0
3
_JACCONVERT_
1
_JACCONVERT_
0
ATTDEF
5
416
100
AcDbEntity
8
0
62
0
100
AcDbText
10
0.0
20
0.0
30
0.0
40
1.0
1
User:460950EB0890EC0964308A
100
AcDbAttributeDefinition
3

2
USER
70
8
0
ATTDEF
5
417
100
AcDbEntity
8
0
62
0
100
AcDbText
10
0.0
20
2.0
30
0.0
40
1.0
1
Date:15/05/27 15:13
100
AcDbAttributeDefinition
3

2
REVDATE
70
8
0
ATTDEF
5
418
100
AcDbEntity
8
0
62
0
100
AcDbText
10
0.0
20
4.0
30
0.0
40
1.0
1
File:Hﾙｰﾌ600 断面図.dxf
100
AcDbAttributeDefinition
3

2
FNAME
70
8
0
ATTDEF
5
419
100
AcDbEntity
8
0
62
0
100
AcDbText
10
0.0
20
6.0
30
0.0
40
1.0
1
JacConvert Version3.09 copyright (c) 2001-2013 K.Nakahara
100
AcDbAttributeDefinition
3

2
VER
70
8
0
ENDBLK
5
41a
100
AcDbEntity
67
1
8
0
100
AcDbBlockEnd
0
ENDSEC
0
SECTION
2
ENTITIES
0
LINE
5
41b
100
AcDbEntity
8
F-4
6
CONTINUOUS
62
3
100
AcDbLine
10
446.710000000000
20
827.930000000000
30
0.0
11
455.140000000000
21
827.190000000000
31
0.0
0
LINE
5
41c
100
AcDbEntity
8
F-4
6
CONTINUOUS
62
3
100
AcDbLine
10
446.850000000000
20
829.520000000000
30
0.0
11
455.280000000000
21
828.780000000000
31
0.0
0
LINE
5
41d
100
AcDbEntity
8
F-4
6
CONTINUOUS
62
3
100
AcDbLine
10
470.580000000000
20
802.290000000000
30
0.0
11
443.130000000000
21
817.140000000000
31
0.0
0
LINE
5
41e
100
AcDbEntity
8
F-4
6
CONTINUOUS
62
3
100
AcDbLine
10
471.340000000000
20
803.690000000000
30
0.0
11
443.900000000000
21
818.550000000000
31
0.0
0
LINE
5
41f
100
AcDbEntity
8
F-4
6
CONTINUOUS
62
3
100
AcDbLine
10
342.920000000000
20
829.520000000000
30
0.0
11
338.540000000000
21
829.140000000000
31
0.0
0
LINE
5
420
100
AcDbEntity
8
F-4
6
CONTINUOUS
62
3
100
AcDbLine
10
343.060000000000
20
827.930000000000
30
0.0
11
338.680000000000
21
827.540000000000
31
0.0
0
LINE
5
421
100
AcDbEntity
8
F-4
6
CONTINUOUS
62
3
100
AcDbLine
10
318.130000000000
20
803.530000000000
30
0.0
11
345.880000000000
21
818.550000000000
31
0.0
0
LINE
5
422
100
AcDbEntity
8
F-4
6
CONTINUOUS
62
3
100
AcDbLine
10
318.890000000000
20
802.120000000000
30
0.0
11
346.640000000000
21
817.140000000000
31
0.0
0
LINE
5
423
100
AcDbEntity
8
F-4
6
CONTINUOUS
62
3
100
AcDbLine
10
442.580000000000
20
871.220000000000
30
0.0
11
441.570000000000
21
869.950000000000
31
0.0
0
LINE
5
424
100
AcDbEntity
8
F-4
6
CONTINUOUS
62
4
100
AcDbLine
10
327.490000000000
20
979.590000000000
30
0.0
11
394.890000000000
21
979.590000000000
31
0.0
0
LINE
5
425
100
AcDbEntity
8
F-4
6
CONTINUOUS
62
4
100
AcDbLine
10
327.490000000000
20
979.590000000000
30
0.0
11
327.490000000000
21
919.590000000000
31
0.0
0
LINE
5
426
100
AcDbEntity
8
F-4
6
CONTINUOUS
62
4
100
AcDbLine
10
462.290000000000
20
979.590000000000
30
0.0
11
394.890000000000
21
979.590000000000
31
0.0
0
LINE
5
427
100
AcDbEntity
8
F-4
6
CONTINUOUS
62
4
100
AcDbLine
10
462.290000000000
20
979.590000000000
30
0.0
11
462.290000000000
21
919.590000000000
31
0.0
0
LINE
5
428
100
AcDbEntity
8
F-4
6
CONTINUOUS
62
4
100
AcDbLine
10
327.490000000000
20
949.590000000000
30
0.0
11
394.890000000000
21
949.590000000000
31
0.0
0
LINE
5
429
100
AcDbEntity
8
F-4
6
CONTINUOUS
62
4
100
AcDbLine
10
462.290000000000
20
949.590000000000
30
0.0
11
394.890000000000
21
949.590000000000
31
0.0
0
LINE
5
42a
100
AcDbEntity
8
F-4
6
CONTINUOUS
62
4
100
AcDbLine
10
394.890000000000
20
1039.590000000000
30
0.0
11
394.890000000000
21
1002.090000000000
31
0.0
0
LINE
5
42b
100
AcDbEntity
8
F-4
6
CONTINUOUS
62
4
100
AcDbLine
10
394.890000000000
20
972.090000000000
30
0.0
11
394.890000000000
21
919.590000000000
31
0.0
0
LINE
5
42c
100
AcDbEntity
8
F-4
6
CONTINUOUS
62
4
100
AcDbLine
10
514.090000000000
20
1039.590000000000
30
0.0
11
394.890000000000
21
1039.590000000000
31
0.0
0
LINE
5
42d
100
AcDbEntity
8
F-4
6
CONTINUOUS
62
7
100
AcDbLine
10
514.090000000000
20
1039.590000000000
30
0.0
11
508.300000000000
21
1041.140000000000
31
0.0
0
LINE
5
42e
100
AcDbEntity
8
F-4
6
CONTINUOUS
62
7
100
AcDbLine
10
514.090000000000
20
1039.590000000000
30
0.0
11
508.300000000000
21
1038.040000000000
31
0.0
0
LINE
5
42f
100
AcDbEntity
8
F-4
6
CONTINUOUS
62
7
100
AcDbLine
10
508.300000000000
20
1041.140000000000
30
0.0
11
502.500000000000
21
1042.690000000000
31
0.0
0
LINE
5
430
100
AcDbEntity
8
F-4
6
CONTINUOUS
62
7
100
AcDbLine
10
508.300000000000
20
1038.040000000000
30
0.0
11
502.500000000000
21
1036.480000000000
31
0.0
0
LINE
5
431
100
AcDbEntity
8
F-F
6
CONTINUOUS
62
2
100
AcDbLine
10
54.760000000000
20
23.630000000000
30
0.0
11
54.760000000000
21
1143.640000000000
31
0.0
0
LINE
5
432
100
AcDbEntity
8
F-F
6
CONTINUOUS
62
2
100
AcDbLine
10
1284.760000000000
20
82.890000000000
30
0.0
11
1284.760000000000
21
23.630000000000
31
0.0
0
LINE
5
433
100
AcDbEntity
8
F-F
6
CONTINUOUS
62
2
100
AcDbLine
10
1214.540000000000
20
82.890000000000
30
0.0
11
1214.540000000000
21
23.630000000000
31
0.0
0
LINE
5
434
100
AcDbEntity
8
F-F
6
CONTINUOUS
62
2
100
AcDbLine
10
1537.120000000000
20
23.630000000000
30
0.0
11
1537.120000000000
21
82.890000000000
31
0.0
0
LINE
5
435
100
AcDbEntity
8
F-F
6
CONTINUOUS
62
2
100
AcDbLine
10
806.890000000000
20
82.890000000000
30
0.0
11
806.890000000000
21
23.630000000000
31
0.0
0
LINE
5
436
100
AcDbEntity
8
F-F
6
CONTINUOUS
62
2
100
AcDbLine
10
1009.740000000000
20
82.890000000000
30
0.0
11
1009.740000000000
21
23.630000000000
31
0.0
0
LINE
5
437
100
AcDbEntity
8
F-F
6
CONTINUOUS
62
2
100
AcDbLine
10
806.890000000000
20
63.140000000000
30
0.0
11
369.760000000000
21
63.140000000000
31
0.0
0
LINE
5
438
100
AcDbEntity
8
F-F
6
CONTINUOUS
62
2
100
AcDbLine
10
806.890000000000
20
43.390000000000
30
0.0
11
369.760000000000
21
43.390000000000
31
0.0
0
LINE
5
439
100
AcDbEntity
8
F-F
6
CONTINUOUS
62
2
100
AcDbLine
10
806.890000000000
20
33.510000000000
30
0.0
11
369.760000000000
21
33.510000000000
31
0.0
0
LINE
5
43a
100
AcDbEntity
8
F-F
6
CONTINUOUS
62
2
100
AcDbLine
10
806.890000000000
20
73.020000000000
30
0.0
11
369.760000000000
21
73.020000000000
31
0.0
0
LINE
5
43b
100
AcDbEntity
8
F-F
6
CONTINUOUS
62
2
100
AcDbLine
10
422.420000000000
20
82.890000000000
30
0.0
11
422.420000000000
21
23.630000000000
31
0.0
0
LINE
5
43c
100
AcDbEntity
8
F-F
6
CONTINUOUS
62
2
100
AcDbLine
10
369.760000000000
20
82.890000000000
30
0.0
11
369.760000000000
21
23.630000000000
31
0.0
0
LINE
5
43d
100
AcDbEntity
8
F-F
6
CONTINUOUS
62
2
100
AcDbLine
10
1631.650000000000
20
23.630000000000
30
0.0
11
1631.650000000000
21
1143.640000000000
31
0.0
0
LINE
5
43e
100
AcDbEntity
8
F-F
6
CONTINUOUS
62
2
100
AcDbLine
10
54.760000000000
20
1143.640000000000
30
0.0
11
1631.650000000000
21
1143.640000000000
31
0.0
0
LINE
5
43f
100
AcDbEntity
8
F-F
6
CONTINUOUS
62
2
100
AcDbLine
10
54.760000000000
20
23.630000000000
30
0.0
11
1631.650000000000
21
23.630000000000
31
0.0
0
LINE
5
440
100
AcDbEntity
8
F-F
6
CONTINUOUS
62
2
100
AcDbLine
10
1631.650000000000
20
82.890000000000
30
0.0
11
54.760000000000
21
82.890000000000
31
0.0
0
LINE
5
441
100
AcDbEntity
8
F-F
6
CONTINUOUS
62
2
100
AcDbLine
10
369.760000000000
20
53.260000000000
30
0.0
11
1631.650000000000
21
53.260000000000
31
0.0
0
POLYLINE
5
442
100
AcDbEntity
8
F-F
6
CONTINUOUS
62
  3
100
AcDb2dPolyline
66
1
10
0.0
20
0.0
30
0.0
70
0
0
VERTEX
5
443
100
AcDbEntity
8
F-F
6
CONTINUOUS
62
  3
100
AcDbVertex
100
AcDb2dVertex
10
71.720000000000
20
59.100000000000
30
0.0
0
VERTEX
5
444
100
AcDbEntity
8
F-F
6
CONTINUOUS
62
  3
100
AcDbVertex
100
AcDb2dVertex
10
71.720000000000
20
75.100000000000
30
0.0
0
VERTEX
5
445
100
AcDbEntity
8
F-F
6
CONTINUOUS
62
  3
100
AcDbVertex
100
AcDb2dVertex
10
87.720000000000
20
75.100000000000
30
0.0
0
VERTEX
5
446
100
AcDbEntity
8
F-F
6
CONTINUOUS
62
  3
100
AcDbVertex
100
AcDb2dVertex
10
87.720000000000
20
59.100000000000
30
0.0
0
VERTEX
5
447
100
AcDbEntity
8
F-F
6
CONTINUOUS
62
  3
100
AcDbVertex
100
AcDb2dVertex
10
71.720000000000
20
59.100000000000
30
0.0
0
SEQEND
5
448
100
AcDbEntity
8
F-F
0
LINE
5
449
100
AcDbEntity
8
F-F
6
CONTINUOUS
62
3
100
AcDbLine
10
73.320000000000
20
61.260000000000
30
0.0
11
73.320000000000
21
73.500000000000
31
0.0
0
LINE
5
44a
100
AcDbEntity
8
F-F
6
CONTINUOUS
62
3
100
AcDbLine
10
86.120000000000
20
60.700000000000
30
0.0
11
73.880000000000
21
60.700000000000
31
0.0
0
POLYLINE
5
44b
100
AcDbEntity
8
F-F
6
CONTINUOUS
62
  3
100
AcDb2dPolyline
66
1
10
0.0
20
0.0
30
0.0
70
0
0
VERTEX
5
44c
100
AcDbEntity
8
F-F
6
CONTINUOUS
62
  3
100
AcDbVertex
100
AcDb2dVertex
10
73.320000000000
20
73.500000000000
30
0.0
0
VERTEX
5
44d
100
AcDbEntity
8
F-F
6
CONTINUOUS
62
  3
100
AcDbVertex
100
AcDb2dVertex
10
85.550000000000
20
73.500000000000
30
0.0
0
VERTEX
5
44e
100
AcDbEntity
8
F-F
6
CONTINUOUS
62
  3
100
AcDbVertex
100
AcDb2dVertex
10
73.320000000000
20
61.260000000000
30
0.0
0
SEQEND
5
44f
100
AcDbEntity
8
F-F
0
LINE
5
450
100
AcDbEntity
8
F-F
6
CONTINUOUS
62
3
100
AcDbLine
10
86.120000000000
20
72.930000000000
30
0.0
11
73.880000000000
21
60.700000000000
31
0.0
0
LINE
5
451
100
AcDbEntity
8
F-F
6
CONTINUOUS
62
3
100
AcDbLine
10
86.120000000000
20
72.930000000000
30
0.0
11
86.120000000000
21
60.700000000000
31
0.0
0
LINE
5
452
100
AcDbEntity
8
F-F
6
CONTINUOUS
62
4
100
AcDbLine
10
71.720000000000
20
74.940000000000
30
0.0
11
87.720000000000
21
74.940000000000
31
0.0
0
LINE
5
453
100
AcDbEntity
8
F-F
6
CONTINUOUS
62
4
100
AcDbLine
10
71.720000000000
20
74.620000000000
30
0.0
11
87.720000000000
21
74.620000000000
31
0.0
0
LINE
5
454
100
AcDbEntity
8
F-F
6
CONTINUOUS
62
4
100
AcDbLine
10
71.720000000000
20
74.300000000000
30
0.0
11
87.720000000000
21
74.300000000000
31
0.0
0
LINE
5
455
100
AcDbEntity
8
F-F
6
CONTINUOUS
62
4
100
AcDbLine
10
71.720000000000
20
73.980000000000
30
0.0
11
87.720000000000
21
73.980000000000
31
0.0
0
LINE
5
456
100
AcDbEntity
8
F-F
6
CONTINUOUS
62
4
100
AcDbLine
10
71.720000000000
20
73.660000000000
30
0.0
11
87.720000000000
21
73.660000000000
31
0.0
0
LINE
5
457
100
AcDbEntity
8
F-F
6
CONTINUOUS
62
4
100
AcDbLine
10
71.720000000000
20
60.540000000000
30
0.0
11
87.720000000000
21
60.540000000000
31
0.0
0
LINE
5
458
100
AcDbEntity
8
F-F
6
CONTINUOUS
62
4
100
AcDbLine
10
71.720000000000
20
60.220000000000
30
0.0
11
87.720000000000
21
60.220000000000
31
0.0
0
LINE
5
459
100
AcDbEntity
8
F-F
6
CONTINUOUS
62
4
100
AcDbLine
10
71.720000000000
20
59.900000000000
30
0.0
11
87.720000000000
21
59.900000000000
31
0.0
0
LINE
5
45a
100
AcDbEntity
8
F-F
6
CONTINUOUS
62
4
100
AcDbLine
10
71.720000000000
20
59.580000000000
30
0.0
11
87.720000000000
21
59.580000000000
31
0.0
0
LINE
5
45b
100
AcDbEntity
8
F-F
6
CONTINUOUS
62
4
100
AcDbLine
10
71.720000000000
20
59.260000000000
30
0.0
11
87.720000000000
21
59.260000000000
31
0.0
0
LINE
5
45c
100
AcDbEntity
8
F-F
6
CONTINUOUS
62
4
100
AcDbLine
10
71.720000000000
20
61.500000000000
30
0.0
11
73.320000000000
21
61.500000000000
31
0.0
0
LINE
5
45d
100
AcDbEntity
8
F-F
6
CONTINUOUS
62
4
100
AcDbLine
10
71.720000000000
20
61.820000000000
30
0.0
11
73.320000000000
21
61.820000000000
31
0.0
0
LINE
5
45e
100
AcDbEntity
8
F-F
6
CONTINUOUS
62
4
100
AcDbLine
10
71.720000000000
20
62.140000000000
30
0.0
11
73.320000000000
21
62.140000000000
31
0.0
0
LINE
5
45f
100
AcDbEntity
8
F-F
6
CONTINUOUS
62
4
100
AcDbLine
10
71.720000000000
20
62.460000000000
30
0.0
11
73.320000000000
21
62.460000000000
31
0.0
0
LINE
5
460
100
AcDbEntity
8
F-F
6
CONTINUOUS
62
4
100
AcDbLine
10
71.720000000000
20
62.780000000000
30
0.0
11
73.320000000000
21
62.780000000000
31
0.0
0
LINE
5
461
100
AcDbEntity
8
F-F
6
CONTINUOUS
62
4
100
AcDbLine
10
71.720000000000
20
63.100000000000
30
0.0
11
73.320000000000
21
63.100000000000
31
0.0
0
LINE
5
462
100
AcDbEntity
8
F-F
6
CONTINUOUS
62
4
100
AcDbLine
10
71.720000000000
20
63.420000000000
30
0.0
11
73.320000000000
21
63.420000000000
31
0.0
0
LINE
5
463
100
AcDbEntity
8
F-F
6
CONTINUOUS
62
4
100
AcDbLine
10
71.720000000000
20
63.740000000000
30
0.0
11
73.320000000000
21
63.740000000000
31
0.0
0
LINE
5
464
100
AcDbEntity
8
F-F
6
CONTINUOUS
62
4
100
AcDbLine
10
71.720000000000
20
64.060000000000
30
0.0
11
73.320000000000
21
64.060000000000
31
0.0
0
LINE
5
465
100
AcDbEntity
8
F-F
6
CONTINUOUS
62
4
100
AcDbLine
10
71.720000000000
20
64.380000000000
30
0.0
11
73.320000000000
21
64.380000000000
31
0.0
0
LINE
5
466
100
AcDbEntity
8
F-F
6
CONTINUOUS
62
4
100
AcDbLine
10
71.720000000000
20
64.700000000000
30
0.0
11
73.320000000000
21
64.700000000000
31
0.0
0
LINE
5
467
100
AcDbEntity
8
F-F
6
CONTINUOUS
62
4
100
AcDbLine
10
71.720000000000
20
65.020000000000
30
0.0
11
73.320000000000
21
65.020000000000
31
0.0
0
LINE
5
468
100
AcDbEntity
8
F-F
6
CONTINUOUS
62
4
100
AcDbLine
10
71.720000000000
20
65.340000000000
30
0.0
11
73.320000000000
21
65.340000000000
31
0.0
0
LINE
5
469
100
AcDbEntity
8
F-F
6
CONTINUOUS
62
4
100
AcDbLine
10
71.720000000000
20
65.660000000000
30
0.0
11
73.320000000000
21
65.660000000000
31
0.0
0
LINE
5
46a
100
AcDbEntity
8
F-F
6
CONTINUOUS
62
4
100
AcDbLine
10
71.720000000000
20
65.980000000000
30
0.0
11
73.320000000000
21
65.980000000000
31
0.0
0
LINE
5
46b
100
AcDbEntity
8
F-F
6
CONTINUOUS
62
4
100
AcDbLine
10
71.720000000000
20
66.300000000000
30
0.0
11
73.320000000000
21
66.300000000000
31
0.0
0
LINE
5
46c
100
AcDbEntity
8
F-F
6
CONTINUOUS
62
4
100
AcDbLine
10
71.720000000000
20
66.620000000000
30
0.0
11
73.320000000000
21
66.620000000000
31
0.0
0
LINE
5
46d
100
AcDbEntity
8
F-F
6
CONTINUOUS
62
4
100
AcDbLine
10
71.720000000000
20
66.940000000000
30
0.0
11
73.320000000000
21
66.940000000000
31
0.0
0
LINE
5
46e
100
AcDbEntity
8
F-F
6
CONTINUOUS
62
4
100
AcDbLine
10
71.720000000000
20
67.260000000000
30
0.0
11
73.320000000000
21
67.260000000000
31
0.0
0
LINE
5
46f
100
AcDbEntity
8
F-F
6
CONTINUOUS
62
4
100
AcDbLine
10
71.720000000000
20
67.580000000000
30
0.0
11
73.320000000000
21
67.580000000000
31
0.0
0
LINE
5
470
100
AcDbEntity
8
F-F
6
CONTINUOUS
62
4
100
AcDbLine
10
71.720000000000
20
67.900000000000
30
0.0
11
73.320000000000
21
67.900000000000
31
0.0
0
LINE
5
471
100
AcDbEntity
8
F-F
6
CONTINUOUS
62
4
100
AcDbLine
10
71.720000000000
20
68.220000000000
30
0.0
11
73.320000000000
21
68.220000000000
31
0.0
0
LINE
5
472
100
AcDbEntity
8
F-F
6
CONTINUOUS
62
4
100
AcDbLine
10
71.720000000000
20
68.540000000000
30
0.0
11
73.320000000000
21
68.540000000000
31
0.0
0
LINE
5
473
100
AcDbEntity
8
F-F
6
CONTINUOUS
62
4
100
AcDbLine
10
71.720000000000
20
68.860000000000
30
0.0
11
73.320000000000
21
68.860000000000
31
0.0
0
LINE
5
474
100
AcDbEntity
8
F-F
6
CONTINUOUS
62
4
100
AcDbLine
10
71.720000000000
20
69.820000000000
30
0.0
11
73.320000000000
21
69.820000000000
31
0.0
0
LINE
5
475
100
AcDbEntity
8
F-F
6
CONTINUOUS
62
4
100
AcDbLine
10
71.720000000000
20
70.780000000000
30
0.0
11
73.320000000000
21
70.780000000000
31
0.0
0
LINE
5
476
100
AcDbEntity
8
F-F
6
CONTINUOUS
62
4
100
AcDbLine
10
71.720000000000
20
71.100000000000
30
0.0
11
73.320000000000
21
71.100000000000
31
0.0
0
LINE
5
477
100
AcDbEntity
8
F-F
6
CONTINUOUS
62
4
100
AcDbLine
10
71.720000000000
20
71.420000000000
30
0.0
11
73.320000000000
21
71.420000000000
31
0.0
0
LINE
5
478
100
AcDbEntity
8
F-F
6
CONTINUOUS
62
4
100
AcDbLine
10
71.720000000000
20
71.740000000000
30
0.0
11
73.320000000000
21
71.740000000000
31
0.0
0
LINE
5
479
100
AcDbEntity
8
F-F
6
CONTINUOUS
62
4
100
AcDbLine
10
71.720000000000
20
73.340000000000
30
0.0
11
73.320000000000
21
73.340000000000
31
0.0
0
LINE
5
47a
100
AcDbEntity
8
F-F
6
CONTINUOUS
62
4
100
AcDbLine
10
71.720000000000
20
73.020000000000
30
0.0
11
73.320000000000
21
73.020000000000
31
0.0
0
LINE
5
47b
100
AcDbEntity
8
F-F
6
CONTINUOUS
62
4
100
AcDbLine
10
71.720000000000
20
72.700000000000
30
0.0
11
73.320000000000
21
72.700000000000
31
0.0
0
LINE
5
47c
100
AcDbEntity
8
F-F
6
CONTINUOUS
62
4
100
AcDbLine
10
71.720000000000
20
72.380000000000
30
0.0
11
73.320000000000
21
72.380000000000
31
0.0
0
LINE
5
47d
100
AcDbEntity
8
F-F
6
CONTINUOUS
62
4
100
AcDbLine
10
71.720000000000
20
72.060000000000
30
0.0
11
73.320000000000
21
72.060000000000
31
0.0
0
LINE
5
47e
100
AcDbEntity
8
F-F
6
CONTINUOUS
62
4
100
AcDbLine
10
71.720000000000
20
70.140000000000
30
0.0
11
73.320000000000
21
70.140000000000
31
0.0
0
LINE
5
47f
100
AcDbEntity
8
F-F
6
CONTINUOUS
62
4
100
AcDbLine
10
71.720000000000
20
70.460000000000
30
0.0
11
73.320000000000
21
70.460000000000
31
0.0
0
LINE
5
480
100
AcDbEntity
8
F-F
6
CONTINUOUS
62
4
100
AcDbLine
10
71.720000000000
20
69.500000000000
30
0.0
11
73.320000000000
21
69.500000000000
31
0.0
0
LINE
5
481
100
AcDbEntity
8
F-F
6
CONTINUOUS
62
4
100
AcDbLine
10
71.720000000000
20
69.180000000000
30
0.0
11
73.320000000000
21
69.180000000000
31
0.0
0
LINE
5
482
100
AcDbEntity
8
F-F
6
CONTINUOUS
62
4
100
AcDbLine
10
73.870000000000
20
61.820000000000
30
0.0
11
75.000000000000
21
61.820000000000
31
0.0
0
LINE
5
483
100
AcDbEntity
8
F-F
6
CONTINUOUS
62
4
100
AcDbLine
10
73.550000000000
20
61.500000000000
30
0.0
11
74.680000000000
21
61.500000000000
31
0.0
0
LINE
5
484
100
AcDbEntity
8
F-F
6
CONTINUOUS
62
4
100
AcDbLine
10
71.720000000000
20
61.180000000000
30
0.0
11
74.360000000000
21
61.180000000000
31
0.0
0
LINE
5
485
100
AcDbEntity
8
F-F
6
CONTINUOUS
62
4
100
AcDbLine
10
71.720000000000
20
60.860000000000
30
0.0
11
74.040000000000
21
60.860000000000
31
0.0
0
LINE
5
486
100
AcDbEntity
8
F-F
6
CONTINUOUS
62
4
100
AcDbLine
10
75.790000000000
20
63.740000000000
30
0.0
11
76.920000000000
21
63.740000000000
31
0.0
0
LINE
5
487
100
AcDbEntity
8
F-F
6
CONTINUOUS
62
4
100
AcDbLine
10
75.470000000000
20
63.420000000000
30
0.0
11
76.600000000000
21
63.420000000000
31
0.0
0
LINE
5
488
100
AcDbEntity
8
F-F
6
CONTINUOUS
62
4
100
AcDbLine
10
75.150000000000
20
63.100000000000
30
0.0
11
76.280000000000
21
63.100000000000
31
0.0
0
LINE
5
489
100
AcDbEntity
8
F-F
6
CONTINUOUS
62
4
100
AcDbLine
10
74.830000000000
20
62.780000000000
30
0.0
11
75.960000000000
21
62.780000000000
31
0.0
0
LINE
5
48a
100
AcDbEntity
8
F-F
6
CONTINUOUS
62
4
100
AcDbLine
10
74.510000000000
20
62.460000000000
30
0.0
11
75.640000000000
21
62.460000000000
31
0.0
0
LINE
5
48b
100
AcDbEntity
8
F-F
6
CONTINUOUS
62
4
100
AcDbLine
10
74.190000000000
20
62.140000000000
30
0.0
11
75.320000000000
21
62.140000000000
31
0.0
0
LINE
5
48c
100
AcDbEntity
8
F-F
6
CONTINUOUS
62
4
100
AcDbLine
10
73.320000000000
20
73.500000000000
30
0.0
11
73.320000000000
21
73.820000000000
31
0.0
0
LINE
5
48d
100
AcDbEntity
8
F-F
6
CONTINUOUS
62
4
100
AcDbLine
10
86.120000000000
20
61.500000000000
30
0.0
11
87.720000000000
21
61.500000000000
31
0.0
0
LINE
5
48e
100
AcDbEntity
8
F-F
6
CONTINUOUS
62
4
100
AcDbLine
10
86.120000000000
20
61.820000000000
30
0.0
11
87.720000000000
21
61.820000000000
31
0.0
0
LINE
5
48f
100
AcDbEntity
8
F-F
6
CONTINUOUS
62
4
100
AcDbLine
10
86.120000000000
20
62.140000000000
30
0.0
11
87.720000000000
21
62.140000000000
31
0.0
0
LINE
5
490
100
AcDbEntity
8
F-F
6
CONTINUOUS
62
4
100
AcDbLine
10
86.120000000000
20
62.460000000000
30
0.0
11
87.720000000000
21
62.460000000000
31
0.0
0
LINE
5
491
100
AcDbEntity
8
F-F
6
CONTINUOUS
62
4
100
AcDbLine
10
86.120000000000
20
62.780000000000
30
0.0
11
87.720000000000
21
62.780000000000
31
0.0
0
LINE
5
492
100
AcDbEntity
8
F-F
6
CONTINUOUS
62
4
100
AcDbLine
10
86.120000000000
20
63.100000000000
30
0.0
11
87.720000000000
21
63.100000000000
31
0.0
0
LINE
5
493
100
AcDbEntity
8
F-F
6
CONTINUOUS
62
4
100
AcDbLine
10
86.120000000000
20
63.420000000000
30
0.0
11
87.720000000000
21
63.420000000000
31
0.0
0
LINE
5
494
100
AcDbEntity
8
F-F
6
CONTINUOUS
62
4
100
AcDbLine
10
86.120000000000
20
63.740000000000
30
0.0
11
87.720000000000
21
63.740000000000
31
0.0
0
LINE
5
495
100
AcDbEntity
8
F-F
6
CONTINUOUS
62
4
100
AcDbLine
10
86.120000000000
20
64.060000000000
30
0.0
11
87.720000000000
21
64.060000000000
31
0.0
0
LINE
5
496
100
AcDbEntity
8
F-F
6
CONTINUOUS
62
4
100
AcDbLine
10
86.120000000000
20
64.380000000000
30
0.0
11
87.720000000000
21
64.380000000000
31
0.0
0
LINE
5
497
100
AcDbEntity
8
F-F
6
CONTINUOUS
62
4
100
AcDbLine
10
86.120000000000
20
64.700000000000
30
0.0
11
87.720000000000
21
64.700000000000
31
0.0
0
LINE
5
498
100
AcDbEntity
8
F-F
6
CONTINUOUS
62
4
100
AcDbLine
10
86.120000000000
20
65.020000000000
30
0.0
11
87.720000000000
21
65.020000000000
31
0.0
0
LINE
5
499
100
AcDbEntity
8
F-F
6
CONTINUOUS
62
4
100
AcDbLine
10
86.120000000000
20
65.340000000000
30
0.0
11
87.720000000000
21
65.340000000000
31
0.0
0
LINE
5
49a
100
AcDbEntity
8
F-F
6
CONTINUOUS
62
4
100
AcDbLine
10
86.120000000000
20
65.980000000000
30
0.0
11
87.720000000000
21
65.980000000000
31
0.0
0
LINE
5
49b
100
AcDbEntity
8
F-F
6
CONTINUOUS
62
4
100
AcDbLine
10
86.120000000000
20
66.300000000000
30
0.0
11
87.720000000000
21
66.300000000000
31
0.0
0
LINE
5
49c
100
AcDbEntity
8
F-F
6
CONTINUOUS
62
4
100
AcDbLine
10
86.120000000000
20
66.620000000000
30
0.0
11
87.720000000000
21
66.620000000000
31
0.0
0
LINE
5
49d
100
AcDbEntity
8
F-F
6
CONTINUOUS
62
4
100
AcDbLine
10
86.120000000000
20
66.940000000000
30
0.0
11
87.720000000000
21
66.940000000000
31
0.0
0
LINE
5
49e
100
AcDbEntity
8
F-F
6
CONTINUOUS
62
4
100
AcDbLine
10
86.120000000000
20
67.260000000000
30
0.0
11
87.720000000000
21
67.260000000000
31
0.0
0
LINE
5
49f
100
AcDbEntity
8
F-F
6
CONTINUOUS
62
4
100
AcDbLine
10
86.120000000000
20
67.580000000000
30
0.0
11
87.720000000000
21
67.580000000000
31
0.0
0
LINE
5
4a0
100
AcDbEntity
8
F-F
6
CONTINUOUS
62
4
100
AcDbLine
10
86.120000000000
20
67.900000000000
30
0.0
11
87.720000000000
21
67.900000000000
31
0.0
0
LINE
5
4a1
100
AcDbEntity
8
F-F
6
CONTINUOUS
62
4
100
AcDbLine
10
86.120000000000
20
68.220000000000
30
0.0
11
87.720000000000
21
68.220000000000
31
0.0
0
LINE
5
4a2
100
AcDbEntity
8
F-F
6
CONTINUOUS
62
4
100
AcDbLine
10
86.120000000000
20
68.540000000000
30
0.0
11
87.720000000000
21
68.540000000000
31
0.0
0
LINE
5
4a3
100
AcDbEntity
8
F-F
6
CONTINUOUS
62
4
100
AcDbLine
10
86.120000000000
20
68.860000000000
30
0.0
11
87.720000000000
21
68.860000000000
31
0.0
0
LINE
5
4a4
100
AcDbEntity
8
F-F
6
CONTINUOUS
62
4
100
AcDbLine
10
86.120000000000
20
69.820000000000
30
0.0
11
87.720000000000
21
69.820000000000
31
0.0
0
LINE
5
4a5
100
AcDbEntity
8
F-F
6
CONTINUOUS
62
4
100
AcDbLine
10
86.120000000000
20
70.780000000000
30
0.0
11
87.720000000000
21
70.780000000000
31
0.0
0
LINE
5
4a6
100
AcDbEntity
8
F-F
6
CONTINUOUS
62
4
100
AcDbLine
10
86.120000000000
20
71.100000000000
30
0.0
11
87.720000000000
21
71.100000000000
31
0.0
0
LINE
5
4a7
100
AcDbEntity
8
F-F
6
CONTINUOUS
62
4
100
AcDbLine
10
86.120000000000
20
71.420000000000
30
0.0
11
87.720000000000
21
71.420000000000
31
0.0
0
LINE
5
4a8
100
AcDbEntity
8
F-F
6
CONTINUOUS
62
4
100
AcDbLine
10
86.120000000000
20
71.740000000000
30
0.0
11
87.720000000000
21
71.740000000000
31
0.0
0
LINE
5
4a9
100
AcDbEntity
8
F-F
6
CONTINUOUS
62
4
100
AcDbLine
10
86.120000000000
20
72.700000000000
30
0.0
11
87.720000000000
21
72.700000000000
31
0.0
0
LINE
5
4aa
100
AcDbEntity
8
F-F
6
CONTINUOUS
62
4
100
AcDbLine
10
86.120000000000
20
72.380000000000
30
0.0
11
87.720000000000
21
72.380000000000
31
0.0
0
LINE
5
4ab
100
AcDbEntity
8
F-F
6
CONTINUOUS
62
4
100
AcDbLine
10
86.120000000000
20
72.060000000000
30
0.0
11
87.720000000000
21
72.060000000000
31
0.0
0
LINE
5
4ac
100
AcDbEntity
8
F-F
6
CONTINUOUS
62
4
100
AcDbLine
10
86.120000000000
20
70.140000000000
30
0.0
11
87.720000000000
21
70.140000000000
31
0.0
0
LINE
5
4ad
100
AcDbEntity
8
F-F
6
CONTINUOUS
62
4
100
AcDbLine
10
86.120000000000
20
70.460000000000
30
0.0
11
87.720000000000
21
70.460000000000
31
0.0
0
LINE
5
4ae
100
AcDbEntity
8
F-F
6
CONTINUOUS
62
4
100
AcDbLine
10
86.120000000000
20
69.500000000000
30
0.0
11
87.720000000000
21
69.500000000000
31
0.0
0
LINE
5
4af
100
AcDbEntity
8
F-F
6
CONTINUOUS
62
4
100
AcDbLine
10
86.120000000000
20
69.180000000000
30
0.0
11
87.720000000000
21
69.180000000000
31
0.0
0
LINE
5
4b0
100
AcDbEntity
8
F-F
6
CONTINUOUS
62
4
100
AcDbLine
10
86.120000000000
20
60.860000000000
30
0.0
11
87.720000000000
21
60.860000000000
31
0.0
0
LINE
5
4b1
100
AcDbEntity
8
F-F
6
CONTINUOUS
62
4
100
AcDbLine
10
86.120000000000
20
61.180000000000
30
0.0
11
87.720000000000
21
61.180000000000
31
0.0
0
LINE
5
4b2
100
AcDbEntity
8
F-F
6
CONTINUOUS
62
4
100
AcDbLine
10
85.390000000000
20
73.340000000000
30
0.0
11
87.720000000000
21
73.340000000000
31
0.0
0
LINE
5
4b3
100
AcDbEntity
8
F-F
6
CONTINUOUS
62
4
100
AcDbLine
10
85.070000000000
20
73.020000000000
30
0.0
11
87.720000000000
21
73.020000000000
31
0.0
0
LINE
5
4b4
100
AcDbEntity
8
F-F
6
CONTINUOUS
62
4
100
AcDbLine
10
77.070000000000
20
65.020000000000
30
0.0
11
78.200000000000
21
65.020000000000
31
0.0
0
LINE
5
4b5
100
AcDbEntity
8
F-F
6
CONTINUOUS
62
4
100
AcDbLine
10
76.750000000000
20
64.700000000000
30
0.0
11
77.880000000000
21
64.700000000000
31
0.0
0
LINE
5
4b6
100
AcDbEntity
8
F-F
6
CONTINUOUS
62
4
100
AcDbLine
10
76.430000000000
20
64.380000000000
30
0.0
11
77.560000000000
21
64.380000000000
31
0.0
0
LINE
5
4b7
100
AcDbEntity
8
F-F
6
CONTINUOUS
62
4
100
AcDbLine
10
76.110000000000
20
64.060000000000
30
0.0
11
77.240000000000
21
64.060000000000
31
0.0
0
LINE
5
4b8
100
AcDbEntity
8
F-F
6
CONTINUOUS
62
4
100
AcDbLine
10
78.350000000000
20
66.300000000000
30
0.0
11
79.480000000000
21
66.300000000000
31
0.0
0
LINE
5
4b9
100
AcDbEntity
8
F-F
6
CONTINUOUS
62
4
100
AcDbLine
10
78.030000000000
20
65.980000000000
30
0.0
11
79.160000000000
21
65.980000000000
31
0.0
0
LINE
5
4ba
100
AcDbEntity
8
F-F
6
CONTINUOUS
62
4
100
AcDbLine
10
77.710000000000
20
65.660000000000
30
0.0
11
78.840000000000
21
65.660000000000
31
0.0
0
LINE
5
4bb
100
AcDbEntity
8
F-F
6
CONTINUOUS
62
4
100
AcDbLine
10
77.390000000000
20
65.340000000000
30
0.0
11
78.520000000000
21
65.340000000000
31
0.0
0
LINE
5
4bc
100
AcDbEntity
8
F-F
6
CONTINUOUS
62
4
100
AcDbLine
10
79.630000000000
20
67.580000000000
30
0.0
11
80.760000000000
21
67.580000000000
31
0.0
0
LINE
5
4bd
100
AcDbEntity
8
F-F
6
CONTINUOUS
62
4
100
AcDbLine
10
79.310000000000
20
67.260000000000
30
0.0
11
80.440000000000
21
67.260000000000
31
0.0
0
LINE
5
4be
100
AcDbEntity
8
F-F
6
CONTINUOUS
62
4
100
AcDbLine
10
78.990000000000
20
66.940000000000
30
0.0
11
80.120000000000
21
66.940000000000
31
0.0
0
LINE
5
4bf
100
AcDbEntity
8
F-F
6
CONTINUOUS
62
4
100
AcDbLine
10
78.670000000000
20
66.620000000000
30
0.0
11
79.800000000000
21
66.620000000000
31
0.0
0
LINE
5
4c0
100
AcDbEntity
8
F-F
6
CONTINUOUS
62
4
100
AcDbLine
10
80.910000000000
20
68.860000000000
30
0.0
11
82.040000000000
21
68.860000000000
31
0.0
0
LINE
5
4c1
100
AcDbEntity
8
F-F
6
CONTINUOUS
62
4
100
AcDbLine
10
80.590000000000
20
68.540000000000
30
0.0
11
81.720000000000
21
68.540000000000
31
0.0
0
LINE
5
4c2
100
AcDbEntity
8
F-F
6
CONTINUOUS
62
4
100
AcDbLine
10
80.270000000000
20
68.220000000000
30
0.0
11
81.400000000000
21
68.220000000000
31
0.0
0
LINE
5
4c3
100
AcDbEntity
8
F-F
6
CONTINUOUS
62
4
100
AcDbLine
10
79.950000000000
20
67.900000000000
30
0.0
11
81.080000000000
21
67.900000000000
31
0.0
0
LINE
5
4c4
100
AcDbEntity
8
F-F
6
CONTINUOUS
62
4
100
AcDbLine
10
82.190000000000
20
70.140000000000
30
0.0
11
83.320000000000
21
70.140000000000
31
0.0
0
LINE
5
4c5
100
AcDbEntity
8
F-F
6
CONTINUOUS
62
4
100
AcDbLine
10
81.870000000000
20
69.820000000000
30
0.0
11
83.000000000000
21
69.820000000000
31
0.0
0
LINE
5
4c6
100
AcDbEntity
8
F-F
6
CONTINUOUS
62
4
100
AcDbLine
10
81.550000000000
20
69.500000000000
30
0.0
11
82.680000000000
21
69.500000000000
31
0.0
0
LINE
5
4c7
100
AcDbEntity
8
F-F
6
CONTINUOUS
62
4
100
AcDbLine
10
81.230000000000
20
69.180000000000
30
0.0
11
82.360000000000
21
69.180000000000
31
0.0
0
LINE
5
4c8
100
AcDbEntity
8
F-F
6
CONTINUOUS
62
4
100
AcDbLine
10
83.470000000000
20
71.420000000000
30
0.0
11
84.600000000000
21
71.420000000000
31
0.0
0
LINE
5
4c9
100
AcDbEntity
8
F-F
6
CONTINUOUS
62
4
100
AcDbLine
10
83.150000000000
20
71.100000000000
30
0.0
11
84.280000000000
21
71.100000000000
31
0.0
0
LINE
5
4ca
100
AcDbEntity
8
F-F
6
CONTINUOUS
62
4
100
AcDbLine
10
82.830000000000
20
70.780000000000
30
0.0
11
83.960000000000
21
70.780000000000
31
0.0
0
LINE
5
4cb
100
AcDbEntity
8
F-F
6
CONTINUOUS
62
4
100
AcDbLine
10
82.510000000000
20
70.460000000000
30
0.0
11
83.640000000000
21
70.460000000000
31
0.0
0
LINE
5
4cc
100
AcDbEntity
8
F-F
6
CONTINUOUS
62
4
100
AcDbLine
10
84.750000000000
20
72.700000000000
30
0.0
11
85.880000000000
21
72.700000000000
31
0.0
0
LINE
5
4cd
100
AcDbEntity
8
F-F
6
CONTINUOUS
62
4
100
AcDbLine
10
84.430000000000
20
72.380000000000
30
0.0
11
85.560000000000
21
72.380000000000
31
0.0
0
LINE
5
4ce
100
AcDbEntity
8
F-F
6
CONTINUOUS
62
4
100
AcDbLine
10
84.110000000000
20
72.060000000000
30
0.0
11
85.240000000000
21
72.060000000000
31
0.0
0
LINE
5
4cf
100
AcDbEntity
8
F-F
6
CONTINUOUS
62
4
100
AcDbLine
10
83.790000000000
20
71.740000000000
30
0.0
11
84.920000000000
21
71.740000000000
31
0.0
0
LINE
5
4d0
100
AcDbEntity
8
F-F
6
CONTINUOUS
62
4
100
AcDbLine
10
86.120000000000
20
65.660000000000
30
0.0
11
87.720000000000
21
65.660000000000
31
0.0
0
LINE
5
4d1
100
AcDbEntity
8
F-4
6
CONTINUOUS
62
7
100
AcDbLine
10
335.370000000000
20
832.250000000000
30
0.0
11
361.460000000000
21
838.130000000000
31
0.0
0
LINE
5
4d2
100
AcDbEntity
8
F-4
6
CONTINUOUS
62
7
100
AcDbLine
10
368.890000000000
20
829.280000000000
30
0.0
11
368.890000000000
21
832.300000000000
31
0.0
0
LINE
5
4d3
100
AcDbEntity
8
F-4
6
CONTINUOUS
62
7
100
AcDbLine
10
420.890000000000
20
832.300000000000
30
0.0
11
420.890000000000
21
829.280000000000
31
0.0
0
LINE
5
4d4
100
AcDbEntity
8
F-4
6
CONTINUOUS
62
7
100
AcDbLine
10
376.890000000000
20
866.020000000000
30
0.0
11
376.890000000000
21
850.830000000000
31
0.0
0
LINE
5
4d5
100
AcDbEntity
8
F-4
6
CONTINUOUS
62
7
100
AcDbLine
10
454.400000000000
20
832.250000000000
30
0.0
11
428.310000000000
21
838.130000000000
31
0.0
0
LINE
5
4d6
100
AcDbEntity
8
F-4
6
CONTINUOUS
62
7
100
AcDbLine
10
412.890000000000
20
866.020000000000
30
0.0
11
412.890000000000
21
850.830000000000
31
0.0
0
LINE
5
4d7
100
AcDbEntity
8
F-4
6
CONTINUOUS
62
7
100
AcDbLine
10
410.230000000000
20
871.280000000000
30
0.0
11
379.550000000000
21
871.280000000000
31
0.0
0
LINE
5
4d8
100
AcDbEntity
8
F-4
6
CONTINUOUS
62
7
100
AcDbLine
10
420.890000000000
20
829.280000000000
30
0.0
11
368.890000000000
21
829.280000000000
31
0.0
0
LINE
5
4d9
100
AcDbEntity
8
F-4
6
CONTINUOUS
62
7
100
AcDbLine
10
458.890000000000
20
833.280000000000
30
0.0
11
454.400000000000
21
832.250000000000
31
0.0
0
LINE
5
4da
100
AcDbEntity
8
F-4
6
CONTINUOUS
62
7
100
AcDbLine
10
367.700000000000
20
810.510000000000
30
0.0
11
368.710000000000
21
833.750000000000
31
0.0
0
LINE
5
4db
100
AcDbEntity
8
F-4
6
CONTINUOUS
62
7
100
AcDbLine
10
422.070000000000
20
810.510000000000
30
0.0
11
421.060000000000
21
833.750000000000
31
0.0
0
LINE
5
4dc
100
AcDbEntity
8
F-4
6
CONTINUOUS
62
7
100
AcDbLine
10
362.910000000000
20
819.690000000000
30
0.0
11
363.870000000000
21
830.700000000000
31
0.0
0
LINE
5
4dd
100
AcDbEntity
8
F-4
6
CONTINUOUS
62
7
100
AcDbLine
10
356.530000000000
20
820.160000000000
30
0.0
11
358.020000000000
21
837.350000000000
31
0.0
0
LINE
5
4de
100
AcDbEntity
8
F-4
6
CONTINUOUS
62
7
100
AcDbLine
10
433.250000000000
20
820.160000000000
30
0.0
11
431.750000000000
21
837.350000000000
31
0.0
0
LINE
5
4df
100
AcDbEntity
8
F-4
6
CONTINUOUS
62
7
100
AcDbLine
10
452.370000000000
20
782.960000000000
30
0.0
11
431.130000000000
21
795.450000000000
31
0.0
0
LINE
5
4e0
100
AcDbEntity
8
F-4
6
CONTINUOUS
62
7
100
AcDbLine
10
426.870000000000
20
819.600000000000
30
0.0
11
425.910000000000
21
830.700000000000
31
0.0
0
LINE
5
4e1
100
AcDbEntity
8
F-4
6
CONTINUOUS
62
7
100
AcDbLine
10
439.000000000000
20
810.930000000000
30
0.0
11
463.890000000000
21
795.890000000000
31
0.0
0
LINE
5
4e2
100
AcDbEntity
8
F-4
6
CONTINUOUS
62
7
100
AcDbLine
10
435.690000000000
20
805.450000000000
30
0.0
11
460.580000000000
21
790.410000000000
31
0.0
0
LINE
5
4e3
100
AcDbEntity
8
F-4
6
CONTINUOUS
62
7
100
AcDbLine
10
337.410000000000
20
782.960000000000
30
0.0
11
358.650000000000
21
795.450000000000
31
0.0
0
LINE
5
4e4
100
AcDbEntity
8
F-4
6
CONTINUOUS
62
7
100
AcDbLine
10
354.080000000000
20
805.450000000000
30
0.0
11
329.190000000000
21
790.410000000000
31
0.0
0
LINE
5
4e5
100
AcDbEntity
8
F-4
6
CONTINUOUS
62
7
100
AcDbLine
10
350.770000000000
20
810.930000000000
30
0.0
11
325.880000000000
21
795.890000000000
31
0.0
0
LINE
5
4e6
100
AcDbEntity
8
F-4
6
CONTINUOUS
62
7
100
AcDbLine
10
333.630000000000
20
832.650000000000
30
0.0
11
335.370000000000
21
832.250000000000
31
0.0
0
LINE
5
4e7
100
AcDbEntity
8
F-4
6
CONTINUOUS
62
3
100
AcDbLine
10
472.310000000000
20
802.930000000000
30
0.0
11
514.890000000000
21
755.310000000000
31
0.0
0
LINE
5
4e8
100
AcDbEntity
8
F-4
6
CONTINUOUS
62
3
100
AcDbLine
10
471.120000000000
20
801.860000000000
30
0.0
11
514.890000000000
21
752.910000000000
31
0.0
0
LINE
5
4e9
100
AcDbEntity
8
F-4
6
CONTINUOUS
62
7
100
AcDbLine
10
514.890000000000
20
731.110000000000
30
0.0
11
469.080000000000
21
791.210000000000
31
0.0
0
LINE
5
4ea
100
AcDbEntity
8
F-4
6
CONTINUOUS
62
7
100
AcDbLine
10
514.890000000000
20
720.560000000000
30
0.0
11
463.990000000000
21
787.330000000000
31
0.0
0
LINE
5
4eb
100
AcDbEntity
8
F-4
6
CONTINUOUS
62
7
100
AcDbLine
10
514.890000000000
20
702.410000000000
30
0.0
11
455.820000000000
21
779.890000000000
31
0.0
0
LINE
5
4ec
100
AcDbEntity
8
F-4
6
CONTINUOUS
62
3
100
AcDbLine
10
274.890000000000
20
755.490000000000
30
0.0
11
317.160000000000
21
802.760000000000
31
0.0
0
LINE
5
4ed
100
AcDbEntity
8
F-4
6
CONTINUOUS
62
3
100
AcDbLine
10
274.890000000000
20
753.090000000000
30
0.0
11
318.350000000000
21
801.690000000000
31
0.0
0
LINE
5
4ee
100
AcDbEntity
8
F-4
6
CONTINUOUS
62
7
100
AcDbLine
10
274.890000000000
20
731.110000000000
30
0.0
11
320.700000000000
21
791.210000000000
31
0.0
0
LINE
5
4ef
100
AcDbEntity
8
F-4
6
CONTINUOUS
62
7
100
AcDbLine
10
274.890000000000
20
720.560000000000
30
0.0
11
325.790000000000
21
787.330000000000
31
0.0
0
LINE
5
4f0
100
AcDbEntity
8
F-4
6
CONTINUOUS
62
7
100
AcDbLine
10
274.890000000000
20
702.410000000000
30
0.0
11
333.950000000000
21
779.890000000000
31
0.0
0
LINE
5
4f1
100
AcDbEntity
8
0-1
6
CONTINUOUS
62
7
100
AcDbLine
10
190.160000000000
20
350.570000000000
30
0.0
11
175.160000000000
21
350.570000000000
31
0.0
0
LINE
5
4f2
100
AcDbEntity
8
0-1
6
CONTINUOUS
62
3
100
AcDbLine
10
295.160000000000
20
342.570000000000
30
0.0
11
329.410000000000
21
342.570000000000
31
0.0
0
LINE
5
4f3
100
AcDbEntity
8
0-1
6
CONTINUOUS
62
3
100
AcDbLine
10
337.410000000000
20
263.070000000000
30
0.0
11
337.410000000000
21
334.570000000000
31
0.0
0
POLYLINE
5
4f4
100
AcDbEntity
8
0-1
6
CONTINUOUS
62
  3
100
AcDb2dPolyline
66
1
10
0.0
20
0.0
30
0.0
70
0
0
VERTEX
5
4f5
100
AcDbEntity
8
0-1
6
CONTINUOUS
62
  3
100
AcDbVertex
100
AcDb2dVertex
10
385.160000000000
20
350.570000000000
30
0.0
0
VERTEX
5
4f6
100
AcDbEntity
8
0-1
6
CONTINUOUS
62
  3
100
AcDbVertex
100
AcDb2dVertex
10
385.160000000000
20
342.570000000000
30
0.0
0
VERTEX
5
4f7
100
AcDbEntity
8
0-1
6
CONTINUOUS
62
  3
100
AcDbVertex
100
AcDb2dVertex
10
350.910000000000
20
342.570000000000
30
0.0
0
SEQEND
5
4f8
100
AcDbEntity
8
0-1
0
LINE
5
4f9
100
AcDbEntity
8
0-1
6
CONTINUOUS
62
3
100
AcDbLine
10
342.910000000000
20
263.070000000000
30
0.0
11
342.910000000000
21
334.570000000000
31
0.0
0
LINE
5
4fa
100
AcDbEntity
8
0-1
6
CONTINUOUS
62
7
100
AcDbLine
10
190.160000000000
20
362.570000000000
30
0.0
11
175.160000000000
21
362.570000000000
31
0.0
0
LINE
5
4fb
100
AcDbEntity
8
0-2
6
CONTINUOUS
62
7
100
AcDbLine
10
528.900000000000
20
522.540000000000
30
0.0
11
538.560000000000
21
525.130000000000
31
0.0
0
LINE
5
4fc
100
AcDbEntity
8
0-2
6
CONTINUOUS
62
7
100
AcDbLine
10
528.900000000000
20
522.540000000000
30
0.0
11
538.560000000000
21
519.950000000000
31
0.0
0
LINE
5
4fd
100
AcDbEntity
8
0-2
6
CONTINUOUS
62
7
100
AcDbLine
10
1428.900000000000
20
522.540000000000
30
0.0
11
1419.240000000000
21
525.130000000000
31
0.0
0
LINE
5
4fe
100
AcDbEntity
8
0-2
6
CONTINUOUS
62
7
100
AcDbLine
10
1428.900000000000
20
522.540000000000
30
0.0
11
1419.240000000000
21
519.950000000000
31
0.0
0
LINE
5
4ff
100
AcDbEntity
8
0-2
6
CENTER2
62
7
100
AcDbLine
10
678.900000000000
20
522.540000000000
30
0.0
11
678.900000000000
21
446.560000000000
31
0.0
0
LINE
5
500
100
AcDbEntity
8
0-2
6
CENTER2
62
7
100
AcDbLine
10
1278.900000000000
20
522.540000000000
30
0.0
11
1278.900000000000
21
446.560000000000
31
0.0
0
LINE
5
501
100
AcDbEntity
8
0-2
6
CONTINUOUS
62
7
100
AcDbLine
10
731.410000000000
20
378.990000000000
30
0.0
11
770.270000000000
21
446.280000000000
31
0.0
0
LINE
5
502
100
AcDbEntity
8
0-1
6
CONTINUOUS
62
3
100
AcDbLine
10
454.750000000000
20
362.770000000000
30
0.0
11
225.160000000000
21
362.770000000000
31
0.0
0
LINE
5
503
100
AcDbEntity
8
0-1
6
CONTINUOUS
62
3
100
AcDbLine
10
454.750000000000
20
445.570000000000
30
0.0
11
225.160000000000
21
445.570000000000
31
0.0
0
LINE
5
504
100
AcDbEntity
8
0-1
6
CONTINUOUS
62
3
100
AcDbLine
10
454.750000000000
20
411.570000000000
30
0.0
11
225.160000000000
21
411.570000000000
31
0.0
0
LINE
5
505
100
AcDbEntity
8
0-1
6
CONTINUOUS
62
7
100
AcDbLine
10
195.160000000000
20
445.570000000000
30
0.0
11
180.160000000000
21
445.570000000000
31
0.0
0
LINE
5
506
100
AcDbEntity
8
0-1
6
CONTINUOUS
62
7
100
AcDbLine
10
175.160000000000
20
350.570000000000
30
0.0
11
160.160000000000
21
350.570000000000
31
0.0
0
LINE
5
507
100
AcDbEntity
8
0-1
6
CONTINUOUS
62
7
100
AcDbLine
10
175.160000000000
20
362.570000000000
30
0.0
11
160.160000000000
21
362.570000000000
31
0.0
0
LINE
5
508
100
AcDbEntity
8
0-1
6
CONTINUOUS
62
7
100
AcDbLine
10
160.160000000000
20
370.570000000000
30
0.0
11
160.160000000000
21
350.570000000000
31
0.0
0
LINE
5
509
100
AcDbEntity
8
0-1
6
CONTINUOUS
62
7
100
AcDbLine
10
180.160000000000
20
411.570000000000
30
0.0
11
180.160000000000
21
445.570000000000
31
0.0
0
LINE
5
50a
100
AcDbEntity
8
0-1
6
CONTINUOUS
62
7
100
AcDbLine
10
195.160000000000
20
411.570000000000
30
0.0
11
180.160000000000
21
411.570000000000
31
0.0
0
LINE
5
50b
100
AcDbEntity
8
0-1
6
DOT
62
7
100
AcDbLine
10
321.410000000000
20
405.770000000000
30
0.0
11
329.480000000000
21
405.770000000000
31
0.0
0
LINE
5
50c
100
AcDbEntity
8
0-1
6
DOT
62
7
100
AcDbLine
10
321.410000000000
20
395.770000000000
30
0.0
11
328.390000000000
21
395.770000000000
31
0.0
0
LINE
5
50d
100
AcDbEntity
8
0-1
6
DOT
62
7
100
AcDbLine
10
358.910000000000
20
395.770000000000
30
0.0
11
351.920000000000
21
395.770000000000
31
0.0
0
LINE
5
50e
100
AcDbEntity
8
0-1
6
DOT
62
7
100
AcDbLine
10
358.910000000000
20
405.770000000000
30
0.0
11
350.830000000000
21
405.770000000000
31
0.0
0
LINE
5
50f
100
AcDbEntity
8
0-1
6
CONTINUOUS
62
7
100
AcDbLine
10
320.160000000000
20
353.770000000000
30
0.0
11
320.160000000000
21
350.570000000000
31
0.0
0
LINE
5
510
100
AcDbEntity
8
0-1
6
CONTINUOUS
62
7
100
AcDbLine
10
360.160000000000
20
353.770000000000
30
0.0
11
360.160000000000
21
350.570000000000
31
0.0
0
LINE
5
511
100
AcDbEntity
8
0-1
6
DOT
62
7
100
AcDbLine
10
335.940000000000
20
391.580000000000
30
0.0
11
344.380000000000
21
391.580000000000
31
0.0
0
LINE
5
512
100
AcDbEntity
8
0-1
6
DOT
62
7
100
AcDbLine
10
332.250000000000
20
394.370000000000
30
0.0
11
335.290000000000
21
391.810000000000
31
0.0
0
LINE
5
513
100
AcDbEntity
8
0-1
6
DOT
62
7
100
AcDbLine
10
331.590000000000
20
405.380000000000
30
0.0
11
335.400000000000
21
403.950000000000
31
0.0
0
LINE
5
514
100
AcDbEntity
8
0-1
6
DOT
62
7
100
AcDbLine
10
344.910000000000
20
403.950000000000
30
0.0
11
348.720000000000
21
405.380000000000
31
0.0
0
LINE
5
515
100
AcDbEntity
8
0-1
6
DOT
62
7
100
AcDbLine
10
345.020000000000
20
391.810000000000
30
0.0
11
348.070000000000
21
394.370000000000
31
0.0
0
LINE
5
516
100
AcDbEntity
8
0-1
6
DOT
62
7
100
AcDbLine
10
335.750000000000
20
403.890000000000
30
0.0
11
344.560000000000
21
403.890000000000
31
0.0
0
LINE
5
517
100
AcDbEntity
8
0-1
6
DOT
62
7
100
AcDbLine
10
317.660000000000
20
414.850000000000
30
0.0
11
317.660000000000
21
426.770000000000
31
0.0
0
LINE
5
518
100
AcDbEntity
8
0-1
6
DOT
62
7
100
AcDbLine
10
362.660000000000
20
414.850000000000
30
0.0
11
317.660000000000
21
414.850000000000
31
0.0
0
LINE
5
519
100
AcDbEntity
8
0-1
6
DOT
62
7
100
AcDbLine
10
352.660000000000
20
436.770000000000
30
0.0
11
327.660000000000
21
436.770000000000
31
0.0
0
LINE
5
51a
100
AcDbEntity
8
0-1
6
DOT
62
7
100
AcDbLine
10
362.660000000000
20
414.850000000000
30
0.0
11
362.660000000000
21
426.770000000000
31
0.0
0
LINE
5
51b
100
AcDbEntity
8
0-1
6
DOT
62
7
100
AcDbLine
10
362.660000000000
20
415.370000000000
30
0.0
11
317.660000000000
21
415.370000000000
31
0.0
0
LINE
5
51c
100
AcDbEntity
8
0-1
6
CONTINUOUS
62
7
100
AcDbLine
10
320.160000000000
20
350.570000000000
30
0.0
11
327.660000000000
21
350.570000000000
31
0.0
0
LINE
5
51d
100
AcDbEntity
8
0-1
6
CONTINUOUS
62
7
100
AcDbLine
10
350.010000000000
20
351.570000000000
30
0.0
11
340.160000000000
21
351.570000000000
31
0.0
0
LINE
5
51e
100
AcDbEntity
8
0-1
6
CONTINUOUS
62
7
100
AcDbLine
10
350.010000000000
20
354.770000000000
30
0.0
11
340.160000000000
21
354.770000000000
31
0.0
0
LINE
5
51f
100
AcDbEntity
8
0-1
6
CONTINUOUS
62
7
100
AcDbLine
10
330.300000000000
20
351.570000000000
30
0.0
11
340.160000000000
21
351.570000000000
31
0.0
0
LINE
5
520
100
AcDbEntity
8
0-1
6
CONTINUOUS
62
7
100
AcDbLine
10
330.300000000000
20
354.770000000000
30
0.0
11
340.160000000000
21
354.770000000000
31
0.0
0
LINE
5
521
100
AcDbEntity
8
0-1
6
CONTINUOUS
62
7
100
AcDbLine
10
352.660000000000
20
353.770000000000
30
0.0
11
360.160000000000
21
353.770000000000
31
0.0
0
LINE
5
522
100
AcDbEntity
8
0-1
6
CONTINUOUS
62
7
100
AcDbLine
10
352.660000000000
20
350.570000000000
30
0.0
11
360.160000000000
21
350.570000000000
31
0.0
0
LINE
5
523
100
AcDbEntity
8
0-1
6
CONTINUOUS
62
7
100
AcDbLine
10
320.160000000000
20
353.770000000000
30
0.0
11
327.660000000000
21
353.770000000000
31
0.0
0
LINE
5
524
100
AcDbEntity
8
0-1
6
CONTINUOUS
62
4
100
AcDbLine
10
320.160000000000
20
350.570000000000
30
0.0
11
360.160000000000
21
350.570000000000
31
0.0
0
LINE
5
525
100
AcDbEntity
8
0-1
6
DOT
62
3
100
AcDbLine
10
454.750000000000
20
436.510000000000
30
0.0
11
225.160000000000
21
436.510000000000
31
0.0
0
LINE
5
526
100
AcDbEntity
8
0-1
6
CONTINUOUS
62
3
100
AcDbLine
10
295.160000000000
20
350.570000000000
30
0.0
11
295.160000000000
21
342.570000000000
31
0.0
0
LINE
5
527
100
AcDbEntity
8
0-1
6
CONTINUOUS
62
3
100
AcDbLine
10
385.160000000000
20
350.570000000000
30
0.0
11
295.160000000000
21
350.570000000000
31
0.0
0
LINE
5
528
100
AcDbEntity
8
0-1
6
CONTINUOUS
62
7
100
AcDbLine
10
321.410000000000
20
370.570000000000
30
0.0
11
321.410000000000
21
355.020000000000
31
0.0
0
LINE
5
529
100
AcDbEntity
8
0-1
6
CONTINUOUS
62
7
100
AcDbLine
10
330.570000000000
20
370.570000000000
30
0.0
11
330.570000000000
21
354.770000000000
31
0.0
0
LINE
5
52a
100
AcDbEntity
8
0-1
6
CONTINUOUS
62
7
100
AcDbLine
10
335.570000000000
20
370.570000000000
30
0.0
11
335.570000000000
21
354.770000000000
31
0.0
0
LINE
5
52b
100
AcDbEntity
8
0-1
6
CONTINUOUS
62
7
100
AcDbLine
10
344.740000000000
20
370.570000000000
30
0.0
11
344.740000000000
21
354.770000000000
31
0.0
0
LINE
5
52c
100
AcDbEntity
8
0-1
6
CONTINUOUS
62
7
100
AcDbLine
10
349.740000000000
20
370.570000000000
30
0.0
11
349.740000000000
21
354.770000000000
31
0.0
0
LINE
5
52d
100
AcDbEntity
8
0-1
6
CONTINUOUS
62
7
100
AcDbLine
10
358.910000000000
20
370.570000000000
30
0.0
11
358.910000000000
21
355.020000000000
31
0.0
0
LINE
5
52e
100
AcDbEntity
8
0-1
6
CONTINUOUS
62
3
100
AcDbLine
10
454.750000000000
20
407.920000000000
30
0.0
11
225.160000000000
21
407.920000000000
31
0.0
0
LINE
5
52f
100
AcDbEntity
8
0-1
6
CONTINUOUS
62
7
100
AcDbLine
10
321.410000000000
20
373.490000000000
30
0.0
11
358.910000000000
21
373.490000000000
31
0.0
0
LINE
5
530
100
AcDbEntity
8
F-4
6
CONTINUOUS
62
7
100
AcDbLine
10
456.480000000000
20
830.960000000000
30
0.0
11
440.750000000000
21
834.500000000000
31
0.0
0
LINE
5
531
100
AcDbEntity
8
F-4
6
CONTINUOUS
62
7
100
AcDbLine
10
440.400000000000
20
832.940000000000
30
0.0
11
440.750000000000
21
834.500000000000
31
0.0
0
LINE
5
532
100
AcDbEntity
8
F-4
6
CONTINUOUS
62
7
100
AcDbLine
10
456.130000000000
20
829.400000000000
30
0.0
11
440.400000000000
21
832.940000000000
31
0.0
0
POLYLINE
5
533
100
AcDbEntity
8
F-4
6
CONTINUOUS
62
  7
100
AcDb2dPolyline
66
1
10
0.0
20
0.0
30
0.0
70
0
0
VERTEX
5
534
100
AcDbEntity
8
F-4
6
CONTINUOUS
62
  7
100
AcDbVertex
100
AcDb2dVertex
10
339.020000000000
20
827.100000000000
30
0.0
0
VERTEX
5
535
100
AcDbEntity
8
F-4
6
CONTINUOUS
62
  7
100
AcDbVertex
100
AcDb2dVertex
10
345.450000000000
20
827.660000000000
30
0.0
0
VERTEX
5
536
100
AcDbEntity
8
F-4
6
CONTINUOUS
62
  7
100
AcDbVertex
100
AcDb2dVertex
10
345.590000000000
20
826.070000000000
30
0.0
0
SEQEND
5
537
100
AcDbEntity
8
F-4
0
LINE
5
538
100
AcDbEntity
8
F-4
6
CONTINUOUS
62
7
100
AcDbLine
10
339.160000000000
20
825.510000000000
30
0.0
11
345.590000000000
21
826.070000000000
31
0.0
0
LINE
5
539
100
AcDbEntity
8
F-4
6
CONTINUOUS
62
7
100
AcDbLine
10
372.740000000000
20
890.830000000000
30
0.0
11
375.640000000000
21
891.590000000000
31
0.0
0
LINE
5
53a
100
AcDbEntity
8
F-4
6
CONTINUOUS
62
7
100
AcDbLine
10
373.290000000000
20
889.320000000000
30
0.0
11
375.990000000000
21
890.030000000000
31
0.0
0
LINE
5
53b
100
AcDbEntity
8
F-4
6
CONTINUOUS
62
3
100
AcDbLine
10
346.900000000000
20
826.140000000000
30
0.0
11
347.040000000000
21
824.540000000000
31
0.0
0
LINE
5
53c
100
AcDbEntity
8
F-4
6
CONTINUOUS
62
3
100
AcDbLine
10
337.480000000000
20
823.710000000000
30
0.0
11
347.040000000000
21
824.540000000000
31
0.0
0
LINE
5
53d
100
AcDbEntity
8
F-4
6
CONTINUOUS
62
3
100
AcDbLine
10
337.440000000000
20
825.310000000000
30
0.0
11
346.900000000000
21
826.140000000000
31
0.0
0
LINE
5
53e
100
AcDbEntity
8
0-2
6
CONTINUOUS
62
7
100
AcDbLine
10
619.270000000000
20
461.580000000000
30
0.0
11
643.080000000000
21
461.580000000000
31
0.0
0
LINE
5
53f
100
AcDbEntity
8
0-2
6
CONTINUOUS
62
7
100
AcDbLine
10
664.360000000000
20
424.730000000000
30
0.0
11
643.080000000000
21
461.580000000000
31
0.0
0
LINE
5
540
100
AcDbEntity
8
0-2
6
CONTINUOUS
62
7
100
AcDbLine
10
646.830000000000
20
423.380000000000
30
0.0
11
640.100000000000
21
435.040000000000
31
0.0
0
LINE
5
541
100
AcDbEntity
8
F-4
6
CONTINUOUS
62
7
100
AcDbLine
10
338.470000000000
20
859.520000000000
30
0.0
11
331.740000000000
21
871.170000000000
31
0.0
0
LINE
5
542
100
AcDbEntity
8
F-4
6
CONTINUOUS
62
7
100
AcDbLine
10
352.340000000000
20
881.680000000000
30
0.0
11
341.500000000000
21
900.450000000000
31
0.0
0
LINE
5
543
100
AcDbEntity
8
F-4
6
CONTINUOUS
62
7
100
AcDbLine
10
333.180000000000
20
720.910000000000
30
0.0
11
306.180000000000
21
720.910000000000
31
0.0
0
LINE
5
544
100
AcDbEntity
8
F-4
6
CONTINUOUS
62
7
100
AcDbLine
10
295.340000000000
20
739.680000000000
30
0.0
11
306.180000000000
21
720.910000000000
31
0.0
0
LINE
5
545
100
AcDbEntity
8
0-2
6
CONTINUOUS
62
7
100
AcDbLine
10
619.270000000000
20
435.040000000000
30
0.0
11
640.100000000000
21
435.040000000000
31
0.0
0
LINE
5
546
100
AcDbEntity
8
0-2
6
CONTINUOUS
62
7
100
AcDbLine
10
831.600000000000
20
363.970000000000
30
0.0
11
811.630000000000
21
329.370000000000
31
0.0
0
LINE
5
547
100
AcDbEntity
8
0-0
6
CONTINUOUS
62
3
100
AcDbLine
10
853.900000000000
20
767.460000000000
30
0.0
11
803.900000000000
21
767.460000000000
31
0.0
0
LINE
5
548
100
AcDbEntity
8
0-0
6
CONTINUOUS
62
3
100
AcDbLine
10
858.190000000000
20
763.170000000000
30
0.0
11
917.900000000000
21
763.170000000000
31
0.0
0
LINE
5
549
100
AcDbEntity
8
0-0
6
CONTINUOUS
62
3
100
AcDbLine
10
853.900000000000
20
767.460000000000
30
0.0
11
858.190000000000
21
763.170000000000
31
0.0
0
LINE
5
54a
100
AcDbEntity
8
0-0
6
CONTINUOUS
62
3
100
AcDbLine
10
1103.900000000000
20
767.460000000000
30
0.0
11
1153.900000000000
21
767.460000000000
31
0.0
0
LINE
5
54b
100
AcDbEntity
8
0-0
6
CONTINUOUS
62
3
100
AcDbLine
10
1099.610000000000
20
763.170000000000
30
0.0
11
1039.900000000000
21
763.170000000000
31
0.0
0
LINE
5
54c
100
AcDbEntity
8
0-0
6
CONTINUOUS
62
3
100
AcDbLine
10
1103.900000000000
20
767.460000000000
30
0.0
11
1099.610000000000
21
763.170000000000
31
0.0
0
LINE
5
54d
100
AcDbEntity
8
0-0
6
CONTINUOUS
62
3
100
AcDbLine
10
799.610000000000
20
763.170000000000
30
0.0
11
739.900000000000
21
763.170000000000
31
0.0
0
LINE
5
54e
100
AcDbEntity
8
0-0
6
CONTINUOUS
62
3
100
AcDbLine
10
803.900000000000
20
767.460000000000
30
0.0
11
799.610000000000
21
763.170000000000
31
0.0
0
LINE
5
54f
100
AcDbEntity
8
0-0
6
CONTINUOUS
62
3
100
AcDbLine
10
739.900000000000
20
763.170000000000
30
0.0
11
718.770000000000
21
801.670000000000
31
0.0
0
LINE
5
550
100
AcDbEntity
8
0-0
6
CONTINUOUS
62
3
100
AcDbLine
10
646.650000000000
20
815.040000000000
30
0.0
11
651.340000000000
21
814.720000000000
31
0.0
0
LINE
5
551
100
AcDbEntity
8
0-0
6
CONTINUOUS
62
3
100
AcDbLine
10
711.150000000000
20
815.040000000000
30
0.0
11
706.460000000000
21
814.720000000000
31
0.0
0
LINE
5
552
100
AcDbEntity
8
0-0
6
CONTINUOUS
62
3
100
AcDbLine
10
1158.190000000000
20
763.170000000000
30
0.0
11
1217.900000000000
21
763.170000000000
31
0.0
0
LINE
5
553
100
AcDbEntity
8
0-0
6
CONTINUOUS
62
3
100
AcDbLine
10
1153.900000000000
20
767.460000000000
30
0.0
11
1158.190000000000
21
763.170000000000
31
0.0
0
LINE
5
554
100
AcDbEntity
8
0-0
6
CONTINUOUS
62
3
100
AcDbLine
10
705.650000000000
20
810.930000000000
30
0.0
11
718.770000000000
21
801.670000000000
31
0.0
0
LINE
5
555
100
AcDbEntity
8
0-0
6
CONTINUOUS
62
3
100
AcDbLine
10
951.490000000000
20
814.710000000000
30
0.0
11
947.790000000000
21
815.140000000000
31
0.0
0
LINE
5
556
100
AcDbEntity
8
0-0
6
CONTINUOUS
62
3
100
AcDbLine
10
917.900000000000
20
763.170000000000
30
0.0
11
939.030000000000
21
801.670000000000
31
0.0
0
LINE
5
557
100
AcDbEntity
8
0-0
6
CONTINUOUS
62
3
100
AcDbLine
10
1039.900000000000
20
763.170000000000
30
0.0
11
1018.770000000000
21
801.670000000000
31
0.0
0
LINE
5
558
100
AcDbEntity
8
0-0
6
CONTINUOUS
62
3
100
AcDbLine
10
1005.650000000000
20
810.930000000000
30
0.0
11
1018.770000000000
21
801.670000000000
31
0.0
0
LINE
5
559
100
AcDbEntity
8
0-0
6
CONTINUOUS
62
3
100
AcDbLine
10
952.150000000000
20
810.930000000000
30
0.0
11
939.030000000000
21
801.670000000000
31
0.0
0
LINE
5
55a
100
AcDbEntity
8
0-0
6
CONTINUOUS
62
3
100
AcDbLine
10
1006.310000000000
20
814.710000000000
30
0.0
11
1010.010000000000
21
815.140000000000
31
0.0
0
LINE
5
55b
100
AcDbEntity
8
0-0
6
CONTINUOUS
62
3
100
AcDbLine
10
1217.900000000000
20
763.170000000000
30
0.0
11
1239.030000000000
21
801.670000000000
31
0.0
0
LINE
5
55c
100
AcDbEntity
8
0-0
6
CONTINUOUS
62
3
100
AcDbLine
10
1252.150000000000
20
810.930000000000
30
0.0
11
1239.030000000000
21
801.670000000000
31
0.0
0
LINE
5
55d
100
AcDbEntity
8
0-0
6
CONTINUOUS
62
3
100
AcDbLine
10
1250.530000000000
20
816.790000000000
30
0.0
11
1247.810000000000
21
816.970000000000
31
0.0
0
LINE
5
55e
100
AcDbEntity
8
0-0
6
CONTINUOUS
62
3
100
AcDbLine
10
651.400000000000
20
815.520000000000
30
0.0
11
646.730000000000
21
815.840000000000
31
0.0
0
LINE
5
55f
100
AcDbEntity
8
0-0
6
CONTINUOUS
62
3
100
AcDbLine
10
711.080000000000
20
815.840000000000
30
0.0
11
706.400000000000
21
815.520000000000
31
0.0
0
POLYLINE
5
560
100
AcDbEntity
8
0-0
6
CONTINUOUS
62
  3
100
AcDb2dPolyline
66
1
10
0.0
20
0.0
30
0.0
70
0
0
VERTEX
5
561
100
AcDbEntity
8
0-0
6
CONTINUOUS
62
  3
100
AcDbVertex
100
AcDb2dVertex
10
705.230000000000
20
810.250000000000
30
0.0
0
VERTEX
5
562
100
AcDbEntity
8
0-0
6
CONTINUOUS
62
  3
100
AcDbVertex
100
AcDb2dVertex
10
718.160000000000
20
801.120000000000
30
0.0
0
VERTEX
5
563
100
AcDbEntity
8
0-0
6
CONTINUOUS
62
  3
100
AcDbVertex
100
AcDb2dVertex
10
739.430000000000
20
762.370000000000
30
0.0
0
VERTEX
5
564
100
AcDbEntity
8
0-0
6
CONTINUOUS
62
  3
100
AcDbVertex
100
AcDb2dVertex
10
799.940000000000
20
762.370000000000
30
0.0
0
VERTEX
5
565
100
AcDbEntity
8
0-0
6
CONTINUOUS
62
  3
100
AcDbVertex
100
AcDb2dVertex
10
804.230000000000
20
766.660000000000
30
0.0
0
VERTEX
5
566
100
AcDbEntity
8
0-0
6
CONTINUOUS
62
  3
100
AcDbVertex
100
AcDb2dVertex
10
853.570000000000
20
766.660000000000
30
0.0
0
VERTEX
5
567
100
AcDbEntity
8
0-0
6
CONTINUOUS
62
  3
100
AcDbVertex
100
AcDb2dVertex
10
857.860000000000
20
762.370000000000
30
0.0
0
VERTEX
5
568
100
AcDbEntity
8
0-0
6
CONTINUOUS
62
  3
100
AcDbVertex
100
AcDb2dVertex
10
918.370000000000
20
762.370000000000
30
0.0
0
VERTEX
5
569
100
AcDbEntity
8
0-0
6
CONTINUOUS
62
  3
100
AcDbVertex
100
AcDb2dVertex
10
939.640000000000
20
801.120000000000
30
0.0
0
VERTEX
5
56a
100
AcDbEntity
8
0-0
6
CONTINUOUS
62
  3
100
AcDbVertex
100
AcDb2dVertex
10
952.570000000000
20
810.250000000000
30
0.0
0
SEQEND
5
56b
100
AcDbEntity
8
0-0
0
LINE
5
56c
100
AcDbEntity
8
0-0
6
CONTINUOUS
62
3
100
AcDbLine
10
951.590000000000
20
815.500000000000
30
0.0
11
947.890000000000
21
815.940000000000
31
0.0
0
LINE
5
56d
100
AcDbEntity
8
0-0
6
CONTINUOUS
62
3
100
AcDbLine
10
1009.920000000000
20
815.940000000000
30
0.0
11
1006.210000000000
21
815.500000000000
31
0.0
0
POLYLINE
5
56e
100
AcDbEntity
8
0-0
6
CONTINUOUS
62
  3
100
AcDb2dPolyline
66
1
10
0.0
20
0.0
30
0.0
70
0
0
VERTEX
5
56f
100
AcDbEntity
8
0-0
6
CONTINUOUS
62
  3
100
AcDbVertex
100
AcDb2dVertex
10
1005.230000000000
20
810.250000000000
30
0.0
0
VERTEX
5
570
100
AcDbEntity
8
0-0
6
CONTINUOUS
62
  3
100
AcDbVertex
100
AcDb2dVertex
10
1018.160000000000
20
801.120000000000
30
0.0
0
VERTEX
5
571
100
AcDbEntity
8
0-0
6
CONTINUOUS
62
  3
100
AcDbVertex
100
AcDb2dVertex
10
1039.430000000000
20
762.370000000000
30
0.0
0
VERTEX
5
572
100
AcDbEntity
8
0-0
6
CONTINUOUS
62
  3
100
AcDbVertex
100
AcDb2dVertex
10
1099.940000000000
20
762.370000000000
30
0.0
0
VERTEX
5
573
100
AcDbEntity
8
0-0
6
CONTINUOUS
62
  3
100
AcDbVertex
100
AcDb2dVertex
10
1104.230000000000
20
766.660000000000
30
0.0
0
VERTEX
5
574
100
AcDbEntity
8
0-0
6
CONTINUOUS
62
  3
100
AcDbVertex
100
AcDb2dVertex
10
1153.570000000000
20
766.660000000000
30
0.0
0
VERTEX
5
575
100
AcDbEntity
8
0-0
6
CONTINUOUS
62
  3
100
AcDbVertex
100
AcDb2dVertex
10
1157.860000000000
20
762.370000000000
30
0.0
0
VERTEX
5
576
100
AcDbEntity
8
0-0
6
CONTINUOUS
62
  3
100
AcDbVertex
100
AcDb2dVertex
10
1218.370000000000
20
762.370000000000
30
0.0
0
VERTEX
5
577
100
AcDbEntity
8
0-0
6
CONTINUOUS
62
  3
100
AcDbVertex
100
AcDb2dVertex
10
1239.640000000000
20
801.120000000000
30
0.0
0
VERTEX
5
578
100
AcDbEntity
8
0-0
6
CONTINUOUS
62
  3
100
AcDbVertex
100
AcDb2dVertex
10
1252.630000000000
20
810.290000000000
30
0.0
0
SEQEND
5
579
100
AcDbEntity
8
0-0
0
LINE
5
57a
100
AcDbEntity
8
0-0
6
CONTINUOUS
62
3
100
AcDbLine
10
1250.580000000000
20
817.580000000000
30
0.0
11
1247.870000000000
21
817.770000000000
31
0.0
0
LINE
5
57b
100
AcDbEntity
8
0-0
6
CONTINUOUS
62
4
100
AcDbLine
10
1218.370000000000
20
723.170000000000
30
0.0
11
1039.430000000000
21
723.170000000000
31
0.0
0
LINE
5
57c
100
AcDbEntity
8
0-0
6
CONTINUOUS
62
4
100
AcDbLine
10
1218.370000000000
20
747.170000000000
30
0.0
11
1218.370000000000
21
723.170000000000
31
0.0
0
LINE
5
57d
100
AcDbEntity
8
0-0
6
CONTINUOUS
62
4
100
AcDbLine
10
1039.430000000000
20
747.170000000000
30
0.0
11
1039.430000000000
21
723.170000000000
31
0.0
0
POLYLINE
5
57e
100
AcDbEntity
8
0-0
6
CONTINUOUS
62
  4
100
AcDb2dPolyline
66
1
10
0.0
20
0.0
30
0.0
70
0
0
VERTEX
5
57f
100
AcDbEntity
8
0-0
6
CONTINUOUS
62
  4
100
AcDbVertex
100
AcDb2dVertex
10
918.370000000000
20
747.170000000000
30
0.0
0
VERTEX
5
580
100
AcDbEntity
8
0-0
6
CONTINUOUS
62
  4
100
AcDbVertex
100
AcDb2dVertex
10
918.370000000000
20
723.170000000000
30
0.0
0
VERTEX
5
581
100
AcDbEntity
8
0-0
6
CONTINUOUS
62
  4
100
AcDbVertex
100
AcDb2dVertex
10
739.430000000000
20
723.170000000000
30
0.0
0
SEQEND
5
582
100
AcDbEntity
8
0-0
0
LINE
5
583
100
AcDbEntity
8
0-0
6
CONTINUOUS
62
4
100
AcDbLine
10
739.430000000000
20
747.170000000000
30
0.0
11
739.430000000000
21
723.170000000000
31
0.0
0
LINE
5
584
100
AcDbEntity
8
0-0
6
CONTINUOUS
62
3
100
AcDbLine
10
651.400000000000
20
815.520000000000
30
0.0
11
651.340000000000
21
814.720000000000
31
0.0
0
LINE
5
585
100
AcDbEntity
8
0-0
6
CONTINUOUS
62
3
100
AcDbLine
10
1294.060000000000
20
842.590000000000
30
0.0
11
1293.780000000000
21
841.840000000000
31
0.0
0
LINE
5
586
100
AcDbEntity
8
0-0
6
CONTINUOUS
62
4
100
AcDbLine
10
678.900000000000
20
937.170000000000
30
0.0
11
1278.900000000000
21
937.170000000000
31
0.0
0
POLYLINE
5
587
100
AcDbEntity
8
0-0
6
CONTINUOUS
62
  4
100
AcDb2dPolyline
66
1
10
0.0
20
0.0
30
0.0
70
0
0
VERTEX
5
588
100
AcDbEntity
8
0-0
6
CONTINUOUS
62
  4
100
AcDbVertex
100
AcDb2dVertex
10
678.900000000000
20
917.170000000000
30
0.0
0
VERTEX
5
589
100
AcDbEntity
8
0-0
6
CONTINUOUS
62
  4
100
AcDbVertex
100
AcDb2dVertex
10
978.900000000000
20
917.170000000000
30
0.0
0
VERTEX
5
58a
100
AcDbEntity
8
0-0
6
CONTINUOUS
62
  4
100
AcDbVertex
100
AcDb2dVertex
10
1278.900000000000
20
917.170000000000
30
0.0
0
SEQEND
5
58b
100
AcDbEntity
8
0-0
0
LINE
5
58c
100
AcDbEntity
8
0-0
6
CONTINUOUS
62
4
100
AcDbLine
10
1278.900000000000
20
897.170000000000
30
0.0
11
1278.900000000000
21
937.170000000000
31
0.0
0
LINE
5
58d
100
AcDbEntity
8
0-0
6
CONTINUOUS
62
4
100
AcDbLine
10
678.900000000000
20
897.170000000000
30
0.0
11
678.900000000000
21
937.170000000000
31
0.0
0
LINE
5
58e
100
AcDbEntity
8
0-0
6
CONTINUOUS
62
4
100
AcDbLine
10
1011.900000000000
20
877.170000000000
30
0.0
11
945.900000000000
21
877.170000000000
31
0.0
0
LINE
5
58f
100
AcDbEntity
8
0-0
6
CONTINUOUS
62
4
100
AcDbLine
10
1011.900000000000
20
857.170000000000
30
0.0
11
1011.900000000000
21
877.170000000000
31
0.0
0
LINE
5
590
100
AcDbEntity
8
0-0
6
CONTINUOUS
62
4
100
AcDbLine
10
945.900000000000
20
857.170000000000
30
0.0
11
945.900000000000
21
877.170000000000
31
0.0
0
POLYLINE
5
591
100
AcDbEntity
8
0-0
6
CONTINUOUS
62
  4
100
AcDb2dPolyline
66
1
10
0.0
20
0.0
30
0.0
70
0
0
VERTEX
5
592
100
AcDbEntity
8
0-0
6
CONTINUOUS
62
  4
100
AcDbVertex
100
AcDb2dVertex
10
712.920000000000
20
857.170000000000
30
0.0
0
VERTEX
5
593
100
AcDbEntity
8
0-0
6
CONTINUOUS
62
  4
100
AcDbVertex
100
AcDb2dVertex
10
712.920000000000
20
877.170000000000
30
0.0
0
VERTEX
5
594
100
AcDbEntity
8
0-0
6
CONTINUOUS
62
  4
100
AcDbVertex
100
AcDb2dVertex
10
644.900000000000
20
877.170000000000
30
0.0
0
SEQEND
5
595
100
AcDbEntity
8
0-0
0
LINE
5
596
100
AcDbEntity
8
0-0
6
CONTINUOUS
62
4
100
AcDbLine
10
644.900000000000
20
857.170000000000
30
0.0
11
644.900000000000
21
877.170000000000
31
0.0
0
POLYLINE
5
597
100
AcDbEntity
8
0-0
6
CONTINUOUS
62
  4
100
AcDb2dPolyline
66
1
10
0.0
20
0.0
30
0.0
70
0
0
VERTEX
5
598
100
AcDbEntity
8
0-0
6
CONTINUOUS
62
  4
100
AcDbVertex
100
AcDb2dVertex
10
769.750000000000
20
763.170000000000
30
0.0
0
VERTEX
5
599
100
AcDbEntity
8
0-0
6
CONTINUOUS
62
  4
100
AcDbVertex
100
AcDb2dVertex
10
769.750000000000
20
846.170000000000
30
0.0
0
VERTEX
5
59a
100
AcDbEntity
8
0-0
6
CONTINUOUS
62
  4
100
AcDbVertex
100
AcDb2dVertex
10
729.750000000000
20
846.170000000000
30
0.0
0
SEQEND
5
59b
100
AcDbEntity
8
0-0
0
LINE
5
59c
100
AcDbEntity
8
0-0
6
CONTINUOUS
62
4
100
AcDbLine
10
978.900000000000
20
897.170000000000
30
0.0
11
978.900000000000
21
917.170000000000
31
0.0
0
LINE
5
59d
100
AcDbEntity
8
0-2
6
CONTINUOUS
62
7
100
AcDbLine
10
528.900000000000
20
354.770000000000
30
0.0
11
528.900000000000
21
350.570000000000
31
0.0
0
LINE
5
59e
100
AcDbEntity
8
0-2
6
CONTINUOUS
62
7
100
AcDbLine
10
1128.900000000000
20
350.570000000000
30
0.0
11
1035.090000000000
21
350.570000000000
31
0.0
0
LINE
5
59f
100
AcDbEntity
8
0-2
6
CONTINUOUS
62
7
100
AcDbLine
10
920.860000000000
20
353.770000000000
30
0.0
11
736.950000000000
21
353.770000000000
31
0.0
0
LINE
5
5a0
100
AcDbEntity
8
0-2
6
CONTINUOUS
62
7
100
AcDbLine
10
914.210000000000
20
354.770000000000
30
0.0
11
743.590000000000
21
354.770000000000
31
0.0
0
LINE
5
5a1
100
AcDbEntity
8
0-2
6
CONTINUOUS
62
7
100
AcDbLine
10
1036.950000000000
20
353.770000000000
30
0.0
11
1128.900000000000
21
353.770000000000
31
0.0
0
LINE
5
5a2
100
AcDbEntity
8
0-2
6
CONTINUOUS
62
7
100
AcDbLine
10
1043.590000000000
20
354.770000000000
30
0.0
11
1128.900000000000
21
354.770000000000
31
0.0
0
LINE
5
5a3
100
AcDbEntity
8
0-2
6
CONTINUOUS
62
7
100
AcDbLine
10
622.710000000000
20
350.570000000000
30
0.0
11
652.310000000000
21
402.070000000000
31
0.0
0
LINE
5
5a4
100
AcDbEntity
8
0-2
6
CONTINUOUS
62
7
100
AcDbLine
10
648.620000000000
20
402.070000000000
30
0.0
11
620.860000000000
21
353.770000000000
31
0.0
0
LINE
5
5a5
100
AcDbEntity
8
0-2
6
CONTINUOUS
62
7
100
AcDbLine
10
664.180000000000
20
419.350000000000
30
0.0
11
661.910000000000
21
410.370000000000
31
0.0
0
LINE
5
5a6
100
AcDbEntity
8
0-2
6
CONTINUOUS
62
7
100
AcDbLine
10
652.310000000000
20
402.070000000000
30
0.0
11
661.910000000000
21
410.370000000000
31
0.0
0
LINE
5
5a7
100
AcDbEntity
8
0-2
6
CONTINUOUS
62
7
100
AcDbLine
10
648.620000000000
20
402.070000000000
30
0.0
11
659.520000000000
21
411.490000000000
31
0.0
0
LINE
5
5a8
100
AcDbEntity
8
0-2
6
CONTINUOUS
62
7
100
AcDbLine
10
661.440000000000
20
419.110000000000
30
0.0
11
659.520000000000
21
411.490000000000
31
0.0
0
LINE
5
5a9
100
AcDbEntity
8
0-2
6
CONTINUOUS
62
7
100
AcDbLine
10
614.210000000000
20
354.770000000000
30
0.0
11
639.800000000000
21
401.380000000000
31
0.0
0
LINE
5
5aa
100
AcDbEntity
8
0-2
6
CONTINUOUS
62
7
100
AcDbLine
10
735.090000000000
20
350.570000000000
30
0.0
11
705.490000000000
21
402.070000000000
31
0.0
0
LINE
5
5ab
100
AcDbEntity
8
0-2
6
CONTINUOUS
62
7
100
AcDbLine
10
709.180000000000
20
402.070000000000
30
0.0
11
736.950000000000
21
353.770000000000
31
0.0
0
LINE
5
5ac
100
AcDbEntity
8
0-2
6
CONTINUOUS
62
7
100
AcDbLine
10
693.620000000000
20
419.350000000000
30
0.0
11
695.890000000000
21
410.370000000000
31
0.0
0
LINE
5
5ad
100
AcDbEntity
8
0-2
6
CONTINUOUS
62
7
100
AcDbLine
10
705.490000000000
20
402.070000000000
30
0.0
11
695.890000000000
21
410.370000000000
31
0.0
0
LINE
5
5ae
100
AcDbEntity
8
0-2
6
CONTINUOUS
62
7
100
AcDbLine
10
709.180000000000
20
402.070000000000
30
0.0
11
698.280000000000
21
411.490000000000
31
0.0
0
LINE
5
5af
100
AcDbEntity
8
0-2
6
CONTINUOUS
62
7
100
AcDbLine
10
696.360000000000
20
419.110000000000
30
0.0
11
698.280000000000
21
411.490000000000
31
0.0
0
LINE
5
5b0
100
AcDbEntity
8
0-2
6
CONTINUOUS
62
7
100
AcDbLine
10
743.590000000000
20
354.770000000000
30
0.0
11
718.010000000000
21
401.380000000000
31
0.0
0
LINE
5
5b1
100
AcDbEntity
8
0-2
6
CONTINUOUS
62
7
100
AcDbLine
10
528.900000000000
20
353.770000000000
30
0.0
11
620.860000000000
21
353.770000000000
31
0.0
0
LINE
5
5b2
100
AcDbEntity
8
0-2
6
CONTINUOUS
62
7
100
AcDbLine
10
528.900000000000
20
354.770000000000
30
0.0
11
614.210000000000
21
354.770000000000
31
0.0
0
POLYLINE
5
5b3
100
AcDbEntity
8
0-2
6
CONTINUOUS
62
  7
100
AcDb2dPolyline
66
1
10
0.0
20
0.0
30
0.0
70
0
0
VERTEX
5
5b4
100
AcDbEntity
8
0-2
6
CONTINUOUS
62
  7
100
AcDbVertex
100
AcDb2dVertex
10
691.400000000000
20
418.460000000000
30
0.0
0
VERTEX
5
5b5
100
AcDbEntity
8
0-2
6
CONTINUOUS
62
  7
100
AcDbVertex
100
AcDb2dVertex
10
691.400000000000
20
415.110000000000
30
0.0
0
VERTEX
5
5b6
100
AcDbEntity
8
0-2
6
CONTINUOUS
62
  7
100
AcDbVertex
100
AcDb2dVertex
10
666.400000000000
20
415.110000000000
30
0.0
0
SEQEND
5
5b7
100
AcDbEntity
8
0-2
0
LINE
5
5b8
100
AcDbEntity
8
0-2
6
CONTINUOUS
62
7
100
AcDbLine
10
665.310000000000
20
419.450000000000
30
0.0
11
649.580000000000
21
418.080000000000
31
0.0
0
LINE
5
5b9
100
AcDbEntity
8
0-2
6
CONTINUOUS
62
7
100
AcDbLine
10
666.400000000000
20
436.570000000000
30
0.0
11
665.280000000000
21
440.740000000000
31
0.0
0
LINE
5
5ba
100
AcDbEntity
8
0-2
6
CONTINUOUS
62
7
100
AcDbLine
10
691.400000000000
20
436.570000000000
30
0.0
11
692.520000000000
21
440.740000000000
31
0.0
0
LINE
5
5bb
100
AcDbEntity
8
0-2
6
CONTINUOUS
62
7
100
AcDbLine
10
691.400000000000
20
436.570000000000
30
0.0
11
666.400000000000
21
436.570000000000
31
0.0
0
LINE
5
5bc
100
AcDbEntity
8
0-2
6
CONTINUOUS
62
7
100
AcDbLine
10
666.400000000000
20
418.460000000000
30
0.0
11
666.400000000000
21
415.110000000000
31
0.0
0
LINE
5
5bd
100
AcDbEntity
8
0-2
6
CONTINUOUS
62
7
100
AcDbLine
10
692.490000000000
20
419.450000000000
30
0.0
11
708.220000000000
21
418.080000000000
31
0.0
0
LINE
5
5be
100
AcDbEntity
8
0-2
6
CONTINUOUS
62
7
100
AcDbLine
10
659.520000000000
20
411.490000000000
30
0.0
11
639.800000000000
21
401.380000000000
31
0.0
0
LINE
5
5bf
100
AcDbEntity
8
0-2
6
CONTINUOUS
62
7
100
AcDbLine
10
698.280000000000
20
411.490000000000
30
0.0
11
718.010000000000
21
401.380000000000
31
0.0
0
LINE
5
5c0
100
AcDbEntity
8
0-2
6
CONTINUOUS
62
7
100
AcDbLine
10
922.710000000000
20
350.570000000000
30
0.0
11
952.310000000000
21
402.070000000000
31
0.0
0
LINE
5
5c1
100
AcDbEntity
8
0-2
6
CONTINUOUS
62
7
100
AcDbLine
10
948.620000000000
20
402.070000000000
30
0.0
11
920.860000000000
21
353.770000000000
31
0.0
0
LINE
5
5c2
100
AcDbEntity
8
0-2
6
CONTINUOUS
62
7
100
AcDbLine
10
964.180000000000
20
419.350000000000
30
0.0
11
961.910000000000
21
410.370000000000
31
0.0
0
LINE
5
5c3
100
AcDbEntity
8
0-2
6
CONTINUOUS
62
7
100
AcDbLine
10
952.310000000000
20
402.070000000000
30
0.0
11
961.910000000000
21
410.370000000000
31
0.0
0
LINE
5
5c4
100
AcDbEntity
8
0-2
6
CONTINUOUS
62
7
100
AcDbLine
10
948.620000000000
20
402.070000000000
30
0.0
11
959.520000000000
21
411.490000000000
31
0.0
0
LINE
5
5c5
100
AcDbEntity
8
0-2
6
CONTINUOUS
62
7
100
AcDbLine
10
961.440000000000
20
419.110000000000
30
0.0
11
959.520000000000
21
411.490000000000
31
0.0
0
LINE
5
5c6
100
AcDbEntity
8
0-2
6
CONTINUOUS
62
7
100
AcDbLine
10
914.210000000000
20
354.770000000000
30
0.0
11
939.800000000000
21
401.380000000000
31
0.0
0
LINE
5
5c7
100
AcDbEntity
8
0-2
6
CONTINUOUS
62
7
100
AcDbLine
10
1035.090000000000
20
350.570000000000
30
0.0
11
1005.490000000000
21
402.070000000000
31
0.0
0
LINE
5
5c8
100
AcDbEntity
8
0-2
6
CONTINUOUS
62
7
100
AcDbLine
10
1009.180000000000
20
402.070000000000
30
0.0
11
1036.950000000000
21
353.770000000000
31
0.0
0
LINE
5
5c9
100
AcDbEntity
8
0-2
6
CONTINUOUS
62
7
100
AcDbLine
10
993.620000000000
20
419.350000000000
30
0.0
11
995.890000000000
21
410.370000000000
31
0.0
0
LINE
5
5ca
100
AcDbEntity
8
0-2
6
CONTINUOUS
62
7
100
AcDbLine
10
1005.490000000000
20
402.070000000000
30
0.0
11
995.890000000000
21
410.370000000000
31
0.0
0
LINE
5
5cb
100
AcDbEntity
8
0-2
6
CONTINUOUS
62
7
100
AcDbLine
10
1009.180000000000
20
402.070000000000
30
0.0
11
998.280000000000
21
411.490000000000
31
0.0
0
LINE
5
5cc
100
AcDbEntity
8
0-2
6
CONTINUOUS
62
7
100
AcDbLine
10
996.360000000000
20
419.110000000000
30
0.0
11
998.280000000000
21
411.490000000000
31
0.0
0
LINE
5
5cd
100
AcDbEntity
8
0-2
6
CONTINUOUS
62
7
100
AcDbLine
10
1043.590000000000
20
354.770000000000
30
0.0
11
1018.010000000000
21
401.380000000000
31
0.0
0
LINE
5
5ce
100
AcDbEntity
8
0-2
6
CONTINUOUS
62
7
100
AcDbLine
10
959.520000000000
20
411.490000000000
30
0.0
11
939.800000000000
21
401.380000000000
31
0.0
0
LINE
5
5cf
100
AcDbEntity
8
0-2
6
CONTINUOUS
62
7
100
AcDbLine
10
998.280000000000
20
411.490000000000
30
0.0
11
1018.010000000000
21
401.380000000000
31
0.0
0
POLYLINE
5
5d0
100
AcDbEntity
8
0-2
6
CONTINUOUS
62
  7
100
AcDb2dPolyline
66
1
10
0.0
20
0.0
30
0.0
70
0
0
VERTEX
5
5d1
100
AcDbEntity
8
0-2
6
CONTINUOUS
62
  7
100
AcDbVertex
100
AcDb2dVertex
10
991.400000000000
20
418.460000000000
30
0.0
0
VERTEX
5
5d2
100
AcDbEntity
8
0-2
6
CONTINUOUS
62
  7
100
AcDbVertex
100
AcDb2dVertex
10
991.400000000000
20
415.110000000000
30
0.0
0
VERTEX
5
5d3
100
AcDbEntity
8
0-2
6
CONTINUOUS
62
  7
100
AcDbVertex
100
AcDb2dVertex
10
966.400000000000
20
415.110000000000
30
0.0
0
SEQEND
5
5d4
100
AcDbEntity
8
0-2
0
LINE
5
5d5
100
AcDbEntity
8
0-2
6
CONTINUOUS
62
7
100
AcDbLine
10
965.310000000000
20
419.450000000000
30
0.0
11
949.580000000000
21
418.080000000000
31
0.0
0
LINE
5
5d6
100
AcDbEntity
8
0-2
6
CONTINUOUS
62
7
100
AcDbLine
10
966.400000000000
20
436.570000000000
30
0.0
11
965.280000000000
21
440.740000000000
31
0.0
0
LINE
5
5d7
100
AcDbEntity
8
0-2
6
CONTINUOUS
62
7
100
AcDbLine
10
991.400000000000
20
436.570000000000
30
0.0
11
992.520000000000
21
440.740000000000
31
0.0
0
LINE
5
5d8
100
AcDbEntity
8
0-2
6
CONTINUOUS
62
7
100
AcDbLine
10
991.400000000000
20
436.570000000000
30
0.0
11
966.400000000000
21
436.570000000000
31
0.0
0
LINE
5
5d9
100
AcDbEntity
8
0-2
6
CONTINUOUS
62
7
100
AcDbLine
10
966.400000000000
20
418.460000000000
30
0.0
11
966.400000000000
21
415.110000000000
31
0.0
0
LINE
5
5da
100
AcDbEntity
8
0-2
6
CONTINUOUS
62
7
100
AcDbLine
10
992.490000000000
20
419.450000000000
30
0.0
11
1008.220000000000
21
418.080000000000
31
0.0
0
LINE
5
5db
100
AcDbEntity
8
0-2
6
CONTINUOUS
62
7
100
AcDbLine
10
1128.900000000000
20
354.770000000000
30
0.0
11
1128.900000000000
21
350.570000000000
31
0.0
0
LINE
5
5dc
100
AcDbEntity
8
0-2
6
CONTINUOUS
62
7
100
AcDbLine
10
622.710000000000
20
350.570000000000
30
0.0
11
528.900000000000
21
350.570000000000
31
0.0
0
LINE
5
5dd
100
AcDbEntity
8
0-2
6
CONTINUOUS
62
7
100
AcDbLine
10
922.710000000000
20
350.570000000000
30
0.0
11
735.090000000000
21
350.570000000000
31
0.0
0
LINE
5
5de
100
AcDbEntity
8
0-2
6
CONTINUOUS
62
3
100
AcDbLine
10
853.900000000000
20
367.860000000000
30
0.0
11
803.900000000000
21
367.860000000000
31
0.0
0
LINE
5
5df
100
AcDbEntity
8
0-2
6
CONTINUOUS
62
3
100
AcDbLine
10
858.190000000000
20
363.570000000000
30
0.0
11
917.900000000000
21
363.570000000000
31
0.0
0
LINE
5
5e0
100
AcDbEntity
8
0-2
6
CONTINUOUS
62
3
100
AcDbLine
10
853.900000000000
20
367.860000000000
30
0.0
11
858.190000000000
21
363.570000000000
31
0.0
0
LINE
5
5e1
100
AcDbEntity
8
0-2
6
CONTINUOUS
62
3
100
AcDbLine
10
1103.900000000000
20
367.860000000000
30
0.0
11
1153.900000000000
21
367.860000000000
31
0.0
0
LINE
5
5e2
100
AcDbEntity
8
0-2
6
CONTINUOUS
62
3
100
AcDbLine
10
1099.610000000000
20
363.570000000000
30
0.0
11
1039.900000000000
21
363.570000000000
31
0.0
0
LINE
5
5e3
100
AcDbEntity
8
0-2
6
CONTINUOUS
62
3
100
AcDbLine
10
1103.900000000000
20
367.860000000000
30
0.0
11
1099.610000000000
21
363.570000000000
31
0.0
0
LINE
5
5e4
100
AcDbEntity
8
0-2
6
CONTINUOUS
62
3
100
AcDbLine
10
799.610000000000
20
363.570000000000
30
0.0
11
739.900000000000
21
363.570000000000
31
0.0
0
LINE
5
5e5
100
AcDbEntity
8
0-2
6
CONTINUOUS
62
3
100
AcDbLine
10
803.900000000000
20
367.860000000000
30
0.0
11
799.610000000000
21
363.570000000000
31
0.0
0
LINE
5
5e6
100
AcDbEntity
8
0-2
6
CONTINUOUS
62
3
100
AcDbLine
10
739.900000000000
20
363.570000000000
30
0.0
11
718.770000000000
21
402.070000000000
31
0.0
0
LINE
5
5e7
100
AcDbEntity
8
0-2
6
CONTINUOUS
62
3
100
AcDbLine
10
646.650000000000
20
415.440000000000
30
0.0
11
651.340000000000
21
415.120000000000
31
0.0
0
LINE
5
5e8
100
AcDbEntity
8
0-2
6
CONTINUOUS
62
3
100
AcDbLine
10
711.150000000000
20
415.440000000000
30
0.0
11
706.460000000000
21
415.120000000000
31
0.0
0
LINE
5
5e9
100
AcDbEntity
8
0-2
6
CONTINUOUS
62
3
100
AcDbLine
10
1158.190000000000
20
363.570000000000
30
0.0
11
1217.900000000000
21
363.570000000000
31
0.0
0
LINE
5
5ea
100
AcDbEntity
8
0-2
6
CONTINUOUS
62
3
100
AcDbLine
10
1153.900000000000
20
367.860000000000
30
0.0
11
1158.190000000000
21
363.570000000000
31
0.0
0
LINE
5
5eb
100
AcDbEntity
8
0-2
6
CONTINUOUS
62
3
100
AcDbLine
10
705.650000000000
20
411.330000000000
30
0.0
11
718.770000000000
21
402.070000000000
31
0.0
0
LINE
5
5ec
100
AcDbEntity
8
0-2
6
CONTINUOUS
62
3
100
AcDbLine
10
951.490000000000
20
415.100000000000
30
0.0
11
947.790000000000
21
415.540000000000
31
0.0
0
LINE
5
5ed
100
AcDbEntity
8
0-2
6
CONTINUOUS
62
3
100
AcDbLine
10
917.900000000000
20
363.570000000000
30
0.0
11
939.030000000000
21
402.070000000000
31
0.0
0
LINE
5
5ee
100
AcDbEntity
8
0-2
6
CONTINUOUS
62
3
100
AcDbLine
10
1039.900000000000
20
363.570000000000
30
0.0
11
1018.770000000000
21
402.070000000000
31
0.0
0
LINE
5
5ef
100
AcDbEntity
8
0-2
6
CONTINUOUS
62
3
100
AcDbLine
10
1005.650000000000
20
411.330000000000
30
0.0
11
1018.770000000000
21
402.070000000000
31
0.0
0
LINE
5
5f0
100
AcDbEntity
8
0-2
6
CONTINUOUS
62
3
100
AcDbLine
10
952.150000000000
20
411.330000000000
30
0.0
11
939.030000000000
21
402.070000000000
31
0.0
0
LINE
5
5f1
100
AcDbEntity
8
0-2
6
CONTINUOUS
62
3
100
AcDbLine
10
1006.310000000000
20
415.100000000000
30
0.0
11
1010.010000000000
21
415.540000000000
31
0.0
0
LINE
5
5f2
100
AcDbEntity
8
0-2
6
CONTINUOUS
62
3
100
AcDbLine
10
1217.900000000000
20
363.570000000000
30
0.0
11
1239.030000000000
21
402.070000000000
31
0.0
0
LINE
5
5f3
100
AcDbEntity
8
0-2
6
CONTINUOUS
62
3
100
AcDbLine
10
1252.150000000000
20
411.330000000000
30
0.0
11
1239.030000000000
21
402.070000000000
31
0.0
0
LINE
5
5f4
100
AcDbEntity
8
0-2
6
CONTINUOUS
62
3
100
AcDbLine
10
1250.530000000000
20
417.180000000000
30
0.0
11
1247.810000000000
21
417.370000000000
31
0.0
0
LINE
5
5f5
100
AcDbEntity
8
0-2
6
CONTINUOUS
62
3
100
AcDbLine
10
651.400000000000
20
415.920000000000
30
0.0
11
646.730000000000
21
416.240000000000
31
0.0
0
LINE
5
5f6
100
AcDbEntity
8
0-2
6
CONTINUOUS
62
3
100
AcDbLine
10
711.070000000000
20
416.240000000000
30
0.0
11
706.400000000000
21
415.920000000000
31
0.0
0
POLYLINE
5
5f7
100
AcDbEntity
8
0-2
6
CONTINUOUS
62
  3
100
AcDb2dPolyline
66
1
10
0.0
20
0.0
30
0.0
70
0
0
VERTEX
5
5f8
100
AcDbEntity
8
0-2
6
CONTINUOUS
62
  3
100
AcDbVertex
100
AcDb2dVertex
10
705.230000000000
20
410.640000000000
30
0.0
0
VERTEX
5
5f9
100
AcDbEntity
8
0-2
6
CONTINUOUS
62
  3
100
AcDbVertex
100
AcDb2dVertex
10
718.160000000000
20
401.520000000000
30
0.0
0
VERTEX
5
5fa
100
AcDbEntity
8
0-2
6
CONTINUOUS
62
  3
100
AcDbVertex
100
AcDb2dVertex
10
739.430000000000
20
362.770000000000
30
0.0
0
VERTEX
5
5fb
100
AcDbEntity
8
0-2
6
CONTINUOUS
62
  3
100
AcDbVertex
100
AcDb2dVertex
10
799.940000000000
20
362.770000000000
30
0.0
0
VERTEX
5
5fc
100
AcDbEntity
8
0-2
6
CONTINUOUS
62
  3
100
AcDbVertex
100
AcDb2dVertex
10
804.230000000000
20
367.060000000000
30
0.0
0
VERTEX
5
5fd
100
AcDbEntity
8
0-2
6
CONTINUOUS
62
  3
100
AcDbVertex
100
AcDb2dVertex
10
853.570000000000
20
367.060000000000
30
0.0
0
VERTEX
5
5fe
100
AcDbEntity
8
0-2
6
CONTINUOUS
62
  3
100
AcDbVertex
100
AcDb2dVertex
10
857.860000000000
20
362.770000000000
30
0.0
0
VERTEX
5
5ff
100
AcDbEntity
8
0-2
6
CONTINUOUS
62
  3
100
AcDbVertex
100
AcDb2dVertex
10
918.370000000000
20
362.770000000000
30
0.0
0
VERTEX
5
600
100
AcDbEntity
8
0-2
6
CONTINUOUS
62
  3
100
AcDbVertex
100
AcDb2dVertex
10
939.640000000000
20
401.520000000000
30
0.0
0
VERTEX
5
601
100
AcDbEntity
8
0-2
6
CONTINUOUS
62
  3
100
AcDbVertex
100
AcDb2dVertex
10
952.570000000000
20
410.640000000000
30
0.0
0
SEQEND
5
602
100
AcDbEntity
8
0-2
0
LINE
5
603
100
AcDbEntity
8
0-2
6
CONTINUOUS
62
3
100
AcDbLine
10
951.590000000000
20
415.900000000000
30
0.0
11
947.890000000000
21
416.340000000000
31
0.0
0
LINE
5
604
100
AcDbEntity
8
0-2
6
CONTINUOUS
62
3
100
AcDbLine
10
1009.920000000000
20
416.340000000000
30
0.0
11
1006.210000000000
21
415.900000000000
31
0.0
0
POLYLINE
5
605
100
AcDbEntity
8
0-2
6
CONTINUOUS
62
  3
100
AcDb2dPolyline
66
1
10
0.0
20
0.0
30
0.0
70
0
0
VERTEX
5
606
100
AcDbEntity
8
0-2
6
CONTINUOUS
62
  3
100
AcDbVertex
100
AcDb2dVertex
10
1005.230000000000
20
410.640000000000
30
0.0
0
VERTEX
5
607
100
AcDbEntity
8
0-2
6
CONTINUOUS
62
  3
100
AcDbVertex
100
AcDb2dVertex
10
1018.160000000000
20
401.520000000000
30
0.0
0
VERTEX
5
608
100
AcDbEntity
8
0-2
6
CONTINUOUS
62
  3
100
AcDbVertex
100
AcDb2dVertex
10
1039.430000000000
20
362.770000000000
30
0.0
0
VERTEX
5
609
100
AcDbEntity
8
0-2
6
CONTINUOUS
62
  3
100
AcDbVertex
100
AcDb2dVertex
10
1099.940000000000
20
362.770000000000
30
0.0
0
VERTEX
5
60a
100
AcDbEntity
8
0-2
6
CONTINUOUS
62
  3
100
AcDbVertex
100
AcDb2dVertex
10
1104.230000000000
20
367.060000000000
30
0.0
0
VERTEX
5
60b
100
AcDbEntity
8
0-2
6
CONTINUOUS
62
  3
100
AcDbVertex
100
AcDb2dVertex
10
1153.570000000000
20
367.060000000000
30
0.0
0
VERTEX
5
60c
100
AcDbEntity
8
0-2
6
CONTINUOUS
62
  3
100
AcDbVertex
100
AcDb2dVertex
10
1157.860000000000
20
362.770000000000
30
0.0
0
VERTEX
5
60d
100
AcDbEntity
8
0-2
6
CONTINUOUS
62
  3
100
AcDbVertex
100
AcDb2dVertex
10
1218.370000000000
20
362.770000000000
30
0.0
0
VERTEX
5
60e
100
AcDbEntity
8
0-2
6
CONTINUOUS
62
  3
100
AcDbVertex
100
AcDb2dVertex
10
1239.640000000000
20
401.520000000000
30
0.0
0
VERTEX
5
60f
100
AcDbEntity
8
0-2
6
CONTINUOUS
62
  3
100
AcDbVertex
100
AcDb2dVertex
10
1252.630000000000
20
410.680000000000
30
0.0
0
SEQEND
5
610
100
AcDbEntity
8
0-2
0
LINE
5
611
100
AcDbEntity
8
0-2
6
CONTINUOUS
62
3
100
AcDbLine
10
1250.580000000000
20
417.980000000000
30
0.0
11
1247.870000000000
21
418.160000000000
31
0.0
0
LINE
5
612
100
AcDbEntity
8
0-2
6
CONTINUOUS
62
3
100
AcDbLine
10
651.400000000000
20
415.920000000000
30
0.0
11
651.340000000000
21
415.120000000000
31
0.0
0
LINE
5
613
100
AcDbEntity
8
0-2
6
CONTINUOUS
62
3
100
AcDbLine
10
1294.060000000000
20
442.990000000000
30
0.0
11
1293.780000000000
21
442.240000000000
31
0.0
0
LINE
5
614
100
AcDbEntity
8
0-2
6
CONTINUOUS
62
7
100
AcDbLine
10
1128.900000000000
20
354.770000000000
30
0.0
11
1128.900000000000
21
350.570000000000
31
0.0
0
LINE
5
615
100
AcDbEntity
8
0-2
6
CONTINUOUS
62
7
100
AcDbLine
10
1222.710000000000
20
350.570000000000
30
0.0
11
1252.310000000000
21
402.070000000000
31
0.0
0
LINE
5
616
100
AcDbEntity
8
0-2
6
CONTINUOUS
62
7
100
AcDbLine
10
1248.620000000000
20
402.070000000000
30
0.0
11
1220.860000000000
21
353.770000000000
31
0.0
0
LINE
5
617
100
AcDbEntity
8
0-2
6
CONTINUOUS
62
7
100
AcDbLine
10
1264.180000000000
20
419.350000000000
30
0.0
11
1261.910000000000
21
410.370000000000
31
0.0
0
LINE
5
618
100
AcDbEntity
8
0-2
6
CONTINUOUS
62
7
100
AcDbLine
10
1252.310000000000
20
402.070000000000
30
0.0
11
1261.910000000000
21
410.370000000000
31
0.0
0
LINE
5
619
100
AcDbEntity
8
0-2
6
CONTINUOUS
62
7
100
AcDbLine
10
1248.620000000000
20
402.070000000000
30
0.0
11
1259.520000000000
21
411.490000000000
31
0.0
0
LINE
5
61a
100
AcDbEntity
8
0-2
6
CONTINUOUS
62
7
100
AcDbLine
10
1261.440000000000
20
419.110000000000
30
0.0
11
1259.520000000000
21
411.490000000000
31
0.0
0
LINE
5
61b
100
AcDbEntity
8
0-2
6
CONTINUOUS
62
7
100
AcDbLine
10
1214.210000000000
20
354.770000000000
30
0.0
11
1239.800000000000
21
401.380000000000
31
0.0
0
LINE
5
61c
100
AcDbEntity
8
0-2
6
CONTINUOUS
62
7
100
AcDbLine
10
1335.090000000000
20
350.570000000000
30
0.0
11
1305.490000000000
21
402.070000000000
31
0.0
0
LINE
5
61d
100
AcDbEntity
8
0-2
6
CONTINUOUS
62
7
100
AcDbLine
10
1309.180000000000
20
402.070000000000
30
0.0
11
1336.950000000000
21
353.770000000000
31
0.0
0
LINE
5
61e
100
AcDbEntity
8
0-2
6
CONTINUOUS
62
7
100
AcDbLine
10
1293.620000000000
20
419.350000000000
30
0.0
11
1295.890000000000
21
410.370000000000
31
0.0
0
LINE
5
61f
100
AcDbEntity
8
0-2
6
CONTINUOUS
62
7
100
AcDbLine
10
1305.490000000000
20
402.070000000000
30
0.0
11
1295.890000000000
21
410.370000000000
31
0.0
0
LINE
5
620
100
AcDbEntity
8
0-2
6
CONTINUOUS
62
7
100
AcDbLine
10
1309.180000000000
20
402.070000000000
30
0.0
11
1298.280000000000
21
411.490000000000
31
0.0
0
LINE
5
621
100
AcDbEntity
8
0-2
6
CONTINUOUS
62
7
100
AcDbLine
10
1296.360000000000
20
419.110000000000
30
0.0
11
1298.280000000000
21
411.490000000000
31
0.0
0
LINE
5
622
100
AcDbEntity
8
0-2
6
CONTINUOUS
62
7
100
AcDbLine
10
1343.590000000000
20
354.770000000000
30
0.0
11
1318.010000000000
21
401.380000000000
31
0.0
0
LINE
5
623
100
AcDbEntity
8
0-2
6
CONTINUOUS
62
7
100
AcDbLine
10
1128.900000000000
20
353.770000000000
30
0.0
11
1220.860000000000
21
353.770000000000
31
0.0
0
LINE
5
624
100
AcDbEntity
8
0-2
6
CONTINUOUS
62
7
100
AcDbLine
10
1128.900000000000
20
354.770000000000
30
0.0
11
1214.210000000000
21
354.770000000000
31
0.0
0
POLYLINE
5
625
100
AcDbEntity
8
0-2
6
CONTINUOUS
62
  7
100
AcDb2dPolyline
66
1
10
0.0
20
0.0
30
0.0
70
0
0
VERTEX
5
626
100
AcDbEntity
8
0-2
6
CONTINUOUS
62
  7
100
AcDbVertex
100
AcDb2dVertex
10
1291.400000000000
20
418.460000000000
30
0.0
0
VERTEX
5
627
100
AcDbEntity
8
0-2
6
CONTINUOUS
62
  7
100
AcDbVertex
100
AcDb2dVertex
10
1291.400000000000
20
415.110000000000
30
0.0
0
VERTEX
5
628
100
AcDbEntity
8
0-2
6
CONTINUOUS
62
  7
100
AcDbVertex
100
AcDb2dVertex
10
1266.400000000000
20
415.110000000000
30
0.0
0
SEQEND
5
629
100
AcDbEntity
8
0-2
0
LINE
5
62a
100
AcDbEntity
8
0-2
6
CONTINUOUS
62
7
100
AcDbLine
10
1265.310000000000
20
419.450000000000
30
0.0
11
1249.580000000000
21
418.080000000000
31
0.0
0
LINE
5
62b
100
AcDbEntity
8
0-2
6
CONTINUOUS
62
7
100
AcDbLine
10
1266.400000000000
20
436.570000000000
30
0.0
11
1265.280000000000
21
440.740000000000
31
0.0
0
LINE
5
62c
100
AcDbEntity
8
0-2
6
CONTINUOUS
62
7
100
AcDbLine
10
1291.400000000000
20
436.570000000000
30
0.0
11
1292.520000000000
21
440.740000000000
31
0.0
0
LINE
5
62d
100
AcDbEntity
8
0-2
6
CONTINUOUS
62
7
100
AcDbLine
10
1291.400000000000
20
436.570000000000
30
0.0
11
1266.400000000000
21
436.570000000000
31
0.0
0
LINE
5
62e
100
AcDbEntity
8
0-2
6
CONTINUOUS
62
7
100
AcDbLine
10
1266.400000000000
20
418.460000000000
30
0.0
11
1266.400000000000
21
415.110000000000
31
0.0
0
LINE
5
62f
100
AcDbEntity
8
0-2
6
CONTINUOUS
62
7
100
AcDbLine
10
1292.490000000000
20
419.450000000000
30
0.0
11
1308.220000000000
21
418.080000000000
31
0.0
0
LINE
5
630
100
AcDbEntity
8
0-2
6
CONTINUOUS
62
7
100
AcDbLine
10
1259.520000000000
20
411.490000000000
30
0.0
11
1239.800000000000
21
401.380000000000
31
0.0
0
LINE
5
631
100
AcDbEntity
8
0-2
6
CONTINUOUS
62
7
100
AcDbLine
10
1298.280000000000
20
411.490000000000
30
0.0
11
1318.010000000000
21
401.380000000000
31
0.0
0
LINE
5
632
100
AcDbEntity
8
0-2
6
CONTINUOUS
62
7
100
AcDbLine
10
1222.710000000000
20
350.570000000000
30
0.0
11
1128.900000000000
21
350.570000000000
31
0.0
0
LINE
5
633
100
AcDbEntity
8
0-2
6
CONTINUOUS
62
3
100
AcDbLine
10
558.190000000000
20
363.570000000000
30
0.0
11
617.900000000000
21
363.570000000000
31
0.0
0
LINE
5
634
100
AcDbEntity
8
0-2
6
CONTINUOUS
62
3
100
AcDbLine
10
553.900000000000
20
367.860000000000
30
0.0
11
558.190000000000
21
363.570000000000
31
0.0
0
LINE
5
635
100
AcDbEntity
8
0-2
6
CONTINUOUS
62
3
100
AcDbLine
10
617.900000000000
20
363.570000000000
30
0.0
11
639.030000000000
21
402.070000000000
31
0.0
0
LINE
5
636
100
AcDbEntity
8
0-2
6
CONTINUOUS
62
3
100
AcDbLine
10
652.150000000000
20
411.330000000000
30
0.0
11
639.030000000000
21
402.070000000000
31
0.0
0
LINE
5
637
100
AcDbEntity
8
0-2
6
CONTINUOUS
62
3
100
AcDbLine
10
650.530000000000
20
417.180000000000
30
0.0
11
647.810000000000
21
417.370000000000
31
0.0
0
POLYLINE
5
638
100
AcDbEntity
8
0-2
6
CONTINUOUS
62
  3
100
AcDb2dPolyline
66
1
10
0.0
20
0.0
30
0.0
70
0
0
VERTEX
5
639
100
AcDbEntity
8
0-2
6
CONTINUOUS
62
  3
100
AcDbVertex
100
AcDb2dVertex
10
553.570000000000
20
367.060000000000
30
0.0
0
VERTEX
5
63a
100
AcDbEntity
8
0-2
6
CONTINUOUS
62
  3
100
AcDbVertex
100
AcDb2dVertex
10
557.860000000000
20
362.770000000000
30
0.0
0
VERTEX
5
63b
100
AcDbEntity
8
0-2
6
CONTINUOUS
62
  3
100
AcDbVertex
100
AcDb2dVertex
10
618.370000000000
20
362.770000000000
30
0.0
0
VERTEX
5
63c
100
AcDbEntity
8
0-2
6
CONTINUOUS
62
  3
100
AcDbVertex
100
AcDb2dVertex
10
639.640000000000
20
401.520000000000
30
0.0
0
VERTEX
5
63d
100
AcDbEntity
8
0-2
6
CONTINUOUS
62
  3
100
AcDbVertex
100
AcDb2dVertex
10
652.630000000000
20
410.680000000000
30
0.0
0
SEQEND
5
63e
100
AcDbEntity
8
0-2
0
LINE
5
63f
100
AcDbEntity
8
0-2
6
CONTINUOUS
62
3
100
AcDbLine
10
650.580000000000
20
417.980000000000
30
0.0
11
647.870000000000
21
418.160000000000
31
0.0
0
LINE
5
640
100
AcDbEntity
8
0-2
6
CONTINUOUS
62
3
100
AcDbLine
10
694.060000000000
20
442.990000000000
30
0.0
11
693.780000000000
21
442.240000000000
31
0.0
0
LINE
5
641
100
AcDbEntity
8
0-2
6
CONTINUOUS
62
3
100
AcDbLine
10
1399.610000000000
20
363.570000000000
30
0.0
11
1339.900000000000
21
363.570000000000
31
0.0
0
LINE
5
642
100
AcDbEntity
8
0-2
6
CONTINUOUS
62
3
100
AcDbLine
10
1403.900000000000
20
367.860000000000
30
0.0
11
1399.610000000000
21
363.570000000000
31
0.0
0
LINE
5
643
100
AcDbEntity
8
0-2
6
CONTINUOUS
62
3
100
AcDbLine
10
1339.900000000000
20
363.570000000000
30
0.0
11
1318.770000000000
21
402.070000000000
31
0.0
0
LINE
5
644
100
AcDbEntity
8
0-2
6
CONTINUOUS
62
3
100
AcDbLine
10
1246.650000000000
20
415.440000000000
30
0.0
11
1251.340000000000
21
415.120000000000
31
0.0
0
LINE
5
645
100
AcDbEntity
8
0-2
6
CONTINUOUS
62
3
100
AcDbLine
10
1311.150000000000
20
415.440000000000
30
0.0
11
1306.460000000000
21
415.120000000000
31
0.0
0
LINE
5
646
100
AcDbEntity
8
0-2
6
CONTINUOUS
62
3
100
AcDbLine
10
1305.650000000000
20
411.330000000000
30
0.0
11
1318.770000000000
21
402.070000000000
31
0.0
0
LINE
5
647
100
AcDbEntity
8
0-2
6
CONTINUOUS
62
3
100
AcDbLine
10
1251.400000000000
20
415.920000000000
30
0.0
11
1246.730000000000
21
416.240000000000
31
0.0
0
LINE
5
648
100
AcDbEntity
8
0-2
6
CONTINUOUS
62
3
100
AcDbLine
10
1311.070000000000
20
416.240000000000
30
0.0
11
1306.400000000000
21
415.920000000000
31
0.0
0
POLYLINE
5
649
100
AcDbEntity
8
0-2
6
CONTINUOUS
62
  3
100
AcDb2dPolyline
66
1
10
0.0
20
0.0
30
0.0
70
0
0
VERTEX
5
64a
100
AcDbEntity
8
0-2
6
CONTINUOUS
62
  3
100
AcDbVertex
100
AcDb2dVertex
10
1305.230000000000
20
410.640000000000
30
0.0
0
VERTEX
5
64b
100
AcDbEntity
8
0-2
6
CONTINUOUS
62
  3
100
AcDbVertex
100
AcDb2dVertex
10
1318.160000000000
20
401.520000000000
30
0.0
0
VERTEX
5
64c
100
AcDbEntity
8
0-2
6
CONTINUOUS
62
  3
100
AcDbVertex
100
AcDb2dVertex
10
1339.430000000000
20
362.770000000000
30
0.0
0
VERTEX
5
64d
100
AcDbEntity
8
0-2
6
CONTINUOUS
62
  3
100
AcDbVertex
100
AcDb2dVertex
10
1399.940000000000
20
362.770000000000
30
0.0
0
VERTEX
5
64e
100
AcDbEntity
8
0-2
6
CONTINUOUS
62
  3
100
AcDbVertex
100
AcDb2dVertex
10
1404.230000000000
20
367.060000000000
30
0.0
0
SEQEND
5
64f
100
AcDbEntity
8
0-2
0
LINE
5
650
100
AcDbEntity
8
0-2
6
CONTINUOUS
62
3
100
AcDbLine
10
1251.400000000000
20
415.920000000000
30
0.0
11
1251.340000000000
21
415.120000000000
31
0.0
0
LINE
5
651
100
AcDbEntity
8
0-2
6
CONTINUOUS
62
3
100
AcDbLine
10
528.900000000000
20
367.060000000000
30
0.0
11
553.570000000000
21
367.060000000000
31
0.0
0
LINE
5
652
100
AcDbEntity
8
0-2
6
CONTINUOUS
62
3
100
AcDbLine
10
528.900000000000
20
367.860000000000
30
0.0
11
553.900000000000
21
367.860000000000
31
0.0
0
LINE
5
653
100
AcDbEntity
8
0-2
6
CONTINUOUS
62
3
100
AcDbLine
10
1404.230000000000
20
367.060000000000
30
0.0
11
1428.900000000000
21
367.060000000000
31
0.0
0
LINE
5
654
100
AcDbEntity
8
0-2
6
CONTINUOUS
62
3
100
AcDbLine
10
1428.900000000000
20
367.860000000000
30
0.0
11
1403.900000000000
21
367.860000000000
31
0.0
0
LINE
5
655
100
AcDbEntity
8
0-2
6
CONTINUOUS
62
7
100
AcDbLine
10
1428.900000000000
20
354.770000000000
30
0.0
11
1343.590000000000
21
354.770000000000
31
0.0
0
LINE
5
656
100
AcDbEntity
8
0-2
6
CONTINUOUS
62
7
100
AcDbLine
10
1428.900000000000
20
353.770000000000
30
0.0
11
1336.950000000000
21
353.770000000000
31
0.0
0
LINE
5
657
100
AcDbEntity
8
0-2
6
CONTINUOUS
62
7
100
AcDbLine
10
1428.900000000000
20
350.570000000000
30
0.0
11
1335.090000000000
21
350.570000000000
31
0.0
0
LINE
5
658
100
AcDbEntity
8
0-1
6
DOT
62
7
100
AcDbLine
10
358.910000000000
20
413.430000000000
30
0.0
11
358.910000000000
21
370.570000000000
31
0.0
0
LINE
5
659
100
AcDbEntity
8
0-1
6
DOT
62
7
100
AcDbLine
10
321.410000000000
20
413.430000000000
30
0.0
11
321.410000000000
21
370.570000000000
31
0.0
0
LINE
5
65a
100
AcDbEntity
8
0-1
6
CONTINUOUS
62
7
100
AcDbLine
10
321.410000000000
20
405.150000000000
30
0.0
11
311.890000000000
21
388.670000000000
31
0.0
0
LINE
5
65b
100
AcDbEntity
8
0-1
6
CONTINUOUS
62
7
100
AcDbLine
10
175.160000000000
20
445.570000000000
30
0.0
11
160.160000000000
21
445.570000000000
31
0.0
0
LINE
5
65c
100
AcDbEntity
8
0-1
6
CONTINUOUS
62
7
100
AcDbLine
10
160.160000000000
20
370.570000000000
30
0.0
11
160.160000000000
21
445.570000000000
31
0.0
0
LINE
5
65d
100
AcDbEntity
8
0-1
6
DOT
62
7
100
AcDbLine
10
335.570000000000
20
376.320000000000
30
0.0
11
335.570000000000
21
370.570000000000
31
0.0
0
LINE
5
65e
100
AcDbEntity
8
0-1
6
DOT
62
7
100
AcDbLine
10
344.740000000000
20
376.320000000000
30
0.0
11
344.740000000000
21
370.570000000000
31
0.0
0
LINE
5
65f
100
AcDbEntity
8
0-1
6
DOT
62
7
100
AcDbLine
10
330.570000000000
20
395.360000000000
30
0.0
11
330.570000000000
21
370.570000000000
31
0.0
0
LINE
5
660
100
AcDbEntity
8
0-1
6
DOT
62
7
100
AcDbLine
10
349.740000000000
20
395.360000000000
30
0.0
11
349.740000000000
21
370.570000000000
31
0.0
0
LINE
5
661
100
AcDbEntity
8
0-1
6
DOT
62
7
100
AcDbLine
10
335.570000000000
20
391.640000000000
30
0.0
11
335.570000000000
21
390.060000000000
31
0.0
0
LINE
5
662
100
AcDbEntity
8
0-1
6
DOT
62
7
100
AcDbLine
10
344.740000000000
20
391.640000000000
30
0.0
11
344.740000000000
21
390.060000000000
31
0.0
0
LINE
5
663
100
AcDbEntity
8
0-2
6
CONTINUOUS
62
7
100
AcDbLine
10
678.900000000000
20
522.540000000000
30
0.0
11
1278.900000000000
21
522.540000000000
31
0.0
0
POLYLINE
5
664
100
AcDbEntity
8
0-2
6
CONTINUOUS
62
  7
100
AcDb2dPolyline
66
1
10
0.0
20
0.0
30
0.0
70
0
0
VERTEX
5
665
100
AcDbEntity
8
0-2
6
CONTINUOUS
62
  7
100
AcDbVertex
100
AcDb2dVertex
10
678.900000000000
20
497.540000000000
30
0.0
0
VERTEX
5
666
100
AcDbEntity
8
0-2
6
CONTINUOUS
62
  7
100
AcDbVertex
100
AcDb2dVertex
10
978.900000000000
20
497.540000000000
30
0.0
0
VERTEX
5
667
100
AcDbEntity
8
0-2
6
CONTINUOUS
62
  7
100
AcDbVertex
100
AcDb2dVertex
10
1278.900000000000
20
497.540000000000
30
0.0
0
SEQEND
5
668
100
AcDbEntity
8
0-2
0
LINE
5
669
100
AcDbEntity
8
0-2
6
CONTINUOUS
62
7
100
AcDbLine
10
1188.050000000000
20
447.020000000000
30
0.0
11
1228.050000000000
21
447.020000000000
31
0.0
0
LINE
5
66a
100
AcDbEntity
8
0-2
6
CONTINUOUS
62
7
100
AcDbLine
10
1188.050000000000
20
363.570000000000
30
0.0
11
1188.050000000000
21
447.020000000000
31
0.0
0
LINE
5
66b
100
AcDbEntity
8
0-2
6
CONTINUOUS
62
3
100
AcDbLine
10
528.900000000000
20
350.570000000000
30
0.0
11
1428.900000000000
21
350.570000000000
31
0.0
0
LINE
5
66c
100
AcDbEntity
8
0-2
6
CONTINUOUS
62
3
100
AcDbLine
10
528.900000000000
20
342.570000000000
30
0.0
11
1428.900000000000
21
342.570000000000
31
0.0
0
LINE
5
66d
100
AcDbEntity
8
0-2
6
CONTINUOUS
62
7
100
AcDbLine
10
1011.940000000000
20
390.840000000000
30
0.0
11
977.790000000000
21
331.700000000000
31
0.0
0
LINE
5
66e
100
AcDbEntity
8
0-2
6
CONTINUOUS
62
7
100
AcDbLine
10
1273.060000000000
20
363.570000000000
30
0.0
11
1248.610000000000
21
363.570000000000
31
0.0
0
LINE
5
66f
100
AcDbEntity
8
0-2
6
CONTINUOUS
62
7
100
AcDbLine
10
1273.060000000000
20
363.570000000000
30
0.0
11
1273.060000000000
21
350.570000000000
31
0.0
0
LINE
5
670
100
AcDbEntity
8
0-2
6
CENTER2
62
7
100
AcDbLine
10
978.900000000000
20
497.540000000000
30
0.0
11
978.900000000000
21
446.560000000000
31
0.0
0
LINE
5
671
100
AcDbEntity
8
0-2
6
CONTINUOUS
62
7
100
AcDbLine
10
528.900000000000
20
522.540000000000
30
0.0
11
678.900000000000
21
522.540000000000
31
0.0
0
LINE
5
672
100
AcDbEntity
8
0-2
6
CONTINUOUS
62
7
100
AcDbLine
10
1428.900000000000
20
522.540000000000
30
0.0
11
1278.900000000000
21
522.540000000000
31
0.0
0
LINE
5
673
100
AcDbEntity
8
F-4
6
CONTINUOUS
62
7
100
AcDbLine
10
322.060000000000
20
900.450000000000
30
0.0
11
341.500000000000
21
900.450000000000
31
0.0
0
LINE
5
674
100
AcDbEntity
8
F-4
6
CONTINUOUS
62
7
100
AcDbLine
10
294.760000000000
20
871.170000000000
30
0.0
11
331.740000000000
21
871.170000000000
31
0.0
0
POLYLINE
5
675
100
AcDbEntity
8
0-2
6
DOT
62
  4
100
AcDb2dPolyline
66
1
10
0.0
20
0.0
30
0.0
70
0
0
VERTEX
5
676
100
AcDbEntity
8
0-2
6
DOT
62
  4
100
AcDbVertex
100
AcDb2dVertex
10
528.900000000000
20
362.060000000000
30
0.0
0
VERTEX
5
677
100
AcDbEntity
8
0-2
6
DOT
62
  4
100
AcDbVertex
100
AcDb2dVertex
10
551.500000000000
20
362.060000000000
30
0.0
0
VERTEX
5
678
100
AcDbEntity
8
0-2
6
DOT
62
  4
100
AcDbVertex
100
AcDb2dVertex
10
555.790000000000
20
357.770000000000
30
0.0
0
VERTEX
5
679
100
AcDbEntity
8
0-2
6
DOT
62
  4
100
AcDbVertex
100
AcDb2dVertex
10
621.330000000000
20
357.770000000000
30
0.0
0
SEQEND
5
67a
100
AcDbEntity
8
0-2
0
LINE
5
67b
100
AcDbEntity
8
0-2
6
DOT
62
4
100
AcDbLine
10
643.470000000000
20
398.100000000000
30
0.0
11
655.510000000000
21
406.600000000000
31
0.0
0
LINE
5
67c
100
AcDbEntity
8
0-2
6
DOT
62
4
100
AcDbLine
10
621.330000000000
20
357.770000000000
30
0.0
11
643.470000000000
21
398.100000000000
31
0.0
0
LINE
5
67d
100
AcDbEntity
8
0-2
6
DOT
62
4
100
AcDbLine
10
806.300000000000
20
362.060000000000
30
0.0
11
828.900000000000
21
362.060000000000
31
0.0
0
LINE
5
67e
100
AcDbEntity
8
0-2
6
DOT
62
4
100
AcDbLine
10
802.010000000000
20
357.770000000000
30
0.0
11
806.300000000000
21
362.060000000000
31
0.0
0
LINE
5
67f
100
AcDbEntity
8
0-2
6
DOT
62
4
100
AcDbLine
10
736.470000000000
20
357.770000000000
30
0.0
11
802.010000000000
21
357.770000000000
31
0.0
0
POLYLINE
5
680
100
AcDbEntity
8
0-2
6
DOT
62
  4
100
AcDb2dPolyline
66
1
10
0.0
20
0.0
30
0.0
70
0
0
VERTEX
5
681
100
AcDbEntity
8
0-2
6
DOT
62
  4
100
AcDbVertex
100
AcDb2dVertex
10
702.350000000000
20
406.560000000000
30
0.0
0
VERTEX
5
682
100
AcDbEntity
8
0-2
6
DOT
62
  4
100
AcDbVertex
100
AcDb2dVertex
10
714.330000000000
20
398.100000000000
30
0.0
0
VERTEX
5
683
100
AcDbEntity
8
0-2
6
DOT
62
  4
100
AcDbVertex
100
AcDb2dVertex
10
736.470000000000
20
357.770000000000
30
0.0
0
SEQEND
5
684
100
AcDbEntity
8
0-2
0
POLYLINE
5
685
100
AcDbEntity
8
0-2
6
DOT
62
  4
100
AcDb2dPolyline
66
1
10
0.0
20
0.0
30
0.0
70
0
0
VERTEX
5
686
100
AcDbEntity
8
0-2
6
DOT
62
  4
100
AcDbVertex
100
AcDb2dVertex
10
650.920000000000
20
422.970000000000
30
0.0
0
VERTEX
5
687
100
AcDbEntity
8
0-2
6
DOT
62
  4
100
AcDbVertex
100
AcDb2dVertex
10
648.030000000000
20
422.970000000000
30
0.0
0
VERTEX
5
688
100
AcDbEntity
8
0-2
6
DOT
62
  4
100
AcDbVertex
100
AcDb2dVertex
10
647.920000000000
20
418.260000000000
30
0.0
0
VERTEX
5
689
100
AcDbEntity
8
0-2
6
DOT
62
  4
100
AcDbVertex
100
AcDb2dVertex
10
650.080000000000
20
417.980000000000
30
0.0
0
SEQEND
5
68a
100
AcDbEntity
8
0-2
0
LINE
5
68b
100
AcDbEntity
8
0-2
6
DOT
62
4
100
AcDbLine
10
620.810000000000
20
357.770000000000
30
0.0
11
621.970000000000
21
358.930000000000
31
0.0
0
LINE
5
68c
100
AcDbEntity
8
0-2
6
DOT
62
4
100
AcDbLine
10
617.980000000000
20
357.770000000000
30
0.0
11
625.410000000000
21
365.190000000000
31
0.0
0
LINE
5
68d
100
AcDbEntity
8
0-2
6
DOT
62
4
100
AcDbLine
10
615.150000000000
20
357.770000000000
30
0.0
11
628.850000000000
21
371.460000000000
31
0.0
0
LINE
5
68e
100
AcDbEntity
8
0-2
6
DOT
62
4
100
AcDbLine
10
612.330000000000
20
357.770000000000
30
0.0
11
617.330000000000
21
362.770000000000
31
0.0
0
LINE
5
68f
100
AcDbEntity
8
0-2
6
DOT
62
4
100
AcDbLine
10
619.650000000000
20
365.090000000000
30
0.0
11
632.290000000000
21
377.730000000000
31
0.0
0
LINE
5
690
100
AcDbEntity
8
0-2
6
DOT
62
4
100
AcDbLine
10
609.500000000000
20
357.770000000000
30
0.0
11
614.500000000000
21
362.770000000000
31
0.0
0
LINE
5
691
100
AcDbEntity
8
0-2
6
DOT
62
4
100
AcDbLine
10
623.090000000000
20
371.360000000000
30
0.0
11
635.730000000000
21
384.000000000000
31
0.0
0
LINE
5
692
100
AcDbEntity
8
0-2
6
DOT
62
4
100
AcDbLine
10
606.670000000000
20
357.770000000000
30
0.0
11
611.670000000000
21
362.770000000000
31
0.0
0
LINE
5
693
100
AcDbEntity
8
0-2
6
DOT
62
4
100
AcDbLine
10
626.530000000000
20
377.630000000000
30
0.0
11
639.170000000000
21
390.270000000000
31
0.0
0
LINE
5
694
100
AcDbEntity
8
0-2
6
DOT
62
4
100
AcDbLine
10
655.480000000000
20
406.580000000000
30
0.0
11
657.700000000000
21
408.800000000000
31
0.0
0
LINE
5
695
100
AcDbEntity
8
0-2
6
DOT
62
4
100
AcDbLine
10
603.840000000000
20
357.770000000000
30
0.0
11
608.840000000000
21
362.770000000000
31
0.0
0
LINE
5
696
100
AcDbEntity
8
0-2
6
DOT
62
4
100
AcDbLine
10
629.970000000000
20
383.900000000000
30
0.0
11
642.610000000000
21
396.540000000000
31
0.0
0
LINE
5
697
100
AcDbEntity
8
0-2
6
DOT
62
4
100
AcDbLine
10
645.870000000000
20
399.790000000000
30
0.0
11
659.300000000000
21
413.220000000000
31
0.0
0
LINE
5
698
100
AcDbEntity
8
0-2
6
DOT
62
4
100
AcDbLine
10
601.010000000000
20
357.770000000000
30
0.0
11
606.010000000000
21
362.770000000000
31
0.0
0
LINE
5
699
100
AcDbEntity
8
0-2
6
DOT
62
4
100
AcDbLine
10
633.410000000000
20
390.170000000000
30
0.0
11
659.120000000000
21
415.880000000000
31
0.0
0
LINE
5
69a
100
AcDbEntity
8
0-2
6
DOT
62
4
100
AcDbLine
10
598.180000000000
20
357.770000000000
30
0.0
11
603.180000000000
21
362.770000000000
31
0.0
0
LINE
5
69b
100
AcDbEntity
8
0-2
6
DOT
62
4
100
AcDbLine
10
636.850000000000
20
396.440000000000
30
0.0
11
647.440000000000
21
407.020000000000
31
0.0
0
LINE
5
69c
100
AcDbEntity
8
0-2
6
DOT
62
4
100
AcDbLine
10
654.330000000000
20
413.910000000000
30
0.0
11
658.390000000000
21
417.970000000000
31
0.0
0
LINE
5
69d
100
AcDbEntity
8
0-2
6
DOT
62
4
100
AcDbLine
10
595.360000000000
20
357.770000000000
30
0.0
11
600.360000000000
21
362.770000000000
31
0.0
0
LINE
5
69e
100
AcDbEntity
8
0-2
6
DOT
62
4
100
AcDbLine
10
653.710000000000
20
416.120000000000
30
0.0
11
657.280000000000
21
419.690000000000
31
0.0
0
LINE
5
69f
100
AcDbEntity
8
0-2
6
DOT
62
4
100
AcDbLine
10
592.530000000000
20
357.770000000000
30
0.0
11
597.530000000000
21
362.770000000000
31
0.0
0
LINE
5
6a0
100
AcDbEntity
8
0-2
6
DOT
62
4
100
AcDbLine
10
652.250000000000
20
417.490000000000
30
0.0
11
655.850000000000
21
421.090000000000
31
0.0
0
LINE
5
6a1
100
AcDbEntity
8
0-2
6
DOT
62
4
100
AcDbLine
10
589.700000000000
20
357.770000000000
30
0.0
11
594.700000000000
21
362.770000000000
31
0.0
0
LINE
5
6a2
100
AcDbEntity
8
0-2
6
DOT
62
4
100
AcDbLine
10
649.930000000000
20
418.000000000000
30
0.0
11
654.090000000000
21
422.160000000000
31
0.0
0
LINE
5
6a3
100
AcDbEntity
8
0-2
6
DOT
62
4
100
AcDbLine
10
586.870000000000
20
357.770000000000
30
0.0
11
591.870000000000
21
362.770000000000
31
0.0
0
LINE
5
6a4
100
AcDbEntity
8
0-2
6
DOT
62
4
100
AcDbLine
10
647.930000000000
20
418.830000000000
30
0.0
11
651.940000000000
21
422.840000000000
31
0.0
0
LINE
5
6a5
100
AcDbEntity
8
0-2
6
DOT
62
4
100
AcDbLine
10
584.040000000000
20
357.770000000000
30
0.0
11
589.040000000000
21
362.770000000000
31
0.0
0
LINE
5
6a6
100
AcDbEntity
8
0-2
6
DOT
62
4
100
AcDbLine
10
648.000000000000
20
421.720000000000
30
0.0
11
649.240000000000
21
422.970000000000
31
0.0
0
LINE
5
6a7
100
AcDbEntity
8
0-2
6
DOT
62
4
100
AcDbLine
10
581.210000000000
20
357.770000000000
30
0.0
11
586.210000000000
21
362.770000000000
31
0.0
0
LINE
5
6a8
100
AcDbEntity
8
0-2
6
DOT
62
4
100
AcDbLine
10
578.380000000000
20
357.770000000000
30
0.0
11
583.380000000000
21
362.770000000000
31
0.0
0
LINE
5
6a9
100
AcDbEntity
8
0-2
6
DOT
62
4
100
AcDbLine
10
575.560000000000
20
357.770000000000
30
0.0
11
580.560000000000
21
362.770000000000
31
0.0
0
LINE
5
6aa
100
AcDbEntity
8
0-2
6
DOT
62
4
100
AcDbLine
10
572.730000000000
20
357.770000000000
30
0.0
11
577.730000000000
21
362.770000000000
31
0.0
0
LINE
5
6ab
100
AcDbEntity
8
0-2
6
DOT
62
4
100
AcDbLine
10
569.900000000000
20
357.770000000000
30
0.0
11
574.900000000000
21
362.770000000000
31
0.0
0
LINE
5
6ac
100
AcDbEntity
8
0-2
6
DOT
62
4
100
AcDbLine
10
567.070000000000
20
357.770000000000
30
0.0
11
572.070000000000
21
362.770000000000
31
0.0
0
LINE
5
6ad
100
AcDbEntity
8
0-2
6
DOT
62
4
100
AcDbLine
10
564.240000000000
20
357.770000000000
30
0.0
11
569.240000000000
21
362.770000000000
31
0.0
0
LINE
5
6ae
100
AcDbEntity
8
0-2
6
DOT
62
4
100
AcDbLine
10
561.410000000000
20
357.770000000000
30
0.0
11
566.410000000000
21
362.770000000000
31
0.0
0
LINE
5
6af
100
AcDbEntity
8
0-2
6
DOT
62
4
100
AcDbLine
10
558.590000000000
20
357.770000000000
30
0.0
11
563.590000000000
21
362.770000000000
31
0.0
0
LINE
5
6b0
100
AcDbEntity
8
0-2
6
DOT
62
4
100
AcDbLine
10
555.770000000000
20
357.780000000000
30
0.0
11
560.760000000000
21
362.770000000000
31
0.0
0
LINE
5
6b1
100
AcDbEntity
8
0-2
6
DOT
62
4
100
AcDbLine
10
554.360000000000
20
359.200000000000
30
0.0
11
557.930000000000
21
362.770000000000
31
0.0
0
LINE
5
6b2
100
AcDbEntity
8
0-2
6
DOT
62
4
100
AcDbLine
10
552.950000000000
20
360.610000000000
30
0.0
11
556.480000000000
21
364.150000000000
31
0.0
0
LINE
5
6b3
100
AcDbEntity
8
0-2
6
DOT
62
4
100
AcDbLine
10
551.530000000000
20
362.030000000000
30
0.0
11
555.070000000000
21
365.560000000000
31
0.0
0
LINE
5
6b4
100
AcDbEntity
8
0-2
6
DOT
62
4
100
AcDbLine
10
548.740000000000
20
362.060000000000
30
0.0
11
553.650000000000
21
366.980000000000
31
0.0
0
LINE
5
6b5
100
AcDbEntity
8
0-2
6
DOT
62
4
100
AcDbLine
10
545.910000000000
20
362.060000000000
30
0.0
11
550.910000000000
21
367.060000000000
31
0.0
0
LINE
5
6b6
100
AcDbEntity
8
0-2
6
DOT
62
4
100
AcDbLine
10
543.080000000000
20
362.060000000000
30
0.0
11
548.080000000000
21
367.060000000000
31
0.0
0
LINE
5
6b7
100
AcDbEntity
8
0-2
6
DOT
62
4
100
AcDbLine
10
540.250000000000
20
362.060000000000
30
0.0
11
545.250000000000
21
367.060000000000
31
0.0
0
LINE
5
6b8
100
AcDbEntity
8
0-2
6
DOT
62
4
100
AcDbLine
10
537.420000000000
20
362.060000000000
30
0.0
11
542.420000000000
21
367.060000000000
31
0.0
0
LINE
5
6b9
100
AcDbEntity
8
0-2
6
DOT
62
4
100
AcDbLine
10
534.590000000000
20
362.060000000000
30
0.0
11
539.590000000000
21
367.060000000000
31
0.0
0
LINE
5
6ba
100
AcDbEntity
8
0-2
6
DOT
62
4
100
AcDbLine
10
531.760000000000
20
362.060000000000
30
0.0
11
536.760000000000
21
367.060000000000
31
0.0
0
LINE
5
6bb
100
AcDbEntity
8
0-2
6
DOT
62
4
100
AcDbLine
10
528.940000000000
20
362.060000000000
30
0.0
11
533.940000000000
21
367.060000000000
31
0.0
0
LINE
5
6bc
100
AcDbEntity
8
0-2
6
DOT
62
4
100
AcDbLine
10
528.900000000000
20
364.850000000000
30
0.0
11
531.110000000000
21
367.060000000000
31
0.0
0
LINE
5
6bd
100
AcDbEntity
8
0-2
6
DOT
62
4
100
AcDbLine
10
528.900000000000
20
364.880000000000
30
0.0
11
531.720000000000
21
362.060000000000
31
0.0
0
LINE
5
6be
100
AcDbEntity
8
0-2
6
DOT
62
4
100
AcDbLine
10
529.550000000000
20
367.060000000000
30
0.0
11
534.550000000000
21
362.060000000000
31
0.0
0
LINE
5
6bf
100
AcDbEntity
8
0-2
6
DOT
62
4
100
AcDbLine
10
532.380000000000
20
367.060000000000
30
0.0
11
537.380000000000
21
362.060000000000
31
0.0
0
LINE
5
6c0
100
AcDbEntity
8
0-2
6
DOT
62
4
100
AcDbLine
10
535.210000000000
20
367.060000000000
30
0.0
11
540.210000000000
21
362.060000000000
31
0.0
0
LINE
5
6c1
100
AcDbEntity
8
0-2
6
DOT
62
4
100
AcDbLine
10
538.040000000000
20
367.060000000000
30
0.0
11
543.040000000000
21
362.060000000000
31
0.0
0
LINE
5
6c2
100
AcDbEntity
8
0-2
6
DOT
62
4
100
AcDbLine
10
540.870000000000
20
367.060000000000
30
0.0
11
545.870000000000
21
362.060000000000
31
0.0
0
LINE
5
6c3
100
AcDbEntity
8
0-2
6
DOT
62
4
100
AcDbLine
10
543.690000000000
20
367.060000000000
30
0.0
11
548.690000000000
21
362.060000000000
31
0.0
0
LINE
5
6c4
100
AcDbEntity
8
0-2
6
DOT
62
4
100
AcDbLine
10
546.520000000000
20
367.060000000000
30
0.0
11
555.810000000000
21
357.770000000000
31
0.0
0
LINE
5
6c5
100
AcDbEntity
8
0-2
6
DOT
62
4
100
AcDbLine
10
549.350000000000
20
367.060000000000
30
0.0
11
558.640000000000
21
357.770000000000
31
0.0
0
LINE
5
6c6
100
AcDbEntity
8
0-2
6
DOT
62
4
100
AcDbLine
10
552.180000000000
20
367.060000000000
30
0.0
11
561.470000000000
21
357.770000000000
31
0.0
0
LINE
5
6c7
100
AcDbEntity
8
0-2
6
DOT
62
4
100
AcDbLine
10
559.300000000000
20
362.770000000000
30
0.0
11
564.300000000000
21
357.770000000000
31
0.0
0
LINE
5
6c8
100
AcDbEntity
8
0-2
6
DOT
62
4
100
AcDbLine
10
562.130000000000
20
362.770000000000
30
0.0
11
567.130000000000
21
357.770000000000
31
0.0
0
LINE
5
6c9
100
AcDbEntity
8
0-2
6
DOT
62
4
100
AcDbLine
10
564.960000000000
20
362.770000000000
30
0.0
11
569.960000000000
21
357.770000000000
31
0.0
0
LINE
5
6ca
100
AcDbEntity
8
0-2
6
DOT
62
4
100
AcDbLine
10
567.790000000000
20
362.770000000000
30
0.0
11
572.790000000000
21
357.770000000000
31
0.0
0
LINE
5
6cb
100
AcDbEntity
8
0-2
6
DOT
62
4
100
AcDbLine
10
570.610000000000
20
362.770000000000
30
0.0
11
575.610000000000
21
357.770000000000
31
0.0
0
LINE
5
6cc
100
AcDbEntity
8
0-2
6
DOT
62
4
100
AcDbLine
10
573.440000000000
20
362.770000000000
30
0.0
11
578.440000000000
21
357.770000000000
31
0.0
0
LINE
5
6cd
100
AcDbEntity
8
0-2
6
DOT
62
4
100
AcDbLine
10
576.270000000000
20
362.770000000000
30
0.0
11
581.270000000000
21
357.770000000000
31
0.0
0
LINE
5
6ce
100
AcDbEntity
8
0-2
6
DOT
62
4
100
AcDbLine
10
579.100000000000
20
362.770000000000
30
0.0
11
584.100000000000
21
357.770000000000
31
0.0
0
LINE
5
6cf
100
AcDbEntity
8
0-2
6
DOT
62
4
100
AcDbLine
10
581.930000000000
20
362.770000000000
30
0.0
11
586.930000000000
21
357.770000000000
31
0.0
0
LINE
5
6d0
100
AcDbEntity
8
0-2
6
DOT
62
4
100
AcDbLine
10
584.760000000000
20
362.770000000000
30
0.0
11
589.760000000000
21
357.770000000000
31
0.0
0
LINE
5
6d1
100
AcDbEntity
8
0-2
6
DOT
62
4
100
AcDbLine
10
587.580000000000
20
362.770000000000
30
0.0
11
592.580000000000
21
357.770000000000
31
0.0
0
LINE
5
6d2
100
AcDbEntity
8
0-2
6
DOT
62
4
100
AcDbLine
10
590.410000000000
20
362.770000000000
30
0.0
11
595.410000000000
21
357.770000000000
31
0.0
0
LINE
5
6d3
100
AcDbEntity
8
0-2
6
DOT
62
4
100
AcDbLine
10
593.240000000000
20
362.770000000000
30
0.0
11
598.240000000000
21
357.770000000000
31
0.0
0
LINE
5
6d4
100
AcDbEntity
8
0-2
6
DOT
62
4
100
AcDbLine
10
596.070000000000
20
362.770000000000
30
0.0
11
601.070000000000
21
357.770000000000
31
0.0
0
LINE
5
6d5
100
AcDbEntity
8
0-2
6
DOT
62
4
100
AcDbLine
10
598.900000000000
20
362.770000000000
30
0.0
11
603.900000000000
21
357.770000000000
31
0.0
0
LINE
5
6d6
100
AcDbEntity
8
0-2
6
DOT
62
4
100
AcDbLine
10
601.730000000000
20
362.770000000000
30
0.0
11
606.730000000000
21
357.770000000000
31
0.0
0
LINE
5
6d7
100
AcDbEntity
8
0-2
6
DOT
62
4
100
AcDbLine
10
604.550000000000
20
362.770000000000
30
0.0
11
609.550000000000
21
357.770000000000
31
0.0
0
LINE
5
6d8
100
AcDbEntity
8
0-2
6
DOT
62
4
100
AcDbLine
10
607.380000000000
20
362.770000000000
30
0.0
11
612.380000000000
21
357.770000000000
31
0.0
0
LINE
5
6d9
100
AcDbEntity
8
0-2
6
DOT
62
4
100
AcDbLine
10
610.210000000000
20
362.770000000000
30
0.0
11
615.210000000000
21
357.770000000000
31
0.0
0
LINE
5
6da
100
AcDbEntity
8
0-2
6
DOT
62
4
100
AcDbLine
10
613.040000000000
20
362.770000000000
30
0.0
11
618.040000000000
21
357.770000000000
31
0.0
0
LINE
5
6db
100
AcDbEntity
8
0-2
6
DOT
62
4
100
AcDbLine
10
615.870000000000
20
362.770000000000
30
0.0
11
620.870000000000
21
357.770000000000
31
0.0
0
LINE
5
6dc
100
AcDbEntity
8
0-2
6
DOT
62
4
100
AcDbLine
10
618.490000000000
20
362.980000000000
30
0.0
11
622.170000000000
21
359.290000000000
31
0.0
0
LINE
5
6dd
100
AcDbEntity
8
0-2
6
DOT
62
4
100
AcDbLine
10
619.490000000000
20
364.800000000000
30
0.0
11
623.170000000000
21
361.120000000000
31
0.0
0
LINE
5
6de
100
AcDbEntity
8
0-2
6
DOT
62
4
100
AcDbLine
10
620.490000000000
20
366.630000000000
30
0.0
11
624.180000000000
21
362.950000000000
31
0.0
0
LINE
5
6df
100
AcDbEntity
8
0-2
6
DOT
62
4
100
AcDbLine
10
621.500000000000
20
368.450000000000
30
0.0
11
625.180000000000
21
364.770000000000
31
0.0
0
LINE
5
6e0
100
AcDbEntity
8
0-2
6
DOT
62
4
100
AcDbLine
10
622.500000000000
20
370.280000000000
30
0.0
11
626.180000000000
21
366.600000000000
31
0.0
0
LINE
5
6e1
100
AcDbEntity
8
0-2
6
DOT
62
4
100
AcDbLine
10
623.500000000000
20
372.110000000000
30
0.0
11
627.180000000000
21
368.420000000000
31
0.0
0
LINE
5
6e2
100
AcDbEntity
8
0-2
6
DOT
62
4
100
AcDbLine
10
624.500000000000
20
373.930000000000
30
0.0
11
628.180000000000
21
370.250000000000
31
0.0
0
LINE
5
6e3
100
AcDbEntity
8
0-2
6
DOT
62
4
100
AcDbLine
10
625.500000000000
20
375.760000000000
30
0.0
11
629.190000000000
21
372.080000000000
31
0.0
0
LINE
5
6e4
100
AcDbEntity
8
0-2
6
DOT
62
4
100
AcDbLine
10
626.510000000000
20
377.590000000000
30
0.0
11
630.190000000000
21
373.900000000000
31
0.0
0
LINE
5
6e5
100
AcDbEntity
8
0-2
6
DOT
62
4
100
AcDbLine
10
627.510000000000
20
379.410000000000
30
0.0
11
631.190000000000
21
375.730000000000
31
0.0
0
LINE
5
6e6
100
AcDbEntity
8
0-2
6
DOT
62
4
100
AcDbLine
10
628.510000000000
20
381.240000000000
30
0.0
11
632.190000000000
21
377.560000000000
31
0.0
0
LINE
5
6e7
100
AcDbEntity
8
0-2
6
DOT
62
4
100
AcDbLine
10
629.510000000000
20
383.060000000000
30
0.0
11
633.200000000000
21
379.380000000000
31
0.0
0
LINE
5
6e8
100
AcDbEntity
8
0-2
6
DOT
62
4
100
AcDbLine
10
630.520000000000
20
384.890000000000
30
0.0
11
634.200000000000
21
381.210000000000
31
0.0
0
LINE
5
6e9
100
AcDbEntity
8
0-2
6
DOT
62
4
100
AcDbLine
10
631.520000000000
20
386.720000000000
30
0.0
11
635.200000000000
21
383.030000000000
31
0.0
0
LINE
5
6ea
100
AcDbEntity
8
0-2
6
DOT
62
4
100
AcDbLine
10
632.520000000000
20
388.540000000000
30
0.0
11
636.200000000000
21
384.860000000000
31
0.0
0
LINE
5
6eb
100
AcDbEntity
8
0-2
6
DOT
62
4
100
AcDbLine
10
633.520000000000
20
390.370000000000
30
0.0
11
637.210000000000
21
386.690000000000
31
0.0
0
LINE
5
6ec
100
AcDbEntity
8
0-2
6
DOT
62
4
100
AcDbLine
10
634.530000000000
20
392.190000000000
30
0.0
11
638.210000000000
21
388.510000000000
31
0.0
0
LINE
5
6ed
100
AcDbEntity
8
0-2
6
DOT
62
4
100
AcDbLine
10
635.530000000000
20
394.020000000000
30
0.0
11
639.210000000000
21
390.340000000000
31
0.0
0
LINE
5
6ee
100
AcDbEntity
8
0-2
6
DOT
62
4
100
AcDbLine
10
636.530000000000
20
395.850000000000
30
0.0
11
640.210000000000
21
392.160000000000
31
0.0
0
LINE
5
6ef
100
AcDbEntity
8
0-2
6
DOT
62
4
100
AcDbLine
10
637.530000000000
20
397.670000000000
30
0.0
11
641.210000000000
21
393.990000000000
31
0.0
0
LINE
5
6f0
100
AcDbEntity
8
0-2
6
DOT
62
4
100
AcDbLine
10
638.530000000000
20
399.500000000000
30
0.0
11
642.220000000000
21
395.820000000000
31
0.0
0
LINE
5
6f1
100
AcDbEntity
8
0-2
6
DOT
62
4
100
AcDbLine
10
639.540000000000
20
401.330000000000
30
0.0
11
643.220000000000
21
397.640000000000
31
0.0
0
LINE
5
6f2
100
AcDbEntity
8
0-2
6
DOT
62
4
100
AcDbLine
10
641.120000000000
20
402.570000000000
30
0.0
11
644.710000000000
21
398.980000000000
31
0.0
0
LINE
5
6f3
100
AcDbEntity
8
0-2
6
DOT
62
4
100
AcDbLine
10
642.780000000000
20
403.740000000000
30
0.0
11
646.370000000000
21
400.150000000000
31
0.0
0
LINE
5
6f4
100
AcDbEntity
8
0-2
6
DOT
62
4
100
AcDbLine
10
644.440000000000
20
404.910000000000
30
0.0
11
648.030000000000
21
401.320000000000
31
0.0
0
LINE
5
6f5
100
AcDbEntity
8
0-2
6
DOT
62
4
100
AcDbLine
10
646.100000000000
20
406.080000000000
30
0.0
11
649.690000000000
21
402.490000000000
31
0.0
0
LINE
5
6f6
100
AcDbEntity
8
0-2
6
DOT
62
4
100
AcDbLine
10
647.760000000000
20
407.250000000000
30
0.0
11
651.340000000000
21
403.660000000000
31
0.0
0
LINE
5
6f7
100
AcDbEntity
8
0-2
6
DOT
62
4
100
AcDbLine
10
649.410000000000
20
408.420000000000
30
0.0
11
653.000000000000
21
404.830000000000
31
0.0
0
LINE
5
6f8
100
AcDbEntity
8
0-2
6
DOT
62
4
100
AcDbLine
10
651.070000000000
20
409.590000000000
30
0.0
11
654.660000000000
21
406.000000000000
31
0.0
0
LINE
5
6f9
100
AcDbEntity
8
0-2
6
DOT
62
4
100
AcDbLine
10
652.730000000000
20
410.760000000000
30
0.0
11
656.280000000000
21
407.210000000000
31
0.0
0
LINE
5
6fa
100
AcDbEntity
8
0-2
6
DOT
62
4
100
AcDbLine
10
647.920000000000
20
418.400000000000
30
0.0
11
648.080000000000
21
418.240000000000
31
0.0
0
LINE
5
6fb
100
AcDbEntity
8
0-2
6
DOT
62
4
100
AcDbLine
10
653.980000000000
20
412.340000000000
30
0.0
11
657.620000000000
21
408.690000000000
31
0.0
0
LINE
5
6fc
100
AcDbEntity
8
0-2
6
DOT
62
4
100
AcDbLine
10
647.980000000000
20
421.160000000000
30
0.0
11
651.320000000000
21
417.830000000000
31
0.0
0
LINE
5
6fd
100
AcDbEntity
8
0-2
6
DOT
62
4
100
AcDbLine
10
654.210000000000
20
414.940000000000
30
0.0
11
658.640000000000
21
410.510000000000
31
0.0
0
LINE
5
6fe
100
AcDbEntity
8
0-2
6
DOT
62
4
100
AcDbLine
10
649.010000000000
20
422.970000000000
30
0.0
11
659.240000000000
21
412.730000000000
31
0.0
0
LINE
5
6ff
100
AcDbEntity
8
0-2
6
DOT
62
4
100
AcDbLine
10
651.970000000000
20
422.830000000000
30
0.0
11
659.170000000000
21
415.630000000000
31
0.0
0
POLYLINE
5
700
100
AcDbEntity
8
0-2
6
DOT
62
  4
100
AcDb2dPolyline
66
1
10
0.0
20
0.0
30
0.0
70
0
0
VERTEX
5
701
100
AcDbEntity
8
0-2
6
DOT
62
  4
100
AcDbVertex
100
AcDb2dVertex
10
706.210000000000
20
420.910000000000
30
0.0
0
VERTEX
5
702
100
AcDbEntity
8
0-2
6
DOT
62
  4
100
AcDbVertex
100
AcDb2dVertex
10
712.020000000000
20
421.230000000000
30
0.0
0
VERTEX
5
703
100
AcDbEntity
8
0-2
6
DOT
62
  4
100
AcDbVertex
100
AcDb2dVertex
10
711.080000000000
20
416.240000000000
30
0.0
0
SEQEND
5
704
100
AcDbEntity
8
0-2
0
LINE
5
705
100
AcDbEntity
8
0-2
6
DOT
62
4
100
AcDbLine
10
706.400000000000
20
415.920000000000
30
0.0
11
706.380000000000
21
415.910000000000
31
0.0
0
LINE
5
706
100
AcDbEntity
8
0-2
6
DOT
62
4
100
AcDbLine
10
736.020000000000
20
358.580000000000
30
0.0
11
736.830000000000
21
357.770000000000
31
0.0
0
LINE
5
707
100
AcDbEntity
8
0-2
6
DOT
62
4
100
AcDbLine
10
732.580000000000
20
364.850000000000
30
0.0
11
739.660000000000
21
357.770000000000
31
0.0
0
LINE
5
708
100
AcDbEntity
8
0-2
6
DOT
62
4
100
AcDbLine
10
729.140000000000
20
371.120000000000
30
0.0
11
742.490000000000
21
357.770000000000
31
0.0
0
LINE
5
709
100
AcDbEntity
8
0-2
6
DOT
62
4
100
AcDbLine
10
725.700000000000
20
377.390000000000
30
0.0
11
738.340000000000
21
364.740000000000
31
0.0
0
LINE
5
70a
100
AcDbEntity
8
0-2
6
DOT
62
4
100
AcDbLine
10
740.320000000000
20
362.770000000000
30
0.0
11
745.320000000000
21
357.770000000000
31
0.0
0
LINE
5
70b
100
AcDbEntity
8
0-2
6
DOT
62
4
100
AcDbLine
10
722.260000000000
20
383.660000000000
30
0.0
11
734.900000000000
21
371.010000000000
31
0.0
0
LINE
5
70c
100
AcDbEntity
8
0-2
6
DOT
62
4
100
AcDbLine
10
743.150000000000
20
362.770000000000
30
0.0
11
748.150000000000
21
357.770000000000
31
0.0
0
LINE
5
70d
100
AcDbEntity
8
0-2
6
DOT
62
4
100
AcDbLine
10
700.300000000000
20
408.450000000000
30
0.0
11
701.790000000000
21
406.950000000000
31
0.0
0
LINE
5
70e
100
AcDbEntity
8
0-2
6
DOT
62
4
100
AcDbLine
10
718.820000000000
20
389.920000000000
30
0.0
11
731.460000000000
21
377.280000000000
31
0.0
0
LINE
5
70f
100
AcDbEntity
8
0-2
6
DOT
62
4
100
AcDbLine
10
745.980000000000
20
362.770000000000
30
0.0
11
750.980000000000
21
357.770000000000
31
0.0
0
LINE
5
710
100
AcDbEntity
8
0-2
6
DOT
62
4
100
AcDbLine
10
698.750000000000
20
412.820000000000
30
0.0
11
711.400000000000
21
400.170000000000
31
0.0
0
LINE
5
711
100
AcDbEntity
8
0-2
6
DOT
62
4
100
AcDbLine
10
715.380000000000
20
396.190000000000
30
0.0
11
728.020000000000
21
383.550000000000
31
0.0
0
LINE
5
712
100
AcDbEntity
8
0-2
6
DOT
62
4
100
AcDbLine
10
748.800000000000
20
362.770000000000
30
0.0
11
753.800000000000
21
357.770000000000
31
0.0
0
LINE
5
713
100
AcDbEntity
8
0-2
6
DOT
62
4
100
AcDbLine
10
699.070000000000
20
415.340000000000
30
0.0
11
724.580000000000
21
389.820000000000
31
0.0
0
LINE
5
714
100
AcDbEntity
8
0-2
6
DOT
62
4
100
AcDbLine
10
751.630000000000
20
362.770000000000
30
0.0
11
756.630000000000
21
357.770000000000
31
0.0
0
LINE
5
715
100
AcDbEntity
8
0-2
6
DOT
62
4
100
AcDbLine
10
699.950000000000
20
417.280000000000
30
0.0
11
703.760000000000
21
413.460000000000
31
0.0
0
LINE
5
716
100
AcDbEntity
8
0-2
6
DOT
62
4
100
AcDbLine
10
709.830000000000
20
407.400000000000
30
0.0
11
721.140000000000
21
396.090000000000
31
0.0
0
LINE
5
717
100
AcDbEntity
8
0-2
6
DOT
62
4
100
AcDbLine
10
754.460000000000
20
362.770000000000
30
0.0
11
759.460000000000
21
357.770000000000
31
0.0
0
LINE
5
718
100
AcDbEntity
8
0-2
6
DOT
62
4
100
AcDbLine
10
701.230000000000
20
418.830000000000
30
0.0
11
704.770000000000
21
415.290000000000
31
0.0
0
LINE
5
719
100
AcDbEntity
8
0-2
6
DOT
62
4
100
AcDbLine
10
757.290000000000
20
362.770000000000
30
0.0
11
762.290000000000
21
357.770000000000
31
0.0
0
LINE
5
71a
100
AcDbEntity
8
0-2
6
DOT
62
4
100
AcDbLine
10
702.880000000000
20
420.000000000000
30
0.0
11
706.930000000000
21
415.960000000000
31
0.0
0
LINE
5
71b
100
AcDbEntity
8
0-2
6
DOT
62
4
100
AcDbLine
10
760.120000000000
20
362.770000000000
30
0.0
11
765.120000000000
21
357.770000000000
31
0.0
0
LINE
5
71c
100
AcDbEntity
8
0-2
6
DOT
62
4
100
AcDbLine
10
704.960000000000
20
420.760000000000
30
0.0
11
709.580000000000
21
416.140000000000
31
0.0
0
LINE
5
71d
100
AcDbEntity
8
0-2
6
DOT
62
4
100
AcDbLine
10
762.950000000000
20
362.770000000000
30
0.0
11
767.950000000000
21
357.770000000000
31
0.0
0
LINE
5
71e
100
AcDbEntity
8
0-2
6
DOT
62
4
100
AcDbLine
10
707.560000000000
20
420.980000000000
30
0.0
11
711.270000000000
21
417.270000000000
31
0.0
0
LINE
5
71f
100
AcDbEntity
8
0-2
6
DOT
62
4
100
AcDbLine
10
765.780000000000
20
362.770000000000
30
0.0
11
770.780000000000
21
357.770000000000
31
0.0
0
LINE
5
720
100
AcDbEntity
8
0-2
6
DOT
62
4
100
AcDbLine
10
710.240000000000
20
421.130000000000
30
0.0
11
711.720000000000
21
419.650000000000
31
0.0
0
LINE
5
721
100
AcDbEntity
8
0-2
6
DOT
62
4
100
AcDbLine
10
768.600000000000
20
362.770000000000
30
0.0
11
773.600000000000
21
357.770000000000
31
0.0
0
LINE
5
722
100
AcDbEntity
8
0-2
6
DOT
62
4
100
AcDbLine
10
771.430000000000
20
362.770000000000
30
0.0
11
776.430000000000
21
357.770000000000
31
0.0
0
LINE
5
723
100
AcDbEntity
8
0-2
6
DOT
62
4
100
AcDbLine
10
774.260000000000
20
362.770000000000
30
0.0
11
779.260000000000
21
357.770000000000
31
0.0
0
LINE
5
724
100
AcDbEntity
8
0-2
6
DOT
62
4
100
AcDbLine
10
777.090000000000
20
362.770000000000
30
0.0
11
782.090000000000
21
357.770000000000
31
0.0
0
LINE
5
725
100
AcDbEntity
8
0-2
6
DOT
62
4
100
AcDbLine
10
779.920000000000
20
362.770000000000
30
0.0
11
784.920000000000
21
357.770000000000
31
0.0
0
LINE
5
726
100
AcDbEntity
8
0-2
6
DOT
62
4
100
AcDbLine
10
782.750000000000
20
362.770000000000
30
0.0
11
787.750000000000
21
357.770000000000
31
0.0
0
LINE
5
727
100
AcDbEntity
8
0-2
6
DOT
62
4
100
AcDbLine
10
785.570000000000
20
362.770000000000
30
0.0
11
790.570000000000
21
357.770000000000
31
0.0
0
LINE
5
728
100
AcDbEntity
8
0-2
6
DOT
62
4
100
AcDbLine
10
788.400000000000
20
362.770000000000
30
0.0
11
793.400000000000
21
357.770000000000
31
0.0
0
LINE
5
729
100
AcDbEntity
8
0-2
6
DOT
62
4
100
AcDbLine
10
791.230000000000
20
362.770000000000
30
0.0
11
796.230000000000
21
357.770000000000
31
0.0
0
LINE
5
72a
100
AcDbEntity
8
0-2
6
DOT
62
4
100
AcDbLine
10
794.060000000000
20
362.770000000000
30
0.0
11
799.060000000000
21
357.770000000000
31
0.0
0
LINE
5
72b
100
AcDbEntity
8
0-2
6
DOT
62
4
100
AcDbLine
10
796.890000000000
20
362.770000000000
30
0.0
11
801.890000000000
21
357.770000000000
31
0.0
0
LINE
5
72c
100
AcDbEntity
8
0-2
6
DOT
62
4
100
AcDbLine
10
799.720000000000
20
362.770000000000
30
0.0
11
803.360000000000
21
359.120000000000
31
0.0
0
LINE
5
72d
100
AcDbEntity
8
0-2
6
DOT
62
4
100
AcDbLine
10
801.240000000000
20
364.070000000000
30
0.0
11
804.780000000000
21
360.530000000000
31
0.0
0
LINE
5
72e
100
AcDbEntity
8
0-2
6
DOT
62
4
100
AcDbLine
10
802.660000000000
20
365.480000000000
30
0.0
11
806.190000000000
21
361.950000000000
31
0.0
0
LINE
5
72f
100
AcDbEntity
8
0-2
6
DOT
62
4
100
AcDbLine
10
804.070000000000
20
366.900000000000
30
0.0
11
808.910000000000
21
362.060000000000
31
0.0
0
LINE
5
730
100
AcDbEntity
8
0-2
6
DOT
62
4
100
AcDbLine
10
806.740000000000
20
367.060000000000
30
0.0
11
811.740000000000
21
362.060000000000
31
0.0
0
LINE
5
731
100
AcDbEntity
8
0-2
6
DOT
62
4
100
AcDbLine
10
809.570000000000
20
367.060000000000
30
0.0
11
814.570000000000
21
362.060000000000
31
0.0
0
LINE
5
732
100
AcDbEntity
8
0-2
6
DOT
62
4
100
AcDbLine
10
812.400000000000
20
367.060000000000
30
0.0
11
817.400000000000
21
362.060000000000
31
0.0
0
LINE
5
733
100
AcDbEntity
8
0-2
6
DOT
62
4
100
AcDbLine
10
815.220000000000
20
367.060000000000
30
0.0
11
820.220000000000
21
362.060000000000
31
0.0
0
LINE
5
734
100
AcDbEntity
8
0-2
6
DOT
62
4
100
AcDbLine
10
818.050000000000
20
367.060000000000
30
0.0
11
823.050000000000
21
362.060000000000
31
0.0
0
LINE
5
735
100
AcDbEntity
8
0-2
6
DOT
62
4
100
AcDbLine
10
820.880000000000
20
367.060000000000
30
0.0
11
825.880000000000
21
362.060000000000
31
0.0
0
LINE
5
736
100
AcDbEntity
8
0-2
6
DOT
62
4
100
AcDbLine
10
823.710000000000
20
367.060000000000
30
0.0
11
828.710000000000
21
362.060000000000
31
0.0
0
LINE
5
737
100
AcDbEntity
8
0-2
6
DOT
62
4
100
AcDbLine
10
826.540000000000
20
367.060000000000
30
0.0
11
828.900000000000
21
364.700000000000
31
0.0
0
LINE
5
738
100
AcDbEntity
8
0-2
6
DOT
62
4
100
AcDbLine
10
828.750000000000
20
362.060000000000
30
0.0
11
828.900000000000
21
362.210000000000
31
0.0
0
LINE
5
739
100
AcDbEntity
8
0-2
6
DOT
62
4
100
AcDbLine
10
825.920000000000
20
362.060000000000
30
0.0
11
828.900000000000
21
365.040000000000
31
0.0
0
LINE
5
73a
100
AcDbEntity
8
0-2
6
DOT
62
4
100
AcDbLine
10
823.090000000000
20
362.060000000000
30
0.0
11
828.090000000000
21
367.060000000000
31
0.0
0
LINE
5
73b
100
AcDbEntity
8
0-2
6
DOT
62
4
100
AcDbLine
10
820.260000000000
20
362.060000000000
30
0.0
11
825.260000000000
21
367.060000000000
31
0.0
0
LINE
5
73c
100
AcDbEntity
8
0-2
6
DOT
62
4
100
AcDbLine
10
817.440000000000
20
362.060000000000
30
0.0
11
822.440000000000
21
367.060000000000
31
0.0
0
LINE
5
73d
100
AcDbEntity
8
0-2
6
DOT
62
4
100
AcDbLine
10
814.610000000000
20
362.060000000000
30
0.0
11
819.610000000000
21
367.060000000000
31
0.0
0
LINE
5
73e
100
AcDbEntity
8
0-2
6
DOT
62
4
100
AcDbLine
10
811.780000000000
20
362.060000000000
30
0.0
11
816.780000000000
21
367.060000000000
31
0.0
0
LINE
5
73f
100
AcDbEntity
8
0-2
6
DOT
62
4
100
AcDbLine
10
808.950000000000
20
362.060000000000
30
0.0
11
813.950000000000
21
367.060000000000
31
0.0
0
LINE
5
740
100
AcDbEntity
8
0-2
6
DOT
62
4
100
AcDbLine
10
801.830000000000
20
357.770000000000
30
0.0
11
811.120000000000
21
367.060000000000
31
0.0
0
LINE
5
741
100
AcDbEntity
8
0-2
6
DOT
62
4
100
AcDbLine
10
799.000000000000
20
357.770000000000
30
0.0
11
808.290000000000
21
367.060000000000
31
0.0
0
LINE
5
742
100
AcDbEntity
8
0-2
6
DOT
62
4
100
AcDbLine
10
796.170000000000
20
357.770000000000
30
0.0
11
805.470000000000
21
367.060000000000
31
0.0
0
LINE
5
743
100
AcDbEntity
8
0-2
6
DOT
62
4
100
AcDbLine
10
793.350000000000
20
357.770000000000
30
0.0
11
798.350000000000
21
362.770000000000
31
0.0
0
LINE
5
744
100
AcDbEntity
8
0-2
6
DOT
62
4
100
AcDbLine
10
790.520000000000
20
357.770000000000
30
0.0
11
795.520000000000
21
362.770000000000
31
0.0
0
LINE
5
745
100
AcDbEntity
8
0-2
6
DOT
62
4
100
AcDbLine
10
787.690000000000
20
357.770000000000
30
0.0
11
792.690000000000
21
362.770000000000
31
0.0
0
LINE
5
746
100
AcDbEntity
8
0-2
6
DOT
62
4
100
AcDbLine
10
784.860000000000
20
357.770000000000
30
0.0
11
789.860000000000
21
362.770000000000
31
0.0
0
LINE
5
747
100
AcDbEntity
8
0-2
6
DOT
62
4
100
AcDbLine
10
782.030000000000
20
357.770000000000
30
0.0
11
787.030000000000
21
362.770000000000
31
0.0
0
LINE
5
748
100
AcDbEntity
8
0-2
6
DOT
62
4
100
AcDbLine
10
779.200000000000
20
357.770000000000
30
0.0
11
784.200000000000
21
362.770000000000
31
0.0
0
LINE
5
749
100
AcDbEntity
8
0-2
6
DOT
62
4
100
AcDbLine
10
776.370000000000
20
357.770000000000
30
0.0
11
781.370000000000
21
362.770000000000
31
0.0
0
LINE
5
74a
100
AcDbEntity
8
0-2
6
DOT
62
4
100
AcDbLine
10
773.550000000000
20
357.770000000000
30
0.0
11
778.550000000000
21
362.770000000000
31
0.0
0
LINE
5
74b
100
AcDbEntity
8
0-2
6
DOT
62
4
100
AcDbLine
10
770.720000000000
20
357.770000000000
30
0.0
11
775.720000000000
21
362.770000000000
31
0.0
0
LINE
5
74c
100
AcDbEntity
8
0-2
6
DOT
62
4
100
AcDbLine
10
767.890000000000
20
357.770000000000
30
0.0
11
772.890000000000
21
362.770000000000
31
0.0
0
LINE
5
74d
100
AcDbEntity
8
0-2
6
DOT
62
4
100
AcDbLine
10
765.060000000000
20
357.770000000000
30
0.0
11
770.060000000000
21
362.770000000000
31
0.0
0
LINE
5
74e
100
AcDbEntity
8
0-2
6
DOT
62
4
100
AcDbLine
10
762.230000000000
20
357.770000000000
30
0.0
11
767.230000000000
21
362.770000000000
31
0.0
0
LINE
5
74f
100
AcDbEntity
8
0-2
6
DOT
62
4
100
AcDbLine
10
759.400000000000
20
357.770000000000
30
0.0
11
764.400000000000
21
362.770000000000
31
0.0
0
LINE
5
750
100
AcDbEntity
8
0-2
6
DOT
62
4
100
AcDbLine
10
756.580000000000
20
357.770000000000
30
0.0
11
761.580000000000
21
362.770000000000
31
0.0
0
LINE
5
751
100
AcDbEntity
8
0-2
6
DOT
62
4
100
AcDbLine
10
753.750000000000
20
357.770000000000
30
0.0
11
758.750000000000
21
362.770000000000
31
0.0
0
LINE
5
752
100
AcDbEntity
8
0-2
6
DOT
62
4
100
AcDbLine
10
750.920000000000
20
357.770000000000
30
0.0
11
755.920000000000
21
362.770000000000
31
0.0
0
LINE
5
753
100
AcDbEntity
8
0-2
6
DOT
62
4
100
AcDbLine
10
748.090000000000
20
357.770000000000
30
0.0
11
753.090000000000
21
362.770000000000
31
0.0
0
LINE
5
754
100
AcDbEntity
8
0-2
6
DOT
62
4
100
AcDbLine
10
745.260000000000
20
357.770000000000
30
0.0
11
750.260000000000
21
362.770000000000
31
0.0
0
LINE
5
755
100
AcDbEntity
8
0-2
6
DOT
62
4
100
AcDbLine
10
742.430000000000
20
357.770000000000
30
0.0
11
747.430000000000
21
362.770000000000
31
0.0
0
LINE
5
756
100
AcDbEntity
8
0-2
6
DOT
62
4
100
AcDbLine
10
739.600000000000
20
357.770000000000
30
0.0
11
744.600000000000
21
362.770000000000
31
0.0
0
LINE
5
757
100
AcDbEntity
8
0-2
6
DOT
62
4
100
AcDbLine
10
736.780000000000
20
357.770000000000
30
0.0
11
741.780000000000
21
362.770000000000
31
0.0
0
LINE
5
758
100
AcDbEntity
8
0-2
6
DOT
62
4
100
AcDbLine
10
735.570000000000
20
359.390000000000
30
0.0
11
739.260000000000
21
363.080000000000
31
0.0
0
LINE
5
759
100
AcDbEntity
8
0-2
6
DOT
62
4
100
AcDbLine
10
734.570000000000
20
361.220000000000
30
0.0
11
738.260000000000
21
364.900000000000
31
0.0
0
LINE
5
75a
100
AcDbEntity
8
0-2
6
DOT
62
4
100
AcDbLine
10
733.570000000000
20
363.050000000000
30
0.0
11
737.250000000000
21
366.730000000000
31
0.0
0
LINE
5
75b
100
AcDbEntity
8
0-2
6
DOT
62
4
100
AcDbLine
10
732.570000000000
20
364.870000000000
30
0.0
11
736.250000000000
21
368.560000000000
31
0.0
0
LINE
5
75c
100
AcDbEntity
8
0-2
6
DOT
62
4
100
AcDbLine
10
731.570000000000
20
366.700000000000
30
0.0
11
735.250000000000
21
370.380000000000
31
0.0
0
LINE
5
75d
100
AcDbEntity
8
0-2
6
DOT
62
4
100
AcDbLine
10
730.560000000000
20
368.530000000000
30
0.0
11
734.250000000000
21
372.210000000000
31
0.0
0
LINE
5
75e
100
AcDbEntity
8
0-2
6
DOT
62
4
100
AcDbLine
10
729.560000000000
20
370.350000000000
30
0.0
11
733.240000000000
21
374.030000000000
31
0.0
0
LINE
5
75f
100
AcDbEntity
8
0-2
6
DOT
62
4
100
AcDbLine
10
728.560000000000
20
372.180000000000
30
0.0
11
732.240000000000
21
375.860000000000
31
0.0
0
LINE
5
760
100
AcDbEntity
8
0-2
6
DOT
62
4
100
AcDbLine
10
727.560000000000
20
374.000000000000
30
0.0
11
731.240000000000
21
377.690000000000
31
0.0
0
LINE
5
761
100
AcDbEntity
8
0-2
6
DOT
62
4
100
AcDbLine
10
726.550000000000
20
375.830000000000
30
0.0
11
730.240000000000
21
379.510000000000
31
0.0
0
LINE
5
762
100
AcDbEntity
8
0-2
6
DOT
62
4
100
AcDbLine
10
725.550000000000
20
377.660000000000
30
0.0
11
729.230000000000
21
381.340000000000
31
0.0
0
LINE
5
763
100
AcDbEntity
8
0-2
6
DOT
62
4
100
AcDbLine
10
724.550000000000
20
379.480000000000
30
0.0
11
728.230000000000
21
383.160000000000
31
0.0
0
LINE
5
764
100
AcDbEntity
8
0-2
6
DOT
62
4
100
AcDbLine
10
723.550000000000
20
381.310000000000
30
0.0
11
727.230000000000
21
384.990000000000
31
0.0
0
LINE
5
765
100
AcDbEntity
8
0-2
6
DOT
62
4
100
AcDbLine
10
722.550000000000
20
383.130000000000
30
0.0
11
726.230000000000
21
386.820000000000
31
0.0
0
LINE
5
766
100
AcDbEntity
8
0-2
6
DOT
62
4
100
AcDbLine
10
721.540000000000
20
384.960000000000
30
0.0
11
725.230000000000
21
388.640000000000
31
0.0
0
LINE
5
767
100
AcDbEntity
8
0-2
6
DOT
62
4
100
AcDbLine
10
720.540000000000
20
386.790000000000
30
0.0
11
724.220000000000
21
390.470000000000
31
0.0
0
LINE
5
768
100
AcDbEntity
8
0-2
6
DOT
62
4
100
AcDbLine
10
719.540000000000
20
388.610000000000
30
0.0
11
723.220000000000
21
392.300000000000
31
0.0
0
LINE
5
769
100
AcDbEntity
8
0-2
6
DOT
62
4
100
AcDbLine
10
718.540000000000
20
390.440000000000
30
0.0
11
722.220000000000
21
394.120000000000
31
0.0
0
LINE
5
76a
100
AcDbEntity
8
0-2
6
DOT
62
4
100
AcDbLine
10
717.530000000000
20
392.270000000000
30
0.0
11
721.220000000000
21
395.950000000000
31
0.0
0
LINE
5
76b
100
AcDbEntity
8
0-2
6
DOT
62
4
100
AcDbLine
10
716.530000000000
20
394.090000000000
30
0.0
11
720.210000000000
21
397.770000000000
31
0.0
0
LINE
5
76c
100
AcDbEntity
8
0-2
6
DOT
62
4
100
AcDbLine
10
715.530000000000
20
395.920000000000
30
0.0
11
719.210000000000
21
399.600000000000
31
0.0
0
LINE
5
76d
100
AcDbEntity
8
0-2
6
DOT
62
4
100
AcDbLine
10
714.530000000000
20
397.740000000000
30
0.0
11
718.210000000000
21
401.430000000000
31
0.0
0
LINE
5
76e
100
AcDbEntity
8
0-2
6
DOT
62
4
100
AcDbLine
10
713.000000000000
20
399.040000000000
30
0.0
11
716.590000000000
21
402.630000000000
31
0.0
0
LINE
5
76f
100
AcDbEntity
8
0-2
6
DOT
62
4
100
AcDbLine
10
711.340000000000
20
400.210000000000
30
0.0
11
714.930000000000
21
403.800000000000
31
0.0
0
LINE
5
770
100
AcDbEntity
8
0-2
6
DOT
62
4
100
AcDbLine
10
709.680000000000
20
401.380000000000
30
0.0
11
713.270000000000
21
404.970000000000
31
0.0
0
LINE
5
771
100
AcDbEntity
8
0-2
6
DOT
62
4
100
AcDbLine
10
708.020000000000
20
402.550000000000
30
0.0
11
711.610000000000
21
406.140000000000
31
0.0
0
LINE
5
772
100
AcDbEntity
8
0-2
6
DOT
62
4
100
AcDbLine
10
706.370000000000
20
403.720000000000
30
0.0
11
709.950000000000
21
407.310000000000
31
0.0
0
LINE
5
773
100
AcDbEntity
8
0-2
6
DOT
62
4
100
AcDbLine
10
704.710000000000
20
404.890000000000
30
0.0
11
708.290000000000
21
408.480000000000
31
0.0
0
LINE
5
774
100
AcDbEntity
8
0-2
6
DOT
62
4
100
AcDbLine
10
703.050000000000
20
406.060000000000
30
0.0
11
706.640000000000
21
409.650000000000
31
0.0
0
LINE
5
775
100
AcDbEntity
8
0-2
6
DOT
62
4
100
AcDbLine
10
701.410000000000
20
407.250000000000
30
0.0
11
704.960000000000
21
410.810000000000
31
0.0
0
LINE
5
776
100
AcDbEntity
8
0-2
6
DOT
62
4
100
AcDbLine
10
710.340000000000
20
416.190000000000
30
0.0
11
711.230000000000
21
417.080000000000
31
0.0
0
LINE
5
777
100
AcDbEntity
8
0-2
6
DOT
62
4
100
AcDbLine
10
700.080000000000
20
408.750000000000
30
0.0
11
703.820000000000
21
412.490000000000
31
0.0
0
LINE
5
778
100
AcDbEntity
8
0-2
6
DOT
62
4
100
AcDbLine
10
707.310000000000
20
415.980000000000
30
0.0
11
711.890000000000
21
420.560000000000
31
0.0
0
LINE
5
779
100
AcDbEntity
8
0-2
6
DOT
62
4
100
AcDbLine
10
699.150000000000
20
410.650000000000
30
0.0
11
709.590000000000
21
421.090000000000
31
0.0
0
LINE
5
77a
100
AcDbEntity
8
0-2
6
DOT
62
4
100
AcDbLine
10
698.740000000000
20
413.070000000000
30
0.0
11
706.600000000000
21
420.930000000000
31
0.0
0
LINE
5
77b
100
AcDbEntity
8
0-2
6
DOT
62
4
100
AcDbLine
10
699.700000000000
20
416.850000000000
30
0.0
11
702.810000000000
21
419.960000000000
31
0.0
0
POLYLINE
5
77c
100
AcDbEntity
8
0-2
6
DOT
62
  4
100
AcDb2dPolyline
66
1
10
0.0
20
0.0
30
0.0
70
0
0
VERTEX
5
77d
100
AcDbEntity
8
0-2
6
DOT
62
  4
100
AcDbVertex
100
AcDb2dVertex
10
828.900000000000
20
362.060000000000
30
0.0
0
VERTEX
5
77e
100
AcDbEntity
8
0-2
6
DOT
62
  4
100
AcDbVertex
100
AcDb2dVertex
10
851.500000000000
20
362.060000000000
30
0.0
0
VERTEX
5
77f
100
AcDbEntity
8
0-2
6
DOT
62
  4
100
AcDbVertex
100
AcDb2dVertex
10
855.790000000000
20
357.770000000000
30
0.0
0
VERTEX
5
780
100
AcDbEntity
8
0-2
6
DOT
62
  4
100
AcDbVertex
100
AcDb2dVertex
10
921.330000000000
20
357.770000000000
30
0.0
0
SEQEND
5
781
100
AcDbEntity
8
0-2
0
LINE
5
782
100
AcDbEntity
8
0-2
6
DOT
62
4
100
AcDbLine
10
943.470000000000
20
398.100000000000
30
0.0
11
955.510000000000
21
406.600000000000
31
0.0
0
LINE
5
783
100
AcDbEntity
8
0-2
6
DOT
62
4
100
AcDbLine
10
921.330000000000
20
357.770000000000
30
0.0
11
943.470000000000
21
398.100000000000
31
0.0
0
LINE
5
784
100
AcDbEntity
8
0-2
6
DOT
62
4
100
AcDbLine
10
1106.300000000000
20
362.060000000000
30
0.0
11
1128.900000000000
21
362.060000000000
31
0.0
0
LINE
5
785
100
AcDbEntity
8
0-2
6
DOT
62
4
100
AcDbLine
10
1102.010000000000
20
357.770000000000
30
0.0
11
1106.300000000000
21
362.060000000000
31
0.0
0
LINE
5
786
100
AcDbEntity
8
0-2
6
DOT
62
4
100
AcDbLine
10
1036.470000000000
20
357.770000000000
30
0.0
11
1102.010000000000
21
357.770000000000
31
0.0
0
POLYLINE
5
787
100
AcDbEntity
8
0-2
6
DOT
62
  4
100
AcDb2dPolyline
66
1
10
0.0
20
0.0
30
0.0
70
0
0
VERTEX
5
788
100
AcDbEntity
8
0-2
6
DOT
62
  4
100
AcDbVertex
100
AcDb2dVertex
10
1002.350000000000
20
406.560000000000
30
0.0
0
VERTEX
5
789
100
AcDbEntity
8
0-2
6
DOT
62
  4
100
AcDbVertex
100
AcDb2dVertex
10
1014.330000000000
20
398.100000000000
30
0.0
0
VERTEX
5
78a
100
AcDbEntity
8
0-2
6
DOT
62
  4
100
AcDbVertex
100
AcDb2dVertex
10
1036.470000000000
20
357.770000000000
30
0.0
0
SEQEND
5
78b
100
AcDbEntity
8
0-2
0
POLYLINE
5
78c
100
AcDbEntity
8
0-2
6
DOT
62
  4
100
AcDb2dPolyline
66
1
10
0.0
20
0.0
30
0.0
70
0
0
VERTEX
5
78d
100
AcDbEntity
8
0-2
6
DOT
62
  4
100
AcDbVertex
100
AcDb2dVertex
10
950.920000000000
20
422.970000000000
30
0.0
0
VERTEX
5
78e
100
AcDbEntity
8
0-2
6
DOT
62
  4
100
AcDbVertex
100
AcDb2dVertex
10
948.030000000000
20
422.970000000000
30
0.0
0
VERTEX
5
78f
100
AcDbEntity
8
0-2
6
DOT
62
  4
100
AcDbVertex
100
AcDb2dVertex
10
947.920000000000
20
418.260000000000
30
0.0
0
VERTEX
5
790
100
AcDbEntity
8
0-2
6
DOT
62
  4
100
AcDbVertex
100
AcDb2dVertex
10
950.080000000000
20
417.980000000000
30
0.0
0
SEQEND
5
791
100
AcDbEntity
8
0-2
0
LINE
5
792
100
AcDbEntity
8
0-2
6
DOT
62
4
100
AcDbLine
10
920.810000000000
20
357.770000000000
30
0.0
11
921.970000000000
21
358.930000000000
31
0.0
0
LINE
5
793
100
AcDbEntity
8
0-2
6
DOT
62
4
100
AcDbLine
10
917.980000000000
20
357.770000000000
30
0.0
11
925.410000000000
21
365.190000000000
31
0.0
0
LINE
5
794
100
AcDbEntity
8
0-2
6
DOT
62
4
100
AcDbLine
10
915.150000000000
20
357.770000000000
30
0.0
11
928.850000000000
21
371.460000000000
31
0.0
0
LINE
5
795
100
AcDbEntity
8
0-2
6
DOT
62
4
100
AcDbLine
10
912.330000000000
20
357.770000000000
30
0.0
11
917.330000000000
21
362.770000000000
31
0.0
0
LINE
5
796
100
AcDbEntity
8
0-2
6
DOT
62
4
100
AcDbLine
10
919.650000000000
20
365.090000000000
30
0.0
11
932.290000000000
21
377.730000000000
31
0.0
0
LINE
5
797
100
AcDbEntity
8
0-2
6
DOT
62
4
100
AcDbLine
10
909.500000000000
20
357.770000000000
30
0.0
11
914.500000000000
21
362.770000000000
31
0.0
0
LINE
5
798
100
AcDbEntity
8
0-2
6
DOT
62
4
100
AcDbLine
10
923.090000000000
20
371.360000000000
30
0.0
11
935.730000000000
21
384.000000000000
31
0.0
0
LINE
5
799
100
AcDbEntity
8
0-2
6
DOT
62
4
100
AcDbLine
10
906.670000000000
20
357.770000000000
30
0.0
11
911.670000000000
21
362.770000000000
31
0.0
0
LINE
5
79a
100
AcDbEntity
8
0-2
6
DOT
62
4
100
AcDbLine
10
926.530000000000
20
377.630000000000
30
0.0
11
939.170000000000
21
390.270000000000
31
0.0
0
LINE
5
79b
100
AcDbEntity
8
0-2
6
DOT
62
4
100
AcDbLine
10
955.480000000000
20
406.580000000000
30
0.0
11
957.700000000000
21
408.800000000000
31
0.0
0
LINE
5
79c
100
AcDbEntity
8
0-2
6
DOT
62
4
100
AcDbLine
10
903.840000000000
20
357.770000000000
30
0.0
11
908.840000000000
21
362.770000000000
31
0.0
0
LINE
5
79d
100
AcDbEntity
8
0-2
6
DOT
62
4
100
AcDbLine
10
929.970000000000
20
383.900000000000
30
0.0
11
942.610000000000
21
396.540000000000
31
0.0
0
LINE
5
79e
100
AcDbEntity
8
0-2
6
DOT
62
4
100
AcDbLine
10
945.870000000000
20
399.790000000000
30
0.0
11
959.300000000000
21
413.220000000000
31
0.0
0
LINE
5
79f
100
AcDbEntity
8
0-2
6
DOT
62
4
100
AcDbLine
10
901.010000000000
20
357.770000000000
30
0.0
11
906.010000000000
21
362.770000000000
31
0.0
0
LINE
5
7a0
100
AcDbEntity
8
0-2
6
DOT
62
4
100
AcDbLine
10
933.410000000000
20
390.170000000000
30
0.0
11
959.120000000000
21
415.880000000000
31
0.0
0
LINE
5
7a1
100
AcDbEntity
8
0-2
6
DOT
62
4
100
AcDbLine
10
898.180000000000
20
357.770000000000
30
0.0
11
903.180000000000
21
362.770000000000
31
0.0
0
LINE
5
7a2
100
AcDbEntity
8
0-2
6
DOT
62
4
100
AcDbLine
10
936.850000000000
20
396.440000000000
30
0.0
11
947.440000000000
21
407.020000000000
31
0.0
0
LINE
5
7a3
100
AcDbEntity
8
0-2
6
DOT
62
4
100
AcDbLine
10
954.330000000000
20
413.910000000000
30
0.0
11
958.390000000000
21
417.970000000000
31
0.0
0
LINE
5
7a4
100
AcDbEntity
8
0-2
6
DOT
62
4
100
AcDbLine
10
895.360000000000
20
357.770000000000
30
0.0
11
900.360000000000
21
362.770000000000
31
0.0
0
LINE
5
7a5
100
AcDbEntity
8
0-2
6
DOT
62
4
100
AcDbLine
10
953.710000000000
20
416.120000000000
30
0.0
11
957.280000000000
21
419.690000000000
31
0.0
0
LINE
5
7a6
100
AcDbEntity
8
0-2
6
DOT
62
4
100
AcDbLine
10
892.530000000000
20
357.770000000000
30
0.0
11
897.530000000000
21
362.770000000000
31
0.0
0
LINE
5
7a7
100
AcDbEntity
8
0-2
6
DOT
62
4
100
AcDbLine
10
952.250000000000
20
417.490000000000
30
0.0
11
955.850000000000
21
421.090000000000
31
0.0
0
LINE
5
7a8
100
AcDbEntity
8
0-2
6
DOT
62
4
100
AcDbLine
10
889.700000000000
20
357.770000000000
30
0.0
11
894.700000000000
21
362.770000000000
31
0.0
0
LINE
5
7a9
100
AcDbEntity
8
0-2
6
DOT
62
4
100
AcDbLine
10
949.930000000000
20
418.000000000000
30
0.0
11
954.090000000000
21
422.160000000000
31
0.0
0
LINE
5
7aa
100
AcDbEntity
8
0-2
6
DOT
62
4
100
AcDbLine
10
886.870000000000
20
357.770000000000
30
0.0
11
891.870000000000
21
362.770000000000
31
0.0
0
LINE
5
7ab
100
AcDbEntity
8
0-2
6
DOT
62
4
100
AcDbLine
10
947.930000000000
20
418.830000000000
30
0.0
11
951.940000000000
21
422.840000000000
31
0.0
0
LINE
5
7ac
100
AcDbEntity
8
0-2
6
DOT
62
4
100
AcDbLine
10
884.040000000000
20
357.770000000000
30
0.0
11
889.040000000000
21
362.770000000000
31
0.0
0
LINE
5
7ad
100
AcDbEntity
8
0-2
6
DOT
62
4
100
AcDbLine
10
948.000000000000
20
421.720000000000
30
0.0
11
949.240000000000
21
422.970000000000
31
0.0
0
LINE
5
7ae
100
AcDbEntity
8
0-2
6
DOT
62
4
100
AcDbLine
10
881.210000000000
20
357.770000000000
30
0.0
11
886.210000000000
21
362.770000000000
31
0.0
0
LINE
5
7af
100
AcDbEntity
8
0-2
6
DOT
62
4
100
AcDbLine
10
878.380000000000
20
357.770000000000
30
0.0
11
883.380000000000
21
362.770000000000
31
0.0
0
LINE
5
7b0
100
AcDbEntity
8
0-2
6
DOT
62
4
100
AcDbLine
10
875.560000000000
20
357.770000000000
30
0.0
11
880.560000000000
21
362.770000000000
31
0.0
0
LINE
5
7b1
100
AcDbEntity
8
0-2
6
DOT
62
4
100
AcDbLine
10
872.730000000000
20
357.770000000000
30
0.0
11
877.730000000000
21
362.770000000000
31
0.0
0
LINE
5
7b2
100
AcDbEntity
8
0-2
6
DOT
62
4
100
AcDbLine
10
869.900000000000
20
357.770000000000
30
0.0
11
874.900000000000
21
362.770000000000
31
0.0
0
LINE
5
7b3
100
AcDbEntity
8
0-2
6
DOT
62
4
100
AcDbLine
10
867.070000000000
20
357.770000000000
30
0.0
11
872.070000000000
21
362.770000000000
31
0.0
0
LINE
5
7b4
100
AcDbEntity
8
0-2
6
DOT
62
4
100
AcDbLine
10
864.240000000000
20
357.770000000000
30
0.0
11
869.240000000000
21
362.770000000000
31
0.0
0
LINE
5
7b5
100
AcDbEntity
8
0-2
6
DOT
62
4
100
AcDbLine
10
861.410000000000
20
357.770000000000
30
0.0
11
866.410000000000
21
362.770000000000
31
0.0
0
LINE
5
7b6
100
AcDbEntity
8
0-2
6
DOT
62
4
100
AcDbLine
10
858.590000000000
20
357.770000000000
30
0.0
11
863.590000000000
21
362.770000000000
31
0.0
0
LINE
5
7b7
100
AcDbEntity
8
0-2
6
DOT
62
4
100
AcDbLine
10
855.770000000000
20
357.780000000000
30
0.0
11
860.760000000000
21
362.770000000000
31
0.0
0
LINE
5
7b8
100
AcDbEntity
8
0-2
6
DOT
62
4
100
AcDbLine
10
854.360000000000
20
359.200000000000
30
0.0
11
857.930000000000
21
362.770000000000
31
0.0
0
LINE
5
7b9
100
AcDbEntity
8
0-2
6
DOT
62
4
100
AcDbLine
10
852.950000000000
20
360.610000000000
30
0.0
11
856.480000000000
21
364.150000000000
31
0.0
0
LINE
5
7ba
100
AcDbEntity
8
0-2
6
DOT
62
4
100
AcDbLine
10
851.530000000000
20
362.030000000000
30
0.0
11
855.070000000000
21
365.560000000000
31
0.0
0
LINE
5
7bb
100
AcDbEntity
8
0-2
6
DOT
62
4
100
AcDbLine
10
848.740000000000
20
362.060000000000
30
0.0
11
853.650000000000
21
366.980000000000
31
0.0
0
LINE
5
7bc
100
AcDbEntity
8
0-2
6
DOT
62
4
100
AcDbLine
10
845.910000000000
20
362.060000000000
30
0.0
11
850.910000000000
21
367.060000000000
31
0.0
0
LINE
5
7bd
100
AcDbEntity
8
0-2
6
DOT
62
4
100
AcDbLine
10
843.080000000000
20
362.060000000000
30
0.0
11
848.080000000000
21
367.060000000000
31
0.0
0
LINE
5
7be
100
AcDbEntity
8
0-2
6
DOT
62
4
100
AcDbLine
10
840.250000000000
20
362.060000000000
30
0.0
11
845.250000000000
21
367.060000000000
31
0.0
0
LINE
5
7bf
100
AcDbEntity
8
0-2
6
DOT
62
4
100
AcDbLine
10
837.420000000000
20
362.060000000000
30
0.0
11
842.420000000000
21
367.060000000000
31
0.0
0
LINE
5
7c0
100
AcDbEntity
8
0-2
6
DOT
62
4
100
AcDbLine
10
834.590000000000
20
362.060000000000
30
0.0
11
839.590000000000
21
367.060000000000
31
0.0
0
LINE
5
7c1
100
AcDbEntity
8
0-2
6
DOT
62
4
100
AcDbLine
10
831.760000000000
20
362.060000000000
30
0.0
11
836.760000000000
21
367.060000000000
31
0.0
0
LINE
5
7c2
100
AcDbEntity
8
0-2
6
DOT
62
4
100
AcDbLine
10
828.940000000000
20
362.060000000000
30
0.0
11
833.940000000000
21
367.060000000000
31
0.0
0
LINE
5
7c3
100
AcDbEntity
8
0-2
6
DOT
62
4
100
AcDbLine
10
828.900000000000
20
364.850000000000
30
0.0
11
831.110000000000
21
367.060000000000
31
0.0
0
LINE
5
7c4
100
AcDbEntity
8
0-2
6
DOT
62
4
100
AcDbLine
10
828.900000000000
20
364.880000000000
30
0.0
11
831.720000000000
21
362.060000000000
31
0.0
0
LINE
5
7c5
100
AcDbEntity
8
0-2
6
DOT
62
4
100
AcDbLine
10
829.550000000000
20
367.060000000000
30
0.0
11
834.550000000000
21
362.060000000000
31
0.0
0
LINE
5
7c6
100
AcDbEntity
8
0-2
6
DOT
62
4
100
AcDbLine
10
832.380000000000
20
367.060000000000
30
0.0
11
837.380000000000
21
362.060000000000
31
0.0
0
LINE
5
7c7
100
AcDbEntity
8
0-2
6
DOT
62
4
100
AcDbLine
10
835.210000000000
20
367.060000000000
30
0.0
11
840.210000000000
21
362.060000000000
31
0.0
0
LINE
5
7c8
100
AcDbEntity
8
0-2
6
DOT
62
4
100
AcDbLine
10
838.040000000000
20
367.060000000000
30
0.0
11
843.040000000000
21
362.060000000000
31
0.0
0
LINE
5
7c9
100
AcDbEntity
8
0-2
6
DOT
62
4
100
AcDbLine
10
840.870000000000
20
367.060000000000
30
0.0
11
845.870000000000
21
362.060000000000
31
0.0
0
LINE
5
7ca
100
AcDbEntity
8
0-2
6
DOT
62
4
100
AcDbLine
10
843.690000000000
20
367.060000000000
30
0.0
11
848.690000000000
21
362.060000000000
31
0.0
0
LINE
5
7cb
100
AcDbEntity
8
0-2
6
DOT
62
4
100
AcDbLine
10
846.520000000000
20
367.060000000000
30
0.0
11
855.810000000000
21
357.770000000000
31
0.0
0
LINE
5
7cc
100
AcDbEntity
8
0-2
6
DOT
62
4
100
AcDbLine
10
849.350000000000
20
367.060000000000
30
0.0
11
858.640000000000
21
357.770000000000
31
0.0
0
LINE
5
7cd
100
AcDbEntity
8
0-2
6
DOT
62
4
100
AcDbLine
10
852.180000000000
20
367.060000000000
30
0.0
11
861.470000000000
21
357.770000000000
31
0.0
0
LINE
5
7ce
100
AcDbEntity
8
0-2
6
DOT
62
4
100
AcDbLine
10
859.300000000000
20
362.770000000000
30
0.0
11
864.300000000000
21
357.770000000000
31
0.0
0
LINE
5
7cf
100
AcDbEntity
8
0-2
6
DOT
62
4
100
AcDbLine
10
862.130000000000
20
362.770000000000
30
0.0
11
867.130000000000
21
357.770000000000
31
0.0
0
LINE
5
7d0
100
AcDbEntity
8
0-2
6
DOT
62
4
100
AcDbLine
10
864.960000000000
20
362.770000000000
30
0.0
11
869.960000000000
21
357.770000000000
31
0.0
0
LINE
5
7d1
100
AcDbEntity
8
0-2
6
DOT
62
4
100
AcDbLine
10
867.790000000000
20
362.770000000000
30
0.0
11
872.790000000000
21
357.770000000000
31
0.0
0
LINE
5
7d2
100
AcDbEntity
8
0-2
6
DOT
62
4
100
AcDbLine
10
870.610000000000
20
362.770000000000
30
0.0
11
875.610000000000
21
357.770000000000
31
0.0
0
LINE
5
7d3
100
AcDbEntity
8
0-2
6
DOT
62
4
100
AcDbLine
10
873.440000000000
20
362.770000000000
30
0.0
11
878.440000000000
21
357.770000000000
31
0.0
0
LINE
5
7d4
100
AcDbEntity
8
0-2
6
DOT
62
4
100
AcDbLine
10
876.270000000000
20
362.770000000000
30
0.0
11
881.270000000000
21
357.770000000000
31
0.0
0
LINE
5
7d5
100
AcDbEntity
8
0-2
6
DOT
62
4
100
AcDbLine
10
879.100000000000
20
362.770000000000
30
0.0
11
884.100000000000
21
357.770000000000
31
0.0
0
LINE
5
7d6
100
AcDbEntity
8
0-2
6
DOT
62
4
100
AcDbLine
10
881.930000000000
20
362.770000000000
30
0.0
11
886.930000000000
21
357.770000000000
31
0.0
0
LINE
5
7d7
100
AcDbEntity
8
0-2
6
DOT
62
4
100
AcDbLine
10
884.760000000000
20
362.770000000000
30
0.0
11
889.760000000000
21
357.770000000000
31
0.0
0
LINE
5
7d8
100
AcDbEntity
8
0-2
6
DOT
62
4
100
AcDbLine
10
887.580000000000
20
362.770000000000
30
0.0
11
892.580000000000
21
357.770000000000
31
0.0
0
LINE
5
7d9
100
AcDbEntity
8
0-2
6
DOT
62
4
100
AcDbLine
10
890.410000000000
20
362.770000000000
30
0.0
11
895.410000000000
21
357.770000000000
31
0.0
0
LINE
5
7da
100
AcDbEntity
8
0-2
6
DOT
62
4
100
AcDbLine
10
893.240000000000
20
362.770000000000
30
0.0
11
898.240000000000
21
357.770000000000
31
0.0
0
LINE
5
7db
100
AcDbEntity
8
0-2
6
DOT
62
4
100
AcDbLine
10
896.070000000000
20
362.770000000000
30
0.0
11
901.070000000000
21
357.770000000000
31
0.0
0
LINE
5
7dc
100
AcDbEntity
8
0-2
6
DOT
62
4
100
AcDbLine
10
898.900000000000
20
362.770000000000
30
0.0
11
903.900000000000
21
357.770000000000
31
0.0
0
LINE
5
7dd
100
AcDbEntity
8
0-2
6
DOT
62
4
100
AcDbLine
10
901.730000000000
20
362.770000000000
30
0.0
11
906.730000000000
21
357.770000000000
31
0.0
0
LINE
5
7de
100
AcDbEntity
8
0-2
6
DOT
62
4
100
AcDbLine
10
904.550000000000
20
362.770000000000
30
0.0
11
909.550000000000
21
357.770000000000
31
0.0
0
LINE
5
7df
100
AcDbEntity
8
0-2
6
DOT
62
4
100
AcDbLine
10
907.380000000000
20
362.770000000000
30
0.0
11
912.380000000000
21
357.770000000000
31
0.0
0
LINE
5
7e0
100
AcDbEntity
8
0-2
6
DOT
62
4
100
AcDbLine
10
910.210000000000
20
362.770000000000
30
0.0
11
915.210000000000
21
357.770000000000
31
0.0
0
LINE
5
7e1
100
AcDbEntity
8
0-2
6
DOT
62
4
100
AcDbLine
10
913.040000000000
20
362.770000000000
30
0.0
11
918.040000000000
21
357.770000000000
31
0.0
0
LINE
5
7e2
100
AcDbEntity
8
0-2
6
DOT
62
4
100
AcDbLine
10
915.870000000000
20
362.770000000000
30
0.0
11
920.870000000000
21
357.770000000000
31
0.0
0
LINE
5
7e3
100
AcDbEntity
8
0-2
6
DOT
62
4
100
AcDbLine
10
918.490000000000
20
362.980000000000
30
0.0
11
922.170000000000
21
359.290000000000
31
0.0
0
LINE
5
7e4
100
AcDbEntity
8
0-2
6
DOT
62
4
100
AcDbLine
10
919.490000000000
20
364.800000000000
30
0.0
11
923.170000000000
21
361.120000000000
31
0.0
0
LINE
5
7e5
100
AcDbEntity
8
0-2
6
DOT
62
4
100
AcDbLine
10
920.490000000000
20
366.630000000000
30
0.0
11
924.180000000000
21
362.950000000000
31
0.0
0
LINE
5
7e6
100
AcDbEntity
8
0-2
6
DOT
62
4
100
AcDbLine
10
921.500000000000
20
368.450000000000
30
0.0
11
925.180000000000
21
364.770000000000
31
0.0
0
LINE
5
7e7
100
AcDbEntity
8
0-2
6
DOT
62
4
100
AcDbLine
10
922.500000000000
20
370.280000000000
30
0.0
11
926.180000000000
21
366.600000000000
31
0.0
0
LINE
5
7e8
100
AcDbEntity
8
0-2
6
DOT
62
4
100
AcDbLine
10
923.500000000000
20
372.110000000000
30
0.0
11
927.180000000000
21
368.420000000000
31
0.0
0
LINE
5
7e9
100
AcDbEntity
8
0-2
6
DOT
62
4
100
AcDbLine
10
924.500000000000
20
373.930000000000
30
0.0
11
928.180000000000
21
370.250000000000
31
0.0
0
LINE
5
7ea
100
AcDbEntity
8
0-2
6
DOT
62
4
100
AcDbLine
10
925.500000000000
20
375.760000000000
30
0.0
11
929.190000000000
21
372.080000000000
31
0.0
0
LINE
5
7eb
100
AcDbEntity
8
0-2
6
DOT
62
4
100
AcDbLine
10
926.510000000000
20
377.590000000000
30
0.0
11
930.190000000000
21
373.900000000000
31
0.0
0
LINE
5
7ec
100
AcDbEntity
8
0-2
6
DOT
62
4
100
AcDbLine
10
927.510000000000
20
379.410000000000
30
0.0
11
931.190000000000
21
375.730000000000
31
0.0
0
LINE
5
7ed
100
AcDbEntity
8
0-2
6
DOT
62
4
100
AcDbLine
10
928.510000000000
20
381.240000000000
30
0.0
11
932.190000000000
21
377.560000000000
31
0.0
0
LINE
5
7ee
100
AcDbEntity
8
0-2
6
DOT
62
4
100
AcDbLine
10
929.510000000000
20
383.060000000000
30
0.0
11
933.200000000000
21
379.380000000000
31
0.0
0
LINE
5
7ef
100
AcDbEntity
8
0-2
6
DOT
62
4
100
AcDbLine
10
930.520000000000
20
384.890000000000
30
0.0
11
934.200000000000
21
381.210000000000
31
0.0
0
LINE
5
7f0
100
AcDbEntity
8
0-2
6
DOT
62
4
100
AcDbLine
10
931.520000000000
20
386.720000000000
30
0.0
11
935.200000000000
21
383.030000000000
31
0.0
0
LINE
5
7f1
100
AcDbEntity
8
0-2
6
DOT
62
4
100
AcDbLine
10
932.520000000000
20
388.540000000000
30
0.0
11
936.200000000000
21
384.860000000000
31
0.0
0
LINE
5
7f2
100
AcDbEntity
8
0-2
6
DOT
62
4
100
AcDbLine
10
933.520000000000
20
390.370000000000
30
0.0
11
937.210000000000
21
386.690000000000
31
0.0
0
LINE
5
7f3
100
AcDbEntity
8
0-2
6
DOT
62
4
100
AcDbLine
10
934.530000000000
20
392.190000000000
30
0.0
11
938.210000000000
21
388.510000000000
31
0.0
0
LINE
5
7f4
100
AcDbEntity
8
0-2
6
DOT
62
4
100
AcDbLine
10
935.530000000000
20
394.020000000000
30
0.0
11
939.210000000000
21
390.340000000000
31
0.0
0
LINE
5
7f5
100
AcDbEntity
8
0-2
6
DOT
62
4
100
AcDbLine
10
936.530000000000
20
395.850000000000
30
0.0
11
940.210000000000
21
392.160000000000
31
0.0
0
LINE
5
7f6
100
AcDbEntity
8
0-2
6
DOT
62
4
100
AcDbLine
10
937.530000000000
20
397.670000000000
30
0.0
11
941.210000000000
21
393.990000000000
31
0.0
0
LINE
5
7f7
100
AcDbEntity
8
0-2
6
DOT
62
4
100
AcDbLine
10
938.530000000000
20
399.500000000000
30
0.0
11
942.220000000000
21
395.820000000000
31
0.0
0
LINE
5
7f8
100
AcDbEntity
8
0-2
6
DOT
62
4
100
AcDbLine
10
939.540000000000
20
401.330000000000
30
0.0
11
943.220000000000
21
397.640000000000
31
0.0
0
LINE
5
7f9
100
AcDbEntity
8
0-2
6
DOT
62
4
100
AcDbLine
10
941.120000000000
20
402.570000000000
30
0.0
11
944.710000000000
21
398.980000000000
31
0.0
0
LINE
5
7fa
100
AcDbEntity
8
0-2
6
DOT
62
4
100
AcDbLine
10
942.780000000000
20
403.740000000000
30
0.0
11
946.370000000000
21
400.150000000000
31
0.0
0
LINE
5
7fb
100
AcDbEntity
8
0-2
6
DOT
62
4
100
AcDbLine
10
944.440000000000
20
404.910000000000
30
0.0
11
948.030000000000
21
401.320000000000
31
0.0
0
LINE
5
7fc
100
AcDbEntity
8
0-2
6
DOT
62
4
100
AcDbLine
10
946.100000000000
20
406.080000000000
30
0.0
11
949.690000000000
21
402.490000000000
31
0.0
0
LINE
5
7fd
100
AcDbEntity
8
0-2
6
DOT
62
4
100
AcDbLine
10
947.760000000000
20
407.250000000000
30
0.0
11
951.340000000000
21
403.660000000000
31
0.0
0
LINE
5
7fe
100
AcDbEntity
8
0-2
6
DOT
62
4
100
AcDbLine
10
949.410000000000
20
408.420000000000
30
0.0
11
953.000000000000
21
404.830000000000
31
0.0
0
LINE
5
7ff
100
AcDbEntity
8
0-2
6
DOT
62
4
100
AcDbLine
10
951.070000000000
20
409.590000000000
30
0.0
11
954.660000000000
21
406.000000000000
31
0.0
0
LINE
5
800
100
AcDbEntity
8
0-2
6
DOT
62
4
100
AcDbLine
10
952.730000000000
20
410.760000000000
30
0.0
11
956.280000000000
21
407.210000000000
31
0.0
0
LINE
5
801
100
AcDbEntity
8
0-2
6
DOT
62
4
100
AcDbLine
10
947.920000000000
20
418.400000000000
30
0.0
11
948.080000000000
21
418.240000000000
31
0.0
0
LINE
5
802
100
AcDbEntity
8
0-2
6
DOT
62
4
100
AcDbLine
10
953.980000000000
20
412.340000000000
30
0.0
11
957.620000000000
21
408.690000000000
31
0.0
0
LINE
5
803
100
AcDbEntity
8
0-2
6
DOT
62
4
100
AcDbLine
10
947.980000000000
20
421.160000000000
30
0.0
11
951.320000000000
21
417.830000000000
31
0.0
0
LINE
5
804
100
AcDbEntity
8
0-2
6
DOT
62
4
100
AcDbLine
10
954.210000000000
20
414.940000000000
30
0.0
11
958.640000000000
21
410.510000000000
31
0.0
0
LINE
5
805
100
AcDbEntity
8
0-2
6
DOT
62
4
100
AcDbLine
10
949.010000000000
20
422.970000000000
30
0.0
11
959.240000000000
21
412.730000000000
31
0.0
0
LINE
5
806
100
AcDbEntity
8
0-2
6
DOT
62
4
100
AcDbLine
10
951.970000000000
20
422.830000000000
30
0.0
11
959.170000000000
21
415.630000000000
31
0.0
0
POLYLINE
5
807
100
AcDbEntity
8
0-2
6
DOT
62
  4
100
AcDb2dPolyline
66
1
10
0.0
20
0.0
30
0.0
70
0
0
VERTEX
5
808
100
AcDbEntity
8
0-2
6
DOT
62
  4
100
AcDbVertex
100
AcDb2dVertex
10
1006.210000000000
20
420.910000000000
30
0.0
0
VERTEX
5
809
100
AcDbEntity
8
0-2
6
DOT
62
  4
100
AcDbVertex
100
AcDb2dVertex
10
1012.020000000000
20
421.230000000000
30
0.0
0
VERTEX
5
80a
100
AcDbEntity
8
0-2
6
DOT
62
  4
100
AcDbVertex
100
AcDb2dVertex
10
1011.080000000000
20
416.240000000000
30
0.0
0
SEQEND
5
80b
100
AcDbEntity
8
0-2
0
LINE
5
80c
100
AcDbEntity
8
0-2
6
DOT
62
4
100
AcDbLine
10
1006.400000000000
20
415.920000000000
30
0.0
11
1006.380000000000
21
415.910000000000
31
0.0
0
LINE
5
80d
100
AcDbEntity
8
0-2
6
DOT
62
4
100
AcDbLine
10
1036.020000000000
20
358.580000000000
30
0.0
11
1036.830000000000
21
357.770000000000
31
0.0
0
LINE
5
80e
100
AcDbEntity
8
0-2
6
DOT
62
4
100
AcDbLine
10
1032.580000000000
20
364.850000000000
30
0.0
11
1039.660000000000
21
357.770000000000
31
0.0
0
LINE
5
80f
100
AcDbEntity
8
0-2
6
DOT
62
4
100
AcDbLine
10
1029.140000000000
20
371.120000000000
30
0.0
11
1042.490000000000
21
357.770000000000
31
0.0
0
LINE
5
810
100
AcDbEntity
8
0-2
6
DOT
62
4
100
AcDbLine
10
1025.700000000000
20
377.390000000000
30
0.0
11
1038.340000000000
21
364.740000000000
31
0.0
0
LINE
5
811
100
AcDbEntity
8
0-2
6
DOT
62
4
100
AcDbLine
10
1040.320000000000
20
362.770000000000
30
0.0
11
1045.320000000000
21
357.770000000000
31
0.0
0
LINE
5
812
100
AcDbEntity
8
0-2
6
DOT
62
4
100
AcDbLine
10
1022.260000000000
20
383.660000000000
30
0.0
11
1034.900000000000
21
371.010000000000
31
0.0
0
LINE
5
813
100
AcDbEntity
8
0-2
6
DOT
62
4
100
AcDbLine
10
1043.150000000000
20
362.770000000000
30
0.0
11
1048.150000000000
21
357.770000000000
31
0.0
0
LINE
5
814
100
AcDbEntity
8
0-2
6
DOT
62
4
100
AcDbLine
10
1000.300000000000
20
408.450000000000
30
0.0
11
1001.790000000000
21
406.950000000000
31
0.0
0
LINE
5
815
100
AcDbEntity
8
0-2
6
DOT
62
4
100
AcDbLine
10
1018.820000000000
20
389.920000000000
30
0.0
11
1031.460000000000
21
377.280000000000
31
0.0
0
LINE
5
816
100
AcDbEntity
8
0-2
6
DOT
62
4
100
AcDbLine
10
1045.980000000000
20
362.770000000000
30
0.0
11
1050.980000000000
21
357.770000000000
31
0.0
0
LINE
5
817
100
AcDbEntity
8
0-2
6
DOT
62
4
100
AcDbLine
10
998.750000000000
20
412.820000000000
30
0.0
11
1011.400000000000
21
400.170000000000
31
0.0
0
LINE
5
818
100
AcDbEntity
8
0-2
6
DOT
62
4
100
AcDbLine
10
1015.380000000000
20
396.190000000000
30
0.0
11
1028.020000000000
21
383.550000000000
31
0.0
0
LINE
5
819
100
AcDbEntity
8
0-2
6
DOT
62
4
100
AcDbLine
10
1048.800000000000
20
362.770000000000
30
0.0
11
1053.800000000000
21
357.770000000000
31
0.0
0
LINE
5
81a
100
AcDbEntity
8
0-2
6
DOT
62
4
100
AcDbLine
10
999.070000000000
20
415.340000000000
30
0.0
11
1024.580000000000
21
389.820000000000
31
0.0
0
LINE
5
81b
100
AcDbEntity
8
0-2
6
DOT
62
4
100
AcDbLine
10
1051.630000000000
20
362.770000000000
30
0.0
11
1056.630000000000
21
357.770000000000
31
0.0
0
LINE
5
81c
100
AcDbEntity
8
0-2
6
DOT
62
4
100
AcDbLine
10
999.950000000000
20
417.280000000000
30
0.0
11
1003.760000000000
21
413.460000000000
31
0.0
0
LINE
5
81d
100
AcDbEntity
8
0-2
6
DOT
62
4
100
AcDbLine
10
1009.830000000000
20
407.400000000000
30
0.0
11
1021.140000000000
21
396.090000000000
31
0.0
0
LINE
5
81e
100
AcDbEntity
8
0-2
6
DOT
62
4
100
AcDbLine
10
1054.460000000000
20
362.770000000000
30
0.0
11
1059.460000000000
21
357.770000000000
31
0.0
0
LINE
5
81f
100
AcDbEntity
8
0-2
6
DOT
62
4
100
AcDbLine
10
1001.230000000000
20
418.830000000000
30
0.0
11
1004.770000000000
21
415.290000000000
31
0.0
0
LINE
5
820
100
AcDbEntity
8
0-2
6
DOT
62
4
100
AcDbLine
10
1057.290000000000
20
362.770000000000
30
0.0
11
1062.290000000000
21
357.770000000000
31
0.0
0
LINE
5
821
100
AcDbEntity
8
0-2
6
DOT
62
4
100
AcDbLine
10
1002.880000000000
20
420.000000000000
30
0.0
11
1006.930000000000
21
415.960000000000
31
0.0
0
LINE
5
822
100
AcDbEntity
8
0-2
6
DOT
62
4
100
AcDbLine
10
1060.120000000000
20
362.770000000000
30
0.0
11
1065.120000000000
21
357.770000000000
31
0.0
0
LINE
5
823
100
AcDbEntity
8
0-2
6
DOT
62
4
100
AcDbLine
10
1004.960000000000
20
420.760000000000
30
0.0
11
1009.580000000000
21
416.140000000000
31
0.0
0
LINE
5
824
100
AcDbEntity
8
0-2
6
DOT
62
4
100
AcDbLine
10
1062.950000000000
20
362.770000000000
30
0.0
11
1067.950000000000
21
357.770000000000
31
0.0
0
LINE
5
825
100
AcDbEntity
8
0-2
6
DOT
62
4
100
AcDbLine
10
1007.560000000000
20
420.980000000000
30
0.0
11
1011.270000000000
21
417.270000000000
31
0.0
0
LINE
5
826
100
AcDbEntity
8
0-2
6
DOT
62
4
100
AcDbLine
10
1065.780000000000
20
362.770000000000
30
0.0
11
1070.780000000000
21
357.770000000000
31
0.0
0
LINE
5
827
100
AcDbEntity
8
0-2
6
DOT
62
4
100
AcDbLine
10
1010.240000000000
20
421.130000000000
30
0.0
11
1011.720000000000
21
419.650000000000
31
0.0
0
LINE
5
828
100
AcDbEntity
8
0-2
6
DOT
62
4
100
AcDbLine
10
1068.600000000000
20
362.770000000000
30
0.0
11
1073.600000000000
21
357.770000000000
31
0.0
0
LINE
5
829
100
AcDbEntity
8
0-2
6
DOT
62
4
100
AcDbLine
10
1071.430000000000
20
362.770000000000
30
0.0
11
1076.430000000000
21
357.770000000000
31
0.0
0
LINE
5
82a
100
AcDbEntity
8
0-2
6
DOT
62
4
100
AcDbLine
10
1074.260000000000
20
362.770000000000
30
0.0
11
1079.260000000000
21
357.770000000000
31
0.0
0
LINE
5
82b
100
AcDbEntity
8
0-2
6
DOT
62
4
100
AcDbLine
10
1077.090000000000
20
362.770000000000
30
0.0
11
1082.090000000000
21
357.770000000000
31
0.0
0
LINE
5
82c
100
AcDbEntity
8
0-2
6
DOT
62
4
100
AcDbLine
10
1079.920000000000
20
362.770000000000
30
0.0
11
1084.920000000000
21
357.770000000000
31
0.0
0
LINE
5
82d
100
AcDbEntity
8
0-2
6
DOT
62
4
100
AcDbLine
10
1082.750000000000
20
362.770000000000
30
0.0
11
1087.750000000000
21
357.770000000000
31
0.0
0
LINE
5
82e
100
AcDbEntity
8
0-2
6
DOT
62
4
100
AcDbLine
10
1085.570000000000
20
362.770000000000
30
0.0
11
1090.570000000000
21
357.770000000000
31
0.0
0
LINE
5
82f
100
AcDbEntity
8
0-2
6
DOT
62
4
100
AcDbLine
10
1088.400000000000
20
362.770000000000
30
0.0
11
1093.400000000000
21
357.770000000000
31
0.0
0
LINE
5
830
100
AcDbEntity
8
0-2
6
DOT
62
4
100
AcDbLine
10
1091.230000000000
20
362.770000000000
30
0.0
11
1096.230000000000
21
357.770000000000
31
0.0
0
LINE
5
831
100
AcDbEntity
8
0-2
6
DOT
62
4
100
AcDbLine
10
1094.060000000000
20
362.770000000000
30
0.0
11
1099.060000000000
21
357.770000000000
31
0.0
0
LINE
5
832
100
AcDbEntity
8
0-2
6
DOT
62
4
100
AcDbLine
10
1096.890000000000
20
362.770000000000
30
0.0
11
1101.890000000000
21
357.770000000000
31
0.0
0
LINE
5
833
100
AcDbEntity
8
0-2
6
DOT
62
4
100
AcDbLine
10
1099.720000000000
20
362.770000000000
30
0.0
11
1103.360000000000
21
359.120000000000
31
0.0
0
LINE
5
834
100
AcDbEntity
8
0-2
6
DOT
62
4
100
AcDbLine
10
1101.240000000000
20
364.070000000000
30
0.0
11
1104.780000000000
21
360.530000000000
31
0.0
0
LINE
5
835
100
AcDbEntity
8
0-2
6
DOT
62
4
100
AcDbLine
10
1102.660000000000
20
365.480000000000
30
0.0
11
1106.190000000000
21
361.950000000000
31
0.0
0
LINE
5
836
100
AcDbEntity
8
0-2
6
DOT
62
4
100
AcDbLine
10
1104.070000000000
20
366.900000000000
30
0.0
11
1108.910000000000
21
362.060000000000
31
0.0
0
LINE
5
837
100
AcDbEntity
8
0-2
6
DOT
62
4
100
AcDbLine
10
1106.740000000000
20
367.060000000000
30
0.0
11
1111.740000000000
21
362.060000000000
31
0.0
0
LINE
5
838
100
AcDbEntity
8
0-2
6
DOT
62
4
100
AcDbLine
10
1109.570000000000
20
367.060000000000
30
0.0
11
1114.570000000000
21
362.060000000000
31
0.0
0
LINE
5
839
100
AcDbEntity
8
0-2
6
DOT
62
4
100
AcDbLine
10
1112.400000000000
20
367.060000000000
30
0.0
11
1117.400000000000
21
362.060000000000
31
0.0
0
LINE
5
83a
100
AcDbEntity
8
0-2
6
DOT
62
4
100
AcDbLine
10
1115.220000000000
20
367.060000000000
30
0.0
11
1120.220000000000
21
362.060000000000
31
0.0
0
LINE
5
83b
100
AcDbEntity
8
0-2
6
DOT
62
4
100
AcDbLine
10
1118.050000000000
20
367.060000000000
30
0.0
11
1123.050000000000
21
362.060000000000
31
0.0
0
LINE
5
83c
100
AcDbEntity
8
0-2
6
DOT
62
4
100
AcDbLine
10
1120.880000000000
20
367.060000000000
30
0.0
11
1125.880000000000
21
362.060000000000
31
0.0
0
LINE
5
83d
100
AcDbEntity
8
0-2
6
DOT
62
4
100
AcDbLine
10
1123.710000000000
20
367.060000000000
30
0.0
11
1128.710000000000
21
362.060000000000
31
0.0
0
LINE
5
83e
100
AcDbEntity
8
0-2
6
DOT
62
4
100
AcDbLine
10
1126.540000000000
20
367.060000000000
30
0.0
11
1128.900000000000
21
364.700000000000
31
0.0
0
LINE
5
83f
100
AcDbEntity
8
0-2
6
DOT
62
4
100
AcDbLine
10
1128.750000000000
20
362.060000000000
30
0.0
11
1128.900000000000
21
362.210000000000
31
0.0
0
LINE
5
840
100
AcDbEntity
8
0-2
6
DOT
62
4
100
AcDbLine
10
1125.920000000000
20
362.060000000000
30
0.0
11
1128.900000000000
21
365.040000000000
31
0.0
0
LINE
5
841
100
AcDbEntity
8
0-2
6
DOT
62
4
100
AcDbLine
10
1123.090000000000
20
362.060000000000
30
0.0
11
1128.090000000000
21
367.060000000000
31
0.0
0
LINE
5
842
100
AcDbEntity
8
0-2
6
DOT
62
4
100
AcDbLine
10
1120.260000000000
20
362.060000000000
30
0.0
11
1125.260000000000
21
367.060000000000
31
0.0
0
LINE
5
843
100
AcDbEntity
8
0-2
6
DOT
62
4
100
AcDbLine
10
1117.440000000000
20
362.060000000000
30
0.0
11
1122.440000000000
21
367.060000000000
31
0.0
0
LINE
5
844
100
AcDbEntity
8
0-2
6
DOT
62
4
100
AcDbLine
10
1114.610000000000
20
362.060000000000
30
0.0
11
1119.610000000000
21
367.060000000000
31
0.0
0
LINE
5
845
100
AcDbEntity
8
0-2
6
DOT
62
4
100
AcDbLine
10
1111.780000000000
20
362.060000000000
30
0.0
11
1116.780000000000
21
367.060000000000
31
0.0
0
LINE
5
846
100
AcDbEntity
8
0-2
6
DOT
62
4
100
AcDbLine
10
1108.950000000000
20
362.060000000000
30
0.0
11
1113.950000000000
21
367.060000000000
31
0.0
0
LINE
5
847
100
AcDbEntity
8
0-2
6
DOT
62
4
100
AcDbLine
10
1101.830000000000
20
357.770000000000
30
0.0
11
1111.120000000000
21
367.060000000000
31
0.0
0
LINE
5
848
100
AcDbEntity
8
0-2
6
DOT
62
4
100
AcDbLine
10
1099.000000000000
20
357.770000000000
30
0.0
11
1108.290000000000
21
367.060000000000
31
0.0
0
LINE
5
849
100
AcDbEntity
8
0-2
6
DOT
62
4
100
AcDbLine
10
1096.170000000000
20
357.770000000000
30
0.0
11
1105.470000000000
21
367.060000000000
31
0.0
0
LINE
5
84a
100
AcDbEntity
8
0-2
6
DOT
62
4
100
AcDbLine
10
1093.350000000000
20
357.770000000000
30
0.0
11
1098.350000000000
21
362.770000000000
31
0.0
0
LINE
5
84b
100
AcDbEntity
8
0-2
6
DOT
62
4
100
AcDbLine
10
1090.520000000000
20
357.770000000000
30
0.0
11
1095.520000000000
21
362.770000000000
31
0.0
0
LINE
5
84c
100
AcDbEntity
8
0-2
6
DOT
62
4
100
AcDbLine
10
1087.690000000000
20
357.770000000000
30
0.0
11
1092.690000000000
21
362.770000000000
31
0.0
0
LINE
5
84d
100
AcDbEntity
8
0-2
6
DOT
62
4
100
AcDbLine
10
1084.860000000000
20
357.770000000000
30
0.0
11
1089.860000000000
21
362.770000000000
31
0.0
0
LINE
5
84e
100
AcDbEntity
8
0-2
6
DOT
62
4
100
AcDbLine
10
1082.030000000000
20
357.770000000000
30
0.0
11
1087.030000000000
21
362.770000000000
31
0.0
0
LINE
5
84f
100
AcDbEntity
8
0-2
6
DOT
62
4
100
AcDbLine
10
1079.200000000000
20
357.770000000000
30
0.0
11
1084.200000000000
21
362.770000000000
31
0.0
0
LINE
5
850
100
AcDbEntity
8
0-2
6
DOT
62
4
100
AcDbLine
10
1076.370000000000
20
357.770000000000
30
0.0
11
1081.370000000000
21
362.770000000000
31
0.0
0
LINE
5
851
100
AcDbEntity
8
0-2
6
DOT
62
4
100
AcDbLine
10
1073.550000000000
20
357.770000000000
30
0.0
11
1078.550000000000
21
362.770000000000
31
0.0
0
LINE
5
852
100
AcDbEntity
8
0-2
6
DOT
62
4
100
AcDbLine
10
1070.720000000000
20
357.770000000000
30
0.0
11
1075.720000000000
21
362.770000000000
31
0.0
0
LINE
5
853
100
AcDbEntity
8
0-2
6
DOT
62
4
100
AcDbLine
10
1067.890000000000
20
357.770000000000
30
0.0
11
1072.890000000000
21
362.770000000000
31
0.0
0
LINE
5
854
100
AcDbEntity
8
0-2
6
DOT
62
4
100
AcDbLine
10
1065.060000000000
20
357.770000000000
30
0.0
11
1070.060000000000
21
362.770000000000
31
0.0
0
LINE
5
855
100
AcDbEntity
8
0-2
6
DOT
62
4
100
AcDbLine
10
1062.230000000000
20
357.770000000000
30
0.0
11
1067.230000000000
21
362.770000000000
31
0.0
0
LINE
5
856
100
AcDbEntity
8
0-2
6
DOT
62
4
100
AcDbLine
10
1059.400000000000
20
357.770000000000
30
0.0
11
1064.400000000000
21
362.770000000000
31
0.0
0
LINE
5
857
100
AcDbEntity
8
0-2
6
DOT
62
4
100
AcDbLine
10
1056.580000000000
20
357.770000000000
30
0.0
11
1061.580000000000
21
362.770000000000
31
0.0
0
LINE
5
858
100
AcDbEntity
8
0-2
6
DOT
62
4
100
AcDbLine
10
1053.750000000000
20
357.770000000000
30
0.0
11
1058.750000000000
21
362.770000000000
31
0.0
0
LINE
5
859
100
AcDbEntity
8
0-2
6
DOT
62
4
100
AcDbLine
10
1050.920000000000
20
357.770000000000
30
0.0
11
1055.920000000000
21
362.770000000000
31
0.0
0
LINE
5
85a
100
AcDbEntity
8
0-2
6
DOT
62
4
100
AcDbLine
10
1048.090000000000
20
357.770000000000
30
0.0
11
1053.090000000000
21
362.770000000000
31
0.0
0
LINE
5
85b
100
AcDbEntity
8
0-2
6
DOT
62
4
100
AcDbLine
10
1045.260000000000
20
357.770000000000
30
0.0
11
1050.260000000000
21
362.770000000000
31
0.0
0
LINE
5
85c
100
AcDbEntity
8
0-2
6
DOT
62
4
100
AcDbLine
10
1042.430000000000
20
357.770000000000
30
0.0
11
1047.430000000000
21
362.770000000000
31
0.0
0
LINE
5
85d
100
AcDbEntity
8
0-2
6
DOT
62
4
100
AcDbLine
10
1039.600000000000
20
357.770000000000
30
0.0
11
1044.600000000000
21
362.770000000000
31
0.0
0
LINE
5
85e
100
AcDbEntity
8
0-2
6
DOT
62
4
100
AcDbLine
10
1036.780000000000
20
357.770000000000
30
0.0
11
1041.780000000000
21
362.770000000000
31
0.0
0
LINE
5
85f
100
AcDbEntity
8
0-2
6
DOT
62
4
100
AcDbLine
10
1035.570000000000
20
359.390000000000
30
0.0
11
1039.260000000000
21
363.080000000000
31
0.0
0
LINE
5
860
100
AcDbEntity
8
0-2
6
DOT
62
4
100
AcDbLine
10
1034.570000000000
20
361.220000000000
30
0.0
11
1038.260000000000
21
364.900000000000
31
0.0
0
LINE
5
861
100
AcDbEntity
8
0-2
6
DOT
62
4
100
AcDbLine
10
1033.570000000000
20
363.050000000000
30
0.0
11
1037.250000000000
21
366.730000000000
31
0.0
0
LINE
5
862
100
AcDbEntity
8
0-2
6
DOT
62
4
100
AcDbLine
10
1032.570000000000
20
364.870000000000
30
0.0
11
1036.250000000000
21
368.560000000000
31
0.0
0
LINE
5
863
100
AcDbEntity
8
0-2
6
DOT
62
4
100
AcDbLine
10
1031.570000000000
20
366.700000000000
30
0.0
11
1035.250000000000
21
370.380000000000
31
0.0
0
LINE
5
864
100
AcDbEntity
8
0-2
6
DOT
62
4
100
AcDbLine
10
1030.560000000000
20
368.530000000000
30
0.0
11
1034.250000000000
21
372.210000000000
31
0.0
0
LINE
5
865
100
AcDbEntity
8
0-2
6
DOT
62
4
100
AcDbLine
10
1029.560000000000
20
370.350000000000
30
0.0
11
1033.240000000000
21
374.030000000000
31
0.0
0
LINE
5
866
100
AcDbEntity
8
0-2
6
DOT
62
4
100
AcDbLine
10
1028.560000000000
20
372.180000000000
30
0.0
11
1032.240000000000
21
375.860000000000
31
0.0
0
LINE
5
867
100
AcDbEntity
8
0-2
6
DOT
62
4
100
AcDbLine
10
1027.560000000000
20
374.000000000000
30
0.0
11
1031.240000000000
21
377.690000000000
31
0.0
0
LINE
5
868
100
AcDbEntity
8
0-2
6
DOT
62
4
100
AcDbLine
10
1026.550000000000
20
375.830000000000
30
0.0
11
1030.240000000000
21
379.510000000000
31
0.0
0
LINE
5
869
100
AcDbEntity
8
0-2
6
DOT
62
4
100
AcDbLine
10
1025.550000000000
20
377.660000000000
30
0.0
11
1029.230000000000
21
381.340000000000
31
0.0
0
LINE
5
86a
100
AcDbEntity
8
0-2
6
DOT
62
4
100
AcDbLine
10
1024.550000000000
20
379.480000000000
30
0.0
11
1028.230000000000
21
383.160000000000
31
0.0
0
LINE
5
86b
100
AcDbEntity
8
0-2
6
DOT
62
4
100
AcDbLine
10
1023.550000000000
20
381.310000000000
30
0.0
11
1027.230000000000
21
384.990000000000
31
0.0
0
LINE
5
86c
100
AcDbEntity
8
0-2
6
DOT
62
4
100
AcDbLine
10
1022.550000000000
20
383.130000000000
30
0.0
11
1026.230000000000
21
386.820000000000
31
0.0
0
LINE
5
86d
100
AcDbEntity
8
0-2
6
DOT
62
4
100
AcDbLine
10
1021.540000000000
20
384.960000000000
30
0.0
11
1025.230000000000
21
388.640000000000
31
0.0
0
LINE
5
86e
100
AcDbEntity
8
0-2
6
DOT
62
4
100
AcDbLine
10
1020.540000000000
20
386.790000000000
30
0.0
11
1024.220000000000
21
390.470000000000
31
0.0
0
LINE
5
86f
100
AcDbEntity
8
0-2
6
DOT
62
4
100
AcDbLine
10
1019.540000000000
20
388.610000000000
30
0.0
11
1023.220000000000
21
392.300000000000
31
0.0
0
LINE
5
870
100
AcDbEntity
8
0-2
6
DOT
62
4
100
AcDbLine
10
1018.540000000000
20
390.440000000000
30
0.0
11
1022.220000000000
21
394.120000000000
31
0.0
0
LINE
5
871
100
AcDbEntity
8
0-2
6
DOT
62
4
100
AcDbLine
10
1017.530000000000
20
392.270000000000
30
0.0
11
1021.220000000000
21
395.950000000000
31
0.0
0
LINE
5
872
100
AcDbEntity
8
0-2
6
DOT
62
4
100
AcDbLine
10
1016.530000000000
20
394.090000000000
30
0.0
11
1020.210000000000
21
397.770000000000
31
0.0
0
LINE
5
873
100
AcDbEntity
8
0-2
6
DOT
62
4
100
AcDbLine
10
1015.530000000000
20
395.920000000000
30
0.0
11
1019.210000000000
21
399.600000000000
31
0.0
0
LINE
5
874
100
AcDbEntity
8
0-2
6
DOT
62
4
100
AcDbLine
10
1014.530000000000
20
397.740000000000
30
0.0
11
1018.210000000000
21
401.430000000000
31
0.0
0
LINE
5
875
100
AcDbEntity
8
0-2
6
DOT
62
4
100
AcDbLine
10
1013.000000000000
20
399.040000000000
30
0.0
11
1016.590000000000
21
402.630000000000
31
0.0
0
LINE
5
876
100
AcDbEntity
8
0-2
6
DOT
62
4
100
AcDbLine
10
1011.340000000000
20
400.210000000000
30
0.0
11
1014.930000000000
21
403.800000000000
31
0.0
0
LINE
5
877
100
AcDbEntity
8
0-2
6
DOT
62
4
100
AcDbLine
10
1009.680000000000
20
401.380000000000
30
0.0
11
1013.270000000000
21
404.970000000000
31
0.0
0
LINE
5
878
100
AcDbEntity
8
0-2
6
DOT
62
4
100
AcDbLine
10
1008.020000000000
20
402.550000000000
30
0.0
11
1011.610000000000
21
406.140000000000
31
0.0
0
LINE
5
879
100
AcDbEntity
8
0-2
6
DOT
62
4
100
AcDbLine
10
1006.370000000000
20
403.720000000000
30
0.0
11
1009.950000000000
21
407.310000000000
31
0.0
0
LINE
5
87a
100
AcDbEntity
8
0-2
6
DOT
62
4
100
AcDbLine
10
1004.710000000000
20
404.890000000000
30
0.0
11
1008.290000000000
21
408.480000000000
31
0.0
0
LINE
5
87b
100
AcDbEntity
8
0-2
6
DOT
62
4
100
AcDbLine
10
1003.050000000000
20
406.060000000000
30
0.0
11
1006.640000000000
21
409.650000000000
31
0.0
0
LINE
5
87c
100
AcDbEntity
8
0-2
6
DOT
62
4
100
AcDbLine
10
1001.410000000000
20
407.250000000000
30
0.0
11
1004.960000000000
21
410.810000000000
31
0.0
0
LINE
5
87d
100
AcDbEntity
8
0-2
6
DOT
62
4
100
AcDbLine
10
1010.340000000000
20
416.190000000000
30
0.0
11
1011.230000000000
21
417.080000000000
31
0.0
0
LINE
5
87e
100
AcDbEntity
8
0-2
6
DOT
62
4
100
AcDbLine
10
1000.080000000000
20
408.750000000000
30
0.0
11
1003.820000000000
21
412.490000000000
31
0.0
0
LINE
5
87f
100
AcDbEntity
8
0-2
6
DOT
62
4
100
AcDbLine
10
1007.310000000000
20
415.980000000000
30
0.0
11
1011.890000000000
21
420.560000000000
31
0.0
0
LINE
5
880
100
AcDbEntity
8
0-2
6
DOT
62
4
100
AcDbLine
10
999.150000000000
20
410.650000000000
30
0.0
11
1009.590000000000
21
421.090000000000
31
0.0
0
LINE
5
881
100
AcDbEntity
8
0-2
6
DOT
62
4
100
AcDbLine
10
998.740000000000
20
413.070000000000
30
0.0
11
1006.600000000000
21
420.930000000000
31
0.0
0
LINE
5
882
100
AcDbEntity
8
0-2
6
DOT
62
4
100
AcDbLine
10
999.700000000000
20
416.850000000000
30
0.0
11
1002.810000000000
21
419.960000000000
31
0.0
0
POLYLINE
5
883
100
AcDbEntity
8
0-2
6
DOT
62
  4
100
AcDb2dPolyline
66
1
10
0.0
20
0.0
30
0.0
70
0
0
VERTEX
5
884
100
AcDbEntity
8
0-2
6
DOT
62
  4
100
AcDbVertex
100
AcDb2dVertex
10
1128.900000000000
20
362.060000000000
30
0.0
0
VERTEX
5
885
100
AcDbEntity
8
0-2
6
DOT
62
  4
100
AcDbVertex
100
AcDb2dVertex
10
1151.500000000000
20
362.060000000000
30
0.0
0
VERTEX
5
886
100
AcDbEntity
8
0-2
6
DOT
62
  4
100
AcDbVertex
100
AcDb2dVertex
10
1155.790000000000
20
357.770000000000
30
0.0
0
VERTEX
5
887
100
AcDbEntity
8
0-2
6
DOT
62
  4
100
AcDbVertex
100
AcDb2dVertex
10
1221.330000000000
20
357.770000000000
30
0.0
0
SEQEND
5
888
100
AcDbEntity
8
0-2
0
LINE
5
889
100
AcDbEntity
8
0-2
6
DOT
62
4
100
AcDbLine
10
1243.470000000000
20
398.100000000000
30
0.0
11
1255.510000000000
21
406.600000000000
31
0.0
0
LINE
5
88a
100
AcDbEntity
8
0-2
6
DOT
62
4
100
AcDbLine
10
1221.330000000000
20
357.770000000000
30
0.0
11
1243.470000000000
21
398.100000000000
31
0.0
0
LINE
5
88b
100
AcDbEntity
8
0-2
6
DOT
62
4
100
AcDbLine
10
1406.300000000000
20
362.060000000000
30
0.0
11
1428.900000000000
21
362.060000000000
31
0.0
0
LINE
5
88c
100
AcDbEntity
8
0-2
6
DOT
62
4
100
AcDbLine
10
1402.010000000000
20
357.770000000000
30
0.0
11
1406.300000000000
21
362.060000000000
31
0.0
0
LINE
5
88d
100
AcDbEntity
8
0-2
6
DOT
62
4
100
AcDbLine
10
1336.470000000000
20
357.770000000000
30
0.0
11
1402.010000000000
21
357.770000000000
31
0.0
0
POLYLINE
5
88e
100
AcDbEntity
8
0-2
6
DOT
62
  4
100
AcDb2dPolyline
66
1
10
0.0
20
0.0
30
0.0
70
0
0
VERTEX
5
88f
100
AcDbEntity
8
0-2
6
DOT
62
  4
100
AcDbVertex
100
AcDb2dVertex
10
1302.350000000000
20
406.560000000000
30
0.0
0
VERTEX
5
890
100
AcDbEntity
8
0-2
6
DOT
62
  4
100
AcDbVertex
100
AcDb2dVertex
10
1314.330000000000
20
398.100000000000
30
0.0
0
VERTEX
5
891
100
AcDbEntity
8
0-2
6
DOT
62
  4
100
AcDbVertex
100
AcDb2dVertex
10
1336.470000000000
20
357.770000000000
30
0.0
0
SEQEND
5
892
100
AcDbEntity
8
0-2
0
POLYLINE
5
893
100
AcDbEntity
8
0-2
6
DOT
62
  4
100
AcDb2dPolyline
66
1
10
0.0
20
0.0
30
0.0
70
0
0
VERTEX
5
894
100
AcDbEntity
8
0-2
6
DOT
62
  4
100
AcDbVertex
100
AcDb2dVertex
10
1250.920000000000
20
422.970000000000
30
0.0
0
VERTEX
5
895
100
AcDbEntity
8
0-2
6
DOT
62
  4
100
AcDbVertex
100
AcDb2dVertex
10
1248.030000000000
20
422.970000000000
30
0.0
0
VERTEX
5
896
100
AcDbEntity
8
0-2
6
DOT
62
  4
100
AcDbVertex
100
AcDb2dVertex
10
1247.920000000000
20
418.260000000000
30
0.0
0
VERTEX
5
897
100
AcDbEntity
8
0-2
6
DOT
62
  4
100
AcDbVertex
100
AcDb2dVertex
10
1250.080000000000
20
417.980000000000
30
0.0
0
SEQEND
5
898
100
AcDbEntity
8
0-2
0
LINE
5
899
100
AcDbEntity
8
0-2
6
DOT
62
4
100
AcDbLine
10
1220.810000000000
20
357.770000000000
30
0.0
11
1221.970000000000
21
358.930000000000
31
0.0
0
LINE
5
89a
100
AcDbEntity
8
0-2
6
DOT
62
4
100
AcDbLine
10
1217.980000000000
20
357.770000000000
30
0.0
11
1225.410000000000
21
365.190000000000
31
0.0
0
LINE
5
89b
100
AcDbEntity
8
0-2
6
DOT
62
4
100
AcDbLine
10
1215.150000000000
20
357.770000000000
30
0.0
11
1228.850000000000
21
371.460000000000
31
0.0
0
LINE
5
89c
100
AcDbEntity
8
0-2
6
DOT
62
4
100
AcDbLine
10
1212.330000000000
20
357.770000000000
30
0.0
11
1217.330000000000
21
362.770000000000
31
0.0
0
LINE
5
89d
100
AcDbEntity
8
0-2
6
DOT
62
4
100
AcDbLine
10
1219.650000000000
20
365.090000000000
30
0.0
11
1232.290000000000
21
377.730000000000
31
0.0
0
LINE
5
89e
100
AcDbEntity
8
0-2
6
DOT
62
4
100
AcDbLine
10
1209.500000000000
20
357.770000000000
30
0.0
11
1214.500000000000
21
362.770000000000
31
0.0
0
LINE
5
89f
100
AcDbEntity
8
0-2
6
DOT
62
4
100
AcDbLine
10
1223.090000000000
20
371.360000000000
30
0.0
11
1235.730000000000
21
384.000000000000
31
0.0
0
LINE
5
8a0
100
AcDbEntity
8
0-2
6
DOT
62
4
100
AcDbLine
10
1206.670000000000
20
357.770000000000
30
0.0
11
1211.670000000000
21
362.770000000000
31
0.0
0
LINE
5
8a1
100
AcDbEntity
8
0-2
6
DOT
62
4
100
AcDbLine
10
1226.530000000000
20
377.630000000000
30
0.0
11
1239.170000000000
21
390.270000000000
31
0.0
0
LINE
5
8a2
100
AcDbEntity
8
0-2
6
DOT
62
4
100
AcDbLine
10
1255.480000000000
20
406.580000000000
30
0.0
11
1257.700000000000
21
408.800000000000
31
0.0
0
LINE
5
8a3
100
AcDbEntity
8
0-2
6
DOT
62
4
100
AcDbLine
10
1203.840000000000
20
357.770000000000
30
0.0
11
1208.840000000000
21
362.770000000000
31
0.0
0
LINE
5
8a4
100
AcDbEntity
8
0-2
6
DOT
62
4
100
AcDbLine
10
1229.970000000000
20
383.900000000000
30
0.0
11
1242.610000000000
21
396.540000000000
31
0.0
0
LINE
5
8a5
100
AcDbEntity
8
0-2
6
DOT
62
4
100
AcDbLine
10
1245.870000000000
20
399.790000000000
30
0.0
11
1259.300000000000
21
413.220000000000
31
0.0
0
LINE
5
8a6
100
AcDbEntity
8
0-2
6
DOT
62
4
100
AcDbLine
10
1201.010000000000
20
357.770000000000
30
0.0
11
1206.010000000000
21
362.770000000000
31
0.0
0
LINE
5
8a7
100
AcDbEntity
8
0-2
6
DOT
62
4
100
AcDbLine
10
1233.410000000000
20
390.170000000000
30
0.0
11
1259.120000000000
21
415.880000000000
31
0.0
0
LINE
5
8a8
100
AcDbEntity
8
0-2
6
DOT
62
4
100
AcDbLine
10
1198.180000000000
20
357.770000000000
30
0.0
11
1203.180000000000
21
362.770000000000
31
0.0
0
LINE
5
8a9
100
AcDbEntity
8
0-2
6
DOT
62
4
100
AcDbLine
10
1236.850000000000
20
396.440000000000
30
0.0
11
1247.440000000000
21
407.020000000000
31
0.0
0
LINE
5
8aa
100
AcDbEntity
8
0-2
6
DOT
62
4
100
AcDbLine
10
1254.330000000000
20
413.910000000000
30
0.0
11
1258.390000000000
21
417.970000000000
31
0.0
0
LINE
5
8ab
100
AcDbEntity
8
0-2
6
DOT
62
4
100
AcDbLine
10
1195.360000000000
20
357.770000000000
30
0.0
11
1200.360000000000
21
362.770000000000
31
0.0
0
LINE
5
8ac
100
AcDbEntity
8
0-2
6
DOT
62
4
100
AcDbLine
10
1253.710000000000
20
416.120000000000
30
0.0
11
1257.280000000000
21
419.690000000000
31
0.0
0
LINE
5
8ad
100
AcDbEntity
8
0-2
6
DOT
62
4
100
AcDbLine
10
1192.530000000000
20
357.770000000000
30
0.0
11
1197.530000000000
21
362.770000000000
31
0.0
0
LINE
5
8ae
100
AcDbEntity
8
0-2
6
DOT
62
4
100
AcDbLine
10
1252.250000000000
20
417.490000000000
30
0.0
11
1255.850000000000
21
421.090000000000
31
0.0
0
LINE
5
8af
100
AcDbEntity
8
0-2
6
DOT
62
4
100
AcDbLine
10
1189.700000000000
20
357.770000000000
30
0.0
11
1194.700000000000
21
362.770000000000
31
0.0
0
LINE
5
8b0
100
AcDbEntity
8
0-2
6
DOT
62
4
100
AcDbLine
10
1249.930000000000
20
418.000000000000
30
0.0
11
1254.090000000000
21
422.160000000000
31
0.0
0
LINE
5
8b1
100
AcDbEntity
8
0-2
6
DOT
62
4
100
AcDbLine
10
1186.870000000000
20
357.770000000000
30
0.0
11
1191.870000000000
21
362.770000000000
31
0.0
0
LINE
5
8b2
100
AcDbEntity
8
0-2
6
DOT
62
4
100
AcDbLine
10
1247.930000000000
20
418.830000000000
30
0.0
11
1251.940000000000
21
422.840000000000
31
0.0
0
LINE
5
8b3
100
AcDbEntity
8
0-2
6
DOT
62
4
100
AcDbLine
10
1184.040000000000
20
357.770000000000
30
0.0
11
1189.040000000000
21
362.770000000000
31
0.0
0
LINE
5
8b4
100
AcDbEntity
8
0-2
6
DOT
62
4
100
AcDbLine
10
1248.000000000000
20
421.720000000000
30
0.0
11
1249.240000000000
21
422.970000000000
31
0.0
0
LINE
5
8b5
100
AcDbEntity
8
0-2
6
DOT
62
4
100
AcDbLine
10
1181.210000000000
20
357.770000000000
30
0.0
11
1186.210000000000
21
362.770000000000
31
0.0
0
LINE
5
8b6
100
AcDbEntity
8
0-2
6
DOT
62
4
100
AcDbLine
10
1178.380000000000
20
357.770000000000
30
0.0
11
1183.380000000000
21
362.770000000000
31
0.0
0
LINE
5
8b7
100
AcDbEntity
8
0-2
6
DOT
62
4
100
AcDbLine
10
1175.560000000000
20
357.770000000000
30
0.0
11
1180.560000000000
21
362.770000000000
31
0.0
0
LINE
5
8b8
100
AcDbEntity
8
0-2
6
DOT
62
4
100
AcDbLine
10
1172.730000000000
20
357.770000000000
30
0.0
11
1177.730000000000
21
362.770000000000
31
0.0
0
LINE
5
8b9
100
AcDbEntity
8
0-2
6
DOT
62
4
100
AcDbLine
10
1169.900000000000
20
357.770000000000
30
0.0
11
1174.900000000000
21
362.770000000000
31
0.0
0
LINE
5
8ba
100
AcDbEntity
8
0-2
6
DOT
62
4
100
AcDbLine
10
1167.070000000000
20
357.770000000000
30
0.0
11
1172.070000000000
21
362.770000000000
31
0.0
0
LINE
5
8bb
100
AcDbEntity
8
0-2
6
DOT
62
4
100
AcDbLine
10
1164.240000000000
20
357.770000000000
30
0.0
11
1169.240000000000
21
362.770000000000
31
0.0
0
LINE
5
8bc
100
AcDbEntity
8
0-2
6
DOT
62
4
100
AcDbLine
10
1161.410000000000
20
357.770000000000
30
0.0
11
1166.410000000000
21
362.770000000000
31
0.0
0
LINE
5
8bd
100
AcDbEntity
8
0-2
6
DOT
62
4
100
AcDbLine
10
1158.590000000000
20
357.770000000000
30
0.0
11
1163.590000000000
21
362.770000000000
31
0.0
0
LINE
5
8be
100
AcDbEntity
8
0-2
6
DOT
62
4
100
AcDbLine
10
1155.770000000000
20
357.780000000000
30
0.0
11
1160.760000000000
21
362.770000000000
31
0.0
0
LINE
5
8bf
100
AcDbEntity
8
0-2
6
DOT
62
4
100
AcDbLine
10
1154.360000000000
20
359.200000000000
30
0.0
11
1157.930000000000
21
362.770000000000
31
0.0
0
LINE
5
8c0
100
AcDbEntity
8
0-2
6
DOT
62
4
100
AcDbLine
10
1152.950000000000
20
360.610000000000
30
0.0
11
1156.480000000000
21
364.150000000000
31
0.0
0
LINE
5
8c1
100
AcDbEntity
8
0-2
6
DOT
62
4
100
AcDbLine
10
1151.530000000000
20
362.030000000000
30
0.0
11
1155.070000000000
21
365.560000000000
31
0.0
0
LINE
5
8c2
100
AcDbEntity
8
0-2
6
DOT
62
4
100
AcDbLine
10
1148.740000000000
20
362.060000000000
30
0.0
11
1153.650000000000
21
366.980000000000
31
0.0
0
LINE
5
8c3
100
AcDbEntity
8
0-2
6
DOT
62
4
100
AcDbLine
10
1145.910000000000
20
362.060000000000
30
0.0
11
1150.910000000000
21
367.060000000000
31
0.0
0
LINE
5
8c4
100
AcDbEntity
8
0-2
6
DOT
62
4
100
AcDbLine
10
1143.080000000000
20
362.060000000000
30
0.0
11
1148.080000000000
21
367.060000000000
31
0.0
0
LINE
5
8c5
100
AcDbEntity
8
0-2
6
DOT
62
4
100
AcDbLine
10
1140.250000000000
20
362.060000000000
30
0.0
11
1145.250000000000
21
367.060000000000
31
0.0
0
LINE
5
8c6
100
AcDbEntity
8
0-2
6
DOT
62
4
100
AcDbLine
10
1137.420000000000
20
362.060000000000
30
0.0
11
1142.420000000000
21
367.060000000000
31
0.0
0
LINE
5
8c7
100
AcDbEntity
8
0-2
6
DOT
62
4
100
AcDbLine
10
1134.590000000000
20
362.060000000000
30
0.0
11
1139.590000000000
21
367.060000000000
31
0.0
0
LINE
5
8c8
100
AcDbEntity
8
0-2
6
DOT
62
4
100
AcDbLine
10
1131.760000000000
20
362.060000000000
30
0.0
11
1136.760000000000
21
367.060000000000
31
0.0
0
LINE
5
8c9
100
AcDbEntity
8
0-2
6
DOT
62
4
100
AcDbLine
10
1128.940000000000
20
362.060000000000
30
0.0
11
1133.940000000000
21
367.060000000000
31
0.0
0
LINE
5
8ca
100
AcDbEntity
8
0-2
6
DOT
62
4
100
AcDbLine
10
1128.900000000000
20
364.850000000000
30
0.0
11
1131.110000000000
21
367.060000000000
31
0.0
0
LINE
5
8cb
100
AcDbEntity
8
0-2
6
DOT
62
4
100
AcDbLine
10
1128.900000000000
20
364.880000000000
30
0.0
11
1131.720000000000
21
362.060000000000
31
0.0
0
LINE
5
8cc
100
AcDbEntity
8
0-2
6
DOT
62
4
100
AcDbLine
10
1129.550000000000
20
367.060000000000
30
0.0
11
1134.550000000000
21
362.060000000000
31
0.0
0
LINE
5
8cd
100
AcDbEntity
8
0-2
6
DOT
62
4
100
AcDbLine
10
1132.380000000000
20
367.060000000000
30
0.0
11
1137.380000000000
21
362.060000000000
31
0.0
0
LINE
5
8ce
100
AcDbEntity
8
0-2
6
DOT
62
4
100
AcDbLine
10
1135.210000000000
20
367.060000000000
30
0.0
11
1140.210000000000
21
362.060000000000
31
0.0
0
LINE
5
8cf
100
AcDbEntity
8
0-2
6
DOT
62
4
100
AcDbLine
10
1138.040000000000
20
367.060000000000
30
0.0
11
1143.040000000000
21
362.060000000000
31
0.0
0
LINE
5
8d0
100
AcDbEntity
8
0-2
6
DOT
62
4
100
AcDbLine
10
1140.870000000000
20
367.060000000000
30
0.0
11
1145.870000000000
21
362.060000000000
31
0.0
0
LINE
5
8d1
100
AcDbEntity
8
0-2
6
DOT
62
4
100
AcDbLine
10
1143.690000000000
20
367.060000000000
30
0.0
11
1148.690000000000
21
362.060000000000
31
0.0
0
LINE
5
8d2
100
AcDbEntity
8
0-2
6
DOT
62
4
100
AcDbLine
10
1146.520000000000
20
367.060000000000
30
0.0
11
1155.810000000000
21
357.770000000000
31
0.0
0
LINE
5
8d3
100
AcDbEntity
8
0-2
6
DOT
62
4
100
AcDbLine
10
1149.350000000000
20
367.060000000000
30
0.0
11
1158.640000000000
21
357.770000000000
31
0.0
0
LINE
5
8d4
100
AcDbEntity
8
0-2
6
DOT
62
4
100
AcDbLine
10
1152.180000000000
20
367.060000000000
30
0.0
11
1161.470000000000
21
357.770000000000
31
0.0
0
LINE
5
8d5
100
AcDbEntity
8
0-2
6
DOT
62
4
100
AcDbLine
10
1159.300000000000
20
362.770000000000
30
0.0
11
1164.300000000000
21
357.770000000000
31
0.0
0
LINE
5
8d6
100
AcDbEntity
8
0-2
6
DOT
62
4
100
AcDbLine
10
1162.130000000000
20
362.770000000000
30
0.0
11
1167.130000000000
21
357.770000000000
31
0.0
0
LINE
5
8d7
100
AcDbEntity
8
0-2
6
DOT
62
4
100
AcDbLine
10
1164.960000000000
20
362.770000000000
30
0.0
11
1169.960000000000
21
357.770000000000
31
0.0
0
LINE
5
8d8
100
AcDbEntity
8
0-2
6
DOT
62
4
100
AcDbLine
10
1167.790000000000
20
362.770000000000
30
0.0
11
1172.790000000000
21
357.770000000000
31
0.0
0
LINE
5
8d9
100
AcDbEntity
8
0-2
6
DOT
62
4
100
AcDbLine
10
1170.610000000000
20
362.770000000000
30
0.0
11
1175.610000000000
21
357.770000000000
31
0.0
0
LINE
5
8da
100
AcDbEntity
8
0-2
6
DOT
62
4
100
AcDbLine
10
1173.440000000000
20
362.770000000000
30
0.0
11
1178.440000000000
21
357.770000000000
31
0.0
0
LINE
5
8db
100
AcDbEntity
8
0-2
6
DOT
62
4
100
AcDbLine
10
1176.270000000000
20
362.770000000000
30
0.0
11
1181.270000000000
21
357.770000000000
31
0.0
0
LINE
5
8dc
100
AcDbEntity
8
0-2
6
DOT
62
4
100
AcDbLine
10
1179.100000000000
20
362.770000000000
30
0.0
11
1184.100000000000
21
357.770000000000
31
0.0
0
LINE
5
8dd
100
AcDbEntity
8
0-2
6
DOT
62
4
100
AcDbLine
10
1181.930000000000
20
362.770000000000
30
0.0
11
1186.930000000000
21
357.770000000000
31
0.0
0
LINE
5
8de
100
AcDbEntity
8
0-2
6
DOT
62
4
100
AcDbLine
10
1184.760000000000
20
362.770000000000
30
0.0
11
1189.760000000000
21
357.770000000000
31
0.0
0
LINE
5
8df
100
AcDbEntity
8
0-2
6
DOT
62
4
100
AcDbLine
10
1187.580000000000
20
362.770000000000
30
0.0
11
1192.580000000000
21
357.770000000000
31
0.0
0
LINE
5
8e0
100
AcDbEntity
8
0-2
6
DOT
62
4
100
AcDbLine
10
1190.410000000000
20
362.770000000000
30
0.0
11
1195.410000000000
21
357.770000000000
31
0.0
0
LINE
5
8e1
100
AcDbEntity
8
0-2
6
DOT
62
4
100
AcDbLine
10
1193.240000000000
20
362.770000000000
30
0.0
11
1198.240000000000
21
357.770000000000
31
0.0
0
LINE
5
8e2
100
AcDbEntity
8
0-2
6
DOT
62
4
100
AcDbLine
10
1196.070000000000
20
362.770000000000
30
0.0
11
1201.070000000000
21
357.770000000000
31
0.0
0
LINE
5
8e3
100
AcDbEntity
8
0-2
6
DOT
62
4
100
AcDbLine
10
1198.900000000000
20
362.770000000000
30
0.0
11
1203.900000000000
21
357.770000000000
31
0.0
0
LINE
5
8e4
100
AcDbEntity
8
0-2
6
DOT
62
4
100
AcDbLine
10
1201.730000000000
20
362.770000000000
30
0.0
11
1206.730000000000
21
357.770000000000
31
0.0
0
LINE
5
8e5
100
AcDbEntity
8
0-2
6
DOT
62
4
100
AcDbLine
10
1204.550000000000
20
362.770000000000
30
0.0
11
1209.550000000000
21
357.770000000000
31
0.0
0
LINE
5
8e6
100
AcDbEntity
8
0-2
6
DOT
62
4
100
AcDbLine
10
1207.380000000000
20
362.770000000000
30
0.0
11
1212.380000000000
21
357.770000000000
31
0.0
0
LINE
5
8e7
100
AcDbEntity
8
0-2
6
DOT
62
4
100
AcDbLine
10
1210.210000000000
20
362.770000000000
30
0.0
11
1215.210000000000
21
357.770000000000
31
0.0
0
LINE
5
8e8
100
AcDbEntity
8
0-2
6
DOT
62
4
100
AcDbLine
10
1213.040000000000
20
362.770000000000
30
0.0
11
1218.040000000000
21
357.770000000000
31
0.0
0
LINE
5
8e9
100
AcDbEntity
8
0-2
6
DOT
62
4
100
AcDbLine
10
1215.870000000000
20
362.770000000000
30
0.0
11
1220.870000000000
21
357.770000000000
31
0.0
0
LINE
5
8ea
100
AcDbEntity
8
0-2
6
DOT
62
4
100
AcDbLine
10
1218.490000000000
20
362.980000000000
30
0.0
11
1222.170000000000
21
359.290000000000
31
0.0
0
LINE
5
8eb
100
AcDbEntity
8
0-2
6
DOT
62
4
100
AcDbLine
10
1219.490000000000
20
364.800000000000
30
0.0
11
1223.170000000000
21
361.120000000000
31
0.0
0
LINE
5
8ec
100
AcDbEntity
8
0-2
6
DOT
62
4
100
AcDbLine
10
1220.490000000000
20
366.630000000000
30
0.0
11
1224.180000000000
21
362.950000000000
31
0.0
0
LINE
5
8ed
100
AcDbEntity
8
0-2
6
DOT
62
4
100
AcDbLine
10
1221.500000000000
20
368.450000000000
30
0.0
11
1225.180000000000
21
364.770000000000
31
0.0
0
LINE
5
8ee
100
AcDbEntity
8
0-2
6
DOT
62
4
100
AcDbLine
10
1222.500000000000
20
370.280000000000
30
0.0
11
1226.180000000000
21
366.600000000000
31
0.0
0
LINE
5
8ef
100
AcDbEntity
8
0-2
6
DOT
62
4
100
AcDbLine
10
1223.500000000000
20
372.110000000000
30
0.0
11
1227.180000000000
21
368.420000000000
31
0.0
0
LINE
5
8f0
100
AcDbEntity
8
0-2
6
DOT
62
4
100
AcDbLine
10
1224.500000000000
20
373.930000000000
30
0.0
11
1228.180000000000
21
370.250000000000
31
0.0
0
LINE
5
8f1
100
AcDbEntity
8
0-2
6
DOT
62
4
100
AcDbLine
10
1225.500000000000
20
375.760000000000
30
0.0
11
1229.190000000000
21
372.080000000000
31
0.0
0
LINE
5
8f2
100
AcDbEntity
8
0-2
6
DOT
62
4
100
AcDbLine
10
1226.510000000000
20
377.590000000000
30
0.0
11
1230.190000000000
21
373.900000000000
31
0.0
0
LINE
5
8f3
100
AcDbEntity
8
0-2
6
DOT
62
4
100
AcDbLine
10
1227.510000000000
20
379.410000000000
30
0.0
11
1231.190000000000
21
375.730000000000
31
0.0
0
LINE
5
8f4
100
AcDbEntity
8
0-2
6
DOT
62
4
100
AcDbLine
10
1228.510000000000
20
381.240000000000
30
0.0
11
1232.190000000000
21
377.560000000000
31
0.0
0
LINE
5
8f5
100
AcDbEntity
8
0-2
6
DOT
62
4
100
AcDbLine
10
1229.510000000000
20
383.060000000000
30
0.0
11
1233.200000000000
21
379.380000000000
31
0.0
0
LINE
5
8f6
100
AcDbEntity
8
0-2
6
DOT
62
4
100
AcDbLine
10
1230.520000000000
20
384.890000000000
30
0.0
11
1234.200000000000
21
381.210000000000
31
0.0
0
LINE
5
8f7
100
AcDbEntity
8
0-2
6
DOT
62
4
100
AcDbLine
10
1231.520000000000
20
386.720000000000
30
0.0
11
1235.200000000000
21
383.030000000000
31
0.0
0
LINE
5
8f8
100
AcDbEntity
8
0-2
6
DOT
62
4
100
AcDbLine
10
1232.520000000000
20
388.540000000000
30
0.0
11
1236.200000000000
21
384.860000000000
31
0.0
0
LINE
5
8f9
100
AcDbEntity
8
0-2
6
DOT
62
4
100
AcDbLine
10
1233.520000000000
20
390.370000000000
30
0.0
11
1237.210000000000
21
386.690000000000
31
0.0
0
LINE
5
8fa
100
AcDbEntity
8
0-2
6
DOT
62
4
100
AcDbLine
10
1234.530000000000
20
392.190000000000
30
0.0
11
1238.210000000000
21
388.510000000000
31
0.0
0
LINE
5
8fb
100
AcDbEntity
8
0-2
6
DOT
62
4
100
AcDbLine
10
1235.530000000000
20
394.020000000000
30
0.0
11
1239.210000000000
21
390.340000000000
31
0.0
0
LINE
5
8fc
100
AcDbEntity
8
0-2
6
DOT
62
4
100
AcDbLine
10
1236.530000000000
20
395.850000000000
30
0.0
11
1240.210000000000
21
392.160000000000
31
0.0
0
LINE
5
8fd
100
AcDbEntity
8
0-2
6
DOT
62
4
100
AcDbLine
10
1237.530000000000
20
397.670000000000
30
0.0
11
1241.210000000000
21
393.990000000000
31
0.0
0
LINE
5
8fe
100
AcDbEntity
8
0-2
6
DOT
62
4
100
AcDbLine
10
1238.530000000000
20
399.500000000000
30
0.0
11
1242.220000000000
21
395.820000000000
31
0.0
0
LINE
5
8ff
100
AcDbEntity
8
0-2
6
DOT
62
4
100
AcDbLine
10
1239.540000000000
20
401.330000000000
30
0.0
11
1243.220000000000
21
397.640000000000
31
0.0
0
LINE
5
900
100
AcDbEntity
8
0-2
6
DOT
62
4
100
AcDbLine
10
1241.120000000000
20
402.570000000000
30
0.0
11
1244.710000000000
21
398.980000000000
31
0.0
0
LINE
5
901
100
AcDbEntity
8
0-2
6
DOT
62
4
100
AcDbLine
10
1242.780000000000
20
403.740000000000
30
0.0
11
1246.370000000000
21
400.150000000000
31
0.0
0
LINE
5
902
100
AcDbEntity
8
0-2
6
DOT
62
4
100
AcDbLine
10
1244.440000000000
20
404.910000000000
30
0.0
11
1248.030000000000
21
401.320000000000
31
0.0
0
LINE
5
903
100
AcDbEntity
8
0-2
6
DOT
62
4
100
AcDbLine
10
1246.100000000000
20
406.080000000000
30
0.0
11
1249.690000000000
21
402.490000000000
31
0.0
0
LINE
5
904
100
AcDbEntity
8
0-2
6
DOT
62
4
100
AcDbLine
10
1247.760000000000
20
407.250000000000
30
0.0
11
1251.340000000000
21
403.660000000000
31
0.0
0
LINE
5
905
100
AcDbEntity
8
0-2
6
DOT
62
4
100
AcDbLine
10
1249.410000000000
20
408.420000000000
30
0.0
11
1253.000000000000
21
404.830000000000
31
0.0
0
LINE
5
906
100
AcDbEntity
8
0-2
6
DOT
62
4
100
AcDbLine
10
1251.070000000000
20
409.590000000000
30
0.0
11
1254.660000000000
21
406.000000000000
31
0.0
0
LINE
5
907
100
AcDbEntity
8
0-2
6
DOT
62
4
100
AcDbLine
10
1252.730000000000
20
410.760000000000
30
0.0
11
1256.280000000000
21
407.210000000000
31
0.0
0
LINE
5
908
100
AcDbEntity
8
0-2
6
DOT
62
4
100
AcDbLine
10
1247.920000000000
20
418.400000000000
30
0.0
11
1248.080000000000
21
418.240000000000
31
0.0
0
LINE
5
909
100
AcDbEntity
8
0-2
6
DOT
62
4
100
AcDbLine
10
1253.980000000000
20
412.340000000000
30
0.0
11
1257.620000000000
21
408.690000000000
31
0.0
0
LINE
5
90a
100
AcDbEntity
8
0-2
6
DOT
62
4
100
AcDbLine
10
1247.980000000000
20
421.160000000000
30
0.0
11
1251.320000000000
21
417.830000000000
31
0.0
0
LINE
5
90b
100
AcDbEntity
8
0-2
6
DOT
62
4
100
AcDbLine
10
1254.210000000000
20
414.940000000000
30
0.0
11
1258.640000000000
21
410.510000000000
31
0.0
0
LINE
5
90c
100
AcDbEntity
8
0-2
6
DOT
62
4
100
AcDbLine
10
1249.010000000000
20
422.970000000000
30
0.0
11
1259.240000000000
21
412.730000000000
31
0.0
0
LINE
5
90d
100
AcDbEntity
8
0-2
6
DOT
62
4
100
AcDbLine
10
1251.970000000000
20
422.830000000000
30
0.0
11
1259.170000000000
21
415.630000000000
31
0.0
0
POLYLINE
5
90e
100
AcDbEntity
8
0-2
6
DOT
62
  4
100
AcDb2dPolyline
66
1
10
0.0
20
0.0
30
0.0
70
0
0
VERTEX
5
90f
100
AcDbEntity
8
0-2
6
DOT
62
  4
100
AcDbVertex
100
AcDb2dVertex
10
1306.210000000000
20
420.910000000000
30
0.0
0
VERTEX
5
910
100
AcDbEntity
8
0-2
6
DOT
62
  4
100
AcDbVertex
100
AcDb2dVertex
10
1312.020000000000
20
421.230000000000
30
0.0
0
VERTEX
5
911
100
AcDbEntity
8
0-2
6
DOT
62
  4
100
AcDbVertex
100
AcDb2dVertex
10
1311.080000000000
20
416.240000000000
30
0.0
0
SEQEND
5
912
100
AcDbEntity
8
0-2
0
LINE
5
913
100
AcDbEntity
8
0-2
6
DOT
62
4
100
AcDbLine
10
1306.400000000000
20
415.920000000000
30
0.0
11
1306.380000000000
21
415.910000000000
31
0.0
0
LINE
5
914
100
AcDbEntity
8
0-2
6
DOT
62
4
100
AcDbLine
10
1336.020000000000
20
358.580000000000
30
0.0
11
1336.830000000000
21
357.770000000000
31
0.0
0
LINE
5
915
100
AcDbEntity
8
0-2
6
DOT
62
4
100
AcDbLine
10
1332.580000000000
20
364.850000000000
30
0.0
11
1339.660000000000
21
357.770000000000
31
0.0
0
LINE
5
916
100
AcDbEntity
8
0-2
6
DOT
62
4
100
AcDbLine
10
1329.140000000000
20
371.120000000000
30
0.0
11
1342.490000000000
21
357.770000000000
31
0.0
0
LINE
5
917
100
AcDbEntity
8
0-2
6
DOT
62
4
100
AcDbLine
10
1325.700000000000
20
377.390000000000
30
0.0
11
1338.340000000000
21
364.740000000000
31
0.0
0
LINE
5
918
100
AcDbEntity
8
0-2
6
DOT
62
4
100
AcDbLine
10
1340.320000000000
20
362.770000000000
30
0.0
11
1345.320000000000
21
357.770000000000
31
0.0
0
LINE
5
919
100
AcDbEntity
8
0-2
6
DOT
62
4
100
AcDbLine
10
1322.260000000000
20
383.660000000000
30
0.0
11
1334.900000000000
21
371.010000000000
31
0.0
0
LINE
5
91a
100
AcDbEntity
8
0-2
6
DOT
62
4
100
AcDbLine
10
1343.150000000000
20
362.770000000000
30
0.0
11
1348.150000000000
21
357.770000000000
31
0.0
0
LINE
5
91b
100
AcDbEntity
8
0-2
6
DOT
62
4
100
AcDbLine
10
1300.300000000000
20
408.450000000000
30
0.0
11
1301.790000000000
21
406.950000000000
31
0.0
0
LINE
5
91c
100
AcDbEntity
8
0-2
6
DOT
62
4
100
AcDbLine
10
1318.820000000000
20
389.920000000000
30
0.0
11
1331.460000000000
21
377.280000000000
31
0.0
0
LINE
5
91d
100
AcDbEntity
8
0-2
6
DOT
62
4
100
AcDbLine
10
1345.980000000000
20
362.770000000000
30
0.0
11
1350.980000000000
21
357.770000000000
31
0.0
0
LINE
5
91e
100
AcDbEntity
8
0-2
6
DOT
62
4
100
AcDbLine
10
1298.750000000000
20
412.820000000000
30
0.0
11
1311.400000000000
21
400.170000000000
31
0.0
0
LINE
5
91f
100
AcDbEntity
8
0-2
6
DOT
62
4
100
AcDbLine
10
1315.380000000000
20
396.190000000000
30
0.0
11
1328.020000000000
21
383.550000000000
31
0.0
0
LINE
5
920
100
AcDbEntity
8
0-2
6
DOT
62
4
100
AcDbLine
10
1348.800000000000
20
362.770000000000
30
0.0
11
1353.800000000000
21
357.770000000000
31
0.0
0
LINE
5
921
100
AcDbEntity
8
0-2
6
DOT
62
4
100
AcDbLine
10
1299.070000000000
20
415.340000000000
30
0.0
11
1324.580000000000
21
389.820000000000
31
0.0
0
LINE
5
922
100
AcDbEntity
8
0-2
6
DOT
62
4
100
AcDbLine
10
1351.630000000000
20
362.770000000000
30
0.0
11
1356.630000000000
21
357.770000000000
31
0.0
0
LINE
5
923
100
AcDbEntity
8
0-2
6
DOT
62
4
100
AcDbLine
10
1299.950000000000
20
417.280000000000
30
0.0
11
1303.760000000000
21
413.460000000000
31
0.0
0
LINE
5
924
100
AcDbEntity
8
0-2
6
DOT
62
4
100
AcDbLine
10
1309.830000000000
20
407.400000000000
30
0.0
11
1321.140000000000
21
396.090000000000
31
0.0
0
LINE
5
925
100
AcDbEntity
8
0-2
6
DOT
62
4
100
AcDbLine
10
1354.460000000000
20
362.770000000000
30
0.0
11
1359.460000000000
21
357.770000000000
31
0.0
0
LINE
5
926
100
AcDbEntity
8
0-2
6
DOT
62
4
100
AcDbLine
10
1301.230000000000
20
418.830000000000
30
0.0
11
1304.770000000000
21
415.290000000000
31
0.0
0
LINE
5
927
100
AcDbEntity
8
0-2
6
DOT
62
4
100
AcDbLine
10
1357.290000000000
20
362.770000000000
30
0.0
11
1362.290000000000
21
357.770000000000
31
0.0
0
LINE
5
928
100
AcDbEntity
8
0-2
6
DOT
62
4
100
AcDbLine
10
1302.880000000000
20
420.000000000000
30
0.0
11
1306.930000000000
21
415.960000000000
31
0.0
0
LINE
5
929
100
AcDbEntity
8
0-2
6
DOT
62
4
100
AcDbLine
10
1360.120000000000
20
362.770000000000
30
0.0
11
1365.120000000000
21
357.770000000000
31
0.0
0
LINE
5
92a
100
AcDbEntity
8
0-2
6
DOT
62
4
100
AcDbLine
10
1304.960000000000
20
420.760000000000
30
0.0
11
1309.580000000000
21
416.140000000000
31
0.0
0
LINE
5
92b
100
AcDbEntity
8
0-2
6
DOT
62
4
100
AcDbLine
10
1362.950000000000
20
362.770000000000
30
0.0
11
1367.950000000000
21
357.770000000000
31
0.0
0
LINE
5
92c
100
AcDbEntity
8
0-2
6
DOT
62
4
100
AcDbLine
10
1307.560000000000
20
420.980000000000
30
0.0
11
1311.270000000000
21
417.270000000000
31
0.0
0
LINE
5
92d
100
AcDbEntity
8
0-2
6
DOT
62
4
100
AcDbLine
10
1365.780000000000
20
362.770000000000
30
0.0
11
1370.780000000000
21
357.770000000000
31
0.0
0
LINE
5
92e
100
AcDbEntity
8
0-2
6
DOT
62
4
100
AcDbLine
10
1310.240000000000
20
421.130000000000
30
0.0
11
1311.720000000000
21
419.650000000000
31
0.0
0
LINE
5
92f
100
AcDbEntity
8
0-2
6
DOT
62
4
100
AcDbLine
10
1368.600000000000
20
362.770000000000
30
0.0
11
1373.600000000000
21
357.770000000000
31
0.0
0
LINE
5
930
100
AcDbEntity
8
0-2
6
DOT
62
4
100
AcDbLine
10
1371.430000000000
20
362.770000000000
30
0.0
11
1376.430000000000
21
357.770000000000
31
0.0
0
LINE
5
931
100
AcDbEntity
8
0-2
6
DOT
62
4
100
AcDbLine
10
1374.260000000000
20
362.770000000000
30
0.0
11
1379.260000000000
21
357.770000000000
31
0.0
0
LINE
5
932
100
AcDbEntity
8
0-2
6
DOT
62
4
100
AcDbLine
10
1377.090000000000
20
362.770000000000
30
0.0
11
1382.090000000000
21
357.770000000000
31
0.0
0
LINE
5
933
100
AcDbEntity
8
0-2
6
DOT
62
4
100
AcDbLine
10
1379.920000000000
20
362.770000000000
30
0.0
11
1384.920000000000
21
357.770000000000
31
0.0
0
LINE
5
934
100
AcDbEntity
8
0-2
6
DOT
62
4
100
AcDbLine
10
1382.750000000000
20
362.770000000000
30
0.0
11
1387.750000000000
21
357.770000000000
31
0.0
0
LINE
5
935
100
AcDbEntity
8
0-2
6
DOT
62
4
100
AcDbLine
10
1385.570000000000
20
362.770000000000
30
0.0
11
1390.570000000000
21
357.770000000000
31
0.0
0
LINE
5
936
100
AcDbEntity
8
0-2
6
DOT
62
4
100
AcDbLine
10
1388.400000000000
20
362.770000000000
30
0.0
11
1393.400000000000
21
357.770000000000
31
0.0
0
LINE
5
937
100
AcDbEntity
8
0-2
6
DOT
62
4
100
AcDbLine
10
1391.230000000000
20
362.770000000000
30
0.0
11
1396.230000000000
21
357.770000000000
31
0.0
0
LINE
5
938
100
AcDbEntity
8
0-2
6
DOT
62
4
100
AcDbLine
10
1394.060000000000
20
362.770000000000
30
0.0
11
1399.060000000000
21
357.770000000000
31
0.0
0
LINE
5
939
100
AcDbEntity
8
0-2
6
DOT
62
4
100
AcDbLine
10
1396.890000000000
20
362.770000000000
30
0.0
11
1401.890000000000
21
357.770000000000
31
0.0
0
LINE
5
93a
100
AcDbEntity
8
0-2
6
DOT
62
4
100
AcDbLine
10
1399.720000000000
20
362.770000000000
30
0.0
11
1403.360000000000
21
359.120000000000
31
0.0
0
LINE
5
93b
100
AcDbEntity
8
0-2
6
DOT
62
4
100
AcDbLine
10
1401.240000000000
20
364.070000000000
30
0.0
11
1404.780000000000
21
360.530000000000
31
0.0
0
LINE
5
93c
100
AcDbEntity
8
0-2
6
DOT
62
4
100
AcDbLine
10
1402.660000000000
20
365.480000000000
30
0.0
11
1406.190000000000
21
361.950000000000
31
0.0
0
LINE
5
93d
100
AcDbEntity
8
0-2
6
DOT
62
4
100
AcDbLine
10
1404.070000000000
20
366.900000000000
30
0.0
11
1408.910000000000
21
362.060000000000
31
0.0
0
LINE
5
93e
100
AcDbEntity
8
0-2
6
DOT
62
4
100
AcDbLine
10
1406.740000000000
20
367.060000000000
30
0.0
11
1411.740000000000
21
362.060000000000
31
0.0
0
LINE
5
93f
100
AcDbEntity
8
0-2
6
DOT
62
4
100
AcDbLine
10
1409.570000000000
20
367.060000000000
30
0.0
11
1414.570000000000
21
362.060000000000
31
0.0
0
LINE
5
940
100
AcDbEntity
8
0-2
6
DOT
62
4
100
AcDbLine
10
1412.400000000000
20
367.060000000000
30
0.0
11
1417.400000000000
21
362.060000000000
31
0.0
0
LINE
5
941
100
AcDbEntity
8
0-2
6
DOT
62
4
100
AcDbLine
10
1415.220000000000
20
367.060000000000
30
0.0
11
1420.220000000000
21
362.060000000000
31
0.0
0
LINE
5
942
100
AcDbEntity
8
0-2
6
DOT
62
4
100
AcDbLine
10
1418.050000000000
20
367.060000000000
30
0.0
11
1423.050000000000
21
362.060000000000
31
0.0
0
LINE
5
943
100
AcDbEntity
8
0-2
6
DOT
62
4
100
AcDbLine
10
1420.880000000000
20
367.060000000000
30
0.0
11
1425.880000000000
21
362.060000000000
31
0.0
0
LINE
5
944
100
AcDbEntity
8
0-2
6
DOT
62
4
100
AcDbLine
10
1423.710000000000
20
367.060000000000
30
0.0
11
1428.710000000000
21
362.060000000000
31
0.0
0
LINE
5
945
100
AcDbEntity
8
0-2
6
DOT
62
4
100
AcDbLine
10
1426.540000000000
20
367.060000000000
30
0.0
11
1428.900000000000
21
364.700000000000
31
0.0
0
LINE
5
946
100
AcDbEntity
8
0-2
6
DOT
62
4
100
AcDbLine
10
1428.750000000000
20
362.060000000000
30
0.0
11
1428.900000000000
21
362.210000000000
31
0.0
0
LINE
5
947
100
AcDbEntity
8
0-2
6
DOT
62
4
100
AcDbLine
10
1425.920000000000
20
362.060000000000
30
0.0
11
1428.900000000000
21
365.040000000000
31
0.0
0
LINE
5
948
100
AcDbEntity
8
0-2
6
DOT
62
4
100
AcDbLine
10
1423.090000000000
20
362.060000000000
30
0.0
11
1428.090000000000
21
367.060000000000
31
0.0
0
LINE
5
949
100
AcDbEntity
8
0-2
6
DOT
62
4
100
AcDbLine
10
1420.260000000000
20
362.060000000000
30
0.0
11
1425.260000000000
21
367.060000000000
31
0.0
0
LINE
5
94a
100
AcDbEntity
8
0-2
6
DOT
62
4
100
AcDbLine
10
1417.440000000000
20
362.060000000000
30
0.0
11
1422.440000000000
21
367.060000000000
31
0.0
0
LINE
5
94b
100
AcDbEntity
8
0-2
6
DOT
62
4
100
AcDbLine
10
1414.610000000000
20
362.060000000000
30
0.0
11
1419.610000000000
21
367.060000000000
31
0.0
0
LINE
5
94c
100
AcDbEntity
8
0-2
6
DOT
62
4
100
AcDbLine
10
1411.780000000000
20
362.060000000000
30
0.0
11
1416.780000000000
21
367.060000000000
31
0.0
0
LINE
5
94d
100
AcDbEntity
8
0-2
6
DOT
62
4
100
AcDbLine
10
1408.950000000000
20
362.060000000000
30
0.0
11
1413.950000000000
21
367.060000000000
31
0.0
0
LINE
5
94e
100
AcDbEntity
8
0-2
6
DOT
62
4
100
AcDbLine
10
1401.830000000000
20
357.770000000000
30
0.0
11
1411.120000000000
21
367.060000000000
31
0.0
0
LINE
5
94f
100
AcDbEntity
8
0-2
6
DOT
62
4
100
AcDbLine
10
1399.000000000000
20
357.770000000000
30
0.0
11
1408.290000000000
21
367.060000000000
31
0.0
0
LINE
5
950
100
AcDbEntity
8
0-2
6
DOT
62
4
100
AcDbLine
10
1396.170000000000
20
357.770000000000
30
0.0
11
1405.470000000000
21
367.060000000000
31
0.0
0
LINE
5
951
100
AcDbEntity
8
0-2
6
DOT
62
4
100
AcDbLine
10
1393.350000000000
20
357.770000000000
30
0.0
11
1398.350000000000
21
362.770000000000
31
0.0
0
LINE
5
952
100
AcDbEntity
8
0-2
6
DOT
62
4
100
AcDbLine
10
1390.520000000000
20
357.770000000000
30
0.0
11
1395.520000000000
21
362.770000000000
31
0.0
0
LINE
5
953
100
AcDbEntity
8
0-2
6
DOT
62
4
100
AcDbLine
10
1387.690000000000
20
357.770000000000
30
0.0
11
1392.690000000000
21
362.770000000000
31
0.0
0
LINE
5
954
100
AcDbEntity
8
0-2
6
DOT
62
4
100
AcDbLine
10
1384.860000000000
20
357.770000000000
30
0.0
11
1389.860000000000
21
362.770000000000
31
0.0
0
LINE
5
955
100
AcDbEntity
8
0-2
6
DOT
62
4
100
AcDbLine
10
1382.030000000000
20
357.770000000000
30
0.0
11
1387.030000000000
21
362.770000000000
31
0.0
0
LINE
5
956
100
AcDbEntity
8
0-2
6
DOT
62
4
100
AcDbLine
10
1379.200000000000
20
357.770000000000
30
0.0
11
1384.200000000000
21
362.770000000000
31
0.0
0
LINE
5
957
100
AcDbEntity
8
0-2
6
DOT
62
4
100
AcDbLine
10
1376.370000000000
20
357.770000000000
30
0.0
11
1381.370000000000
21
362.770000000000
31
0.0
0
LINE
5
958
100
AcDbEntity
8
0-2
6
DOT
62
4
100
AcDbLine
10
1373.550000000000
20
357.770000000000
30
0.0
11
1378.550000000000
21
362.770000000000
31
0.0
0
LINE
5
959
100
AcDbEntity
8
0-2
6
DOT
62
4
100
AcDbLine
10
1370.720000000000
20
357.770000000000
30
0.0
11
1375.720000000000
21
362.770000000000
31
0.0
0
LINE
5
95a
100
AcDbEntity
8
0-2
6
DOT
62
4
100
AcDbLine
10
1367.890000000000
20
357.770000000000
30
0.0
11
1372.890000000000
21
362.770000000000
31
0.0
0
LINE
5
95b
100
AcDbEntity
8
0-2
6
DOT
62
4
100
AcDbLine
10
1365.060000000000
20
357.770000000000
30
0.0
11
1370.060000000000
21
362.770000000000
31
0.0
0
LINE
5
95c
100
AcDbEntity
8
0-2
6
DOT
62
4
100
AcDbLine
10
1362.230000000000
20
357.770000000000
30
0.0
11
1367.230000000000
21
362.770000000000
31
0.0
0
LINE
5
95d
100
AcDbEntity
8
0-2
6
DOT
62
4
100
AcDbLine
10
1359.400000000000
20
357.770000000000
30
0.0
11
1364.400000000000
21
362.770000000000
31
0.0
0
LINE
5
95e
100
AcDbEntity
8
0-2
6
DOT
62
4
100
AcDbLine
10
1356.580000000000
20
357.770000000000
30
0.0
11
1361.580000000000
21
362.770000000000
31
0.0
0
LINE
5
95f
100
AcDbEntity
8
0-2
6
DOT
62
4
100
AcDbLine
10
1353.750000000000
20
357.770000000000
30
0.0
11
1358.750000000000
21
362.770000000000
31
0.0
0
LINE
5
960
100
AcDbEntity
8
0-2
6
DOT
62
4
100
AcDbLine
10
1350.920000000000
20
357.770000000000
30
0.0
11
1355.920000000000
21
362.770000000000
31
0.0
0
LINE
5
961
100
AcDbEntity
8
0-2
6
DOT
62
4
100
AcDbLine
10
1348.090000000000
20
357.770000000000
30
0.0
11
1353.090000000000
21
362.770000000000
31
0.0
0
LINE
5
962
100
AcDbEntity
8
0-2
6
DOT
62
4
100
AcDbLine
10
1345.260000000000
20
357.770000000000
30
0.0
11
1350.260000000000
21
362.770000000000
31
0.0
0
LINE
5
963
100
AcDbEntity
8
0-2
6
DOT
62
4
100
AcDbLine
10
1342.430000000000
20
357.770000000000
30
0.0
11
1347.430000000000
21
362.770000000000
31
0.0
0
LINE
5
964
100
AcDbEntity
8
0-2
6
DOT
62
4
100
AcDbLine
10
1339.600000000000
20
357.770000000000
30
0.0
11
1344.600000000000
21
362.770000000000
31
0.0
0
LINE
5
965
100
AcDbEntity
8
0-2
6
DOT
62
4
100
AcDbLine
10
1336.780000000000
20
357.770000000000
30
0.0
11
1341.780000000000
21
362.770000000000
31
0.0
0
LINE
5
966
100
AcDbEntity
8
0-2
6
DOT
62
4
100
AcDbLine
10
1335.570000000000
20
359.390000000000
30
0.0
11
1339.260000000000
21
363.080000000000
31
0.0
0
LINE
5
967
100
AcDbEntity
8
0-2
6
DOT
62
4
100
AcDbLine
10
1334.570000000000
20
361.220000000000
30
0.0
11
1338.260000000000
21
364.900000000000
31
0.0
0
LINE
5
968
100
AcDbEntity
8
0-2
6
DOT
62
4
100
AcDbLine
10
1333.570000000000
20
363.050000000000
30
0.0
11
1337.250000000000
21
366.730000000000
31
0.0
0
LINE
5
969
100
AcDbEntity
8
0-2
6
DOT
62
4
100
AcDbLine
10
1332.570000000000
20
364.870000000000
30
0.0
11
1336.250000000000
21
368.560000000000
31
0.0
0
LINE
5
96a
100
AcDbEntity
8
0-2
6
DOT
62
4
100
AcDbLine
10
1331.570000000000
20
366.700000000000
30
0.0
11
1335.250000000000
21
370.380000000000
31
0.0
0
LINE
5
96b
100
AcDbEntity
8
0-2
6
DOT
62
4
100
AcDbLine
10
1330.560000000000
20
368.530000000000
30
0.0
11
1334.250000000000
21
372.210000000000
31
0.0
0
LINE
5
96c
100
AcDbEntity
8
0-2
6
DOT
62
4
100
AcDbLine
10
1329.560000000000
20
370.350000000000
30
0.0
11
1333.240000000000
21
374.030000000000
31
0.0
0
LINE
5
96d
100
AcDbEntity
8
0-2
6
DOT
62
4
100
AcDbLine
10
1328.560000000000
20
372.180000000000
30
0.0
11
1332.240000000000
21
375.860000000000
31
0.0
0
LINE
5
96e
100
AcDbEntity
8
0-2
6
DOT
62
4
100
AcDbLine
10
1327.560000000000
20
374.000000000000
30
0.0
11
1331.240000000000
21
377.690000000000
31
0.0
0
LINE
5
96f
100
AcDbEntity
8
0-2
6
DOT
62
4
100
AcDbLine
10
1326.550000000000
20
375.830000000000
30
0.0
11
1330.240000000000
21
379.510000000000
31
0.0
0
LINE
5
970
100
AcDbEntity
8
0-2
6
DOT
62
4
100
AcDbLine
10
1325.550000000000
20
377.660000000000
30
0.0
11
1329.230000000000
21
381.340000000000
31
0.0
0
LINE
5
971
100
AcDbEntity
8
0-2
6
DOT
62
4
100
AcDbLine
10
1324.550000000000
20
379.480000000000
30
0.0
11
1328.230000000000
21
383.160000000000
31
0.0
0
LINE
5
972
100
AcDbEntity
8
0-2
6
DOT
62
4
100
AcDbLine
10
1323.550000000000
20
381.310000000000
30
0.0
11
1327.230000000000
21
384.990000000000
31
0.0
0
LINE
5
973
100
AcDbEntity
8
0-2
6
DOT
62
4
100
AcDbLine
10
1322.550000000000
20
383.130000000000
30
0.0
11
1326.230000000000
21
386.820000000000
31
0.0
0
LINE
5
974
100
AcDbEntity
8
0-2
6
DOT
62
4
100
AcDbLine
10
1321.540000000000
20
384.960000000000
30
0.0
11
1325.230000000000
21
388.640000000000
31
0.0
0
LINE
5
975
100
AcDbEntity
8
0-2
6
DOT
62
4
100
AcDbLine
10
1320.540000000000
20
386.790000000000
30
0.0
11
1324.220000000000
21
390.470000000000
31
0.0
0
LINE
5
976
100
AcDbEntity
8
0-2
6
DOT
62
4
100
AcDbLine
10
1319.540000000000
20
388.610000000000
30
0.0
11
1323.220000000000
21
392.300000000000
31
0.0
0
LINE
5
977
100
AcDbEntity
8
0-2
6
DOT
62
4
100
AcDbLine
10
1318.540000000000
20
390.440000000000
30
0.0
11
1322.220000000000
21
394.120000000000
31
0.0
0
LINE
5
978
100
AcDbEntity
8
0-2
6
DOT
62
4
100
AcDbLine
10
1317.530000000000
20
392.270000000000
30
0.0
11
1321.220000000000
21
395.950000000000
31
0.0
0
LINE
5
979
100
AcDbEntity
8
0-2
6
DOT
62
4
100
AcDbLine
10
1316.530000000000
20
394.090000000000
30
0.0
11
1320.210000000000
21
397.770000000000
31
0.0
0
LINE
5
97a
100
AcDbEntity
8
0-2
6
DOT
62
4
100
AcDbLine
10
1315.530000000000
20
395.920000000000
30
0.0
11
1319.210000000000
21
399.600000000000
31
0.0
0
LINE
5
97b
100
AcDbEntity
8
0-2
6
DOT
62
4
100
AcDbLine
10
1314.530000000000
20
397.740000000000
30
0.0
11
1318.210000000000
21
401.430000000000
31
0.0
0
LINE
5
97c
100
AcDbEntity
8
0-2
6
DOT
62
4
100
AcDbLine
10
1313.000000000000
20
399.040000000000
30
0.0
11
1316.590000000000
21
402.630000000000
31
0.0
0
LINE
5
97d
100
AcDbEntity
8
0-2
6
DOT
62
4
100
AcDbLine
10
1311.340000000000
20
400.210000000000
30
0.0
11
1314.930000000000
21
403.800000000000
31
0.0
0
LINE
5
97e
100
AcDbEntity
8
0-2
6
DOT
62
4
100
AcDbLine
10
1309.680000000000
20
401.380000000000
30
0.0
11
1313.270000000000
21
404.970000000000
31
0.0
0
LINE
5
97f
100
AcDbEntity
8
0-2
6
DOT
62
4
100
AcDbLine
10
1308.020000000000
20
402.550000000000
30
0.0
11
1311.610000000000
21
406.140000000000
31
0.0
0
LINE
5
980
100
AcDbEntity
8
0-2
6
DOT
62
4
100
AcDbLine
10
1306.370000000000
20
403.720000000000
30
0.0
11
1309.950000000000
21
407.310000000000
31
0.0
0
LINE
5
981
100
AcDbEntity
8
0-2
6
DOT
62
4
100
AcDbLine
10
1304.710000000000
20
404.890000000000
30
0.0
11
1308.290000000000
21
408.480000000000
31
0.0
0
LINE
5
982
100
AcDbEntity
8
0-2
6
DOT
62
4
100
AcDbLine
10
1303.050000000000
20
406.060000000000
30
0.0
11
1306.640000000000
21
409.650000000000
31
0.0
0
LINE
5
983
100
AcDbEntity
8
0-2
6
DOT
62
4
100
AcDbLine
10
1301.410000000000
20
407.250000000000
30
0.0
11
1304.960000000000
21
410.810000000000
31
0.0
0
LINE
5
984
100
AcDbEntity
8
0-2
6
DOT
62
4
100
AcDbLine
10
1310.340000000000
20
416.190000000000
30
0.0
11
1311.230000000000
21
417.080000000000
31
0.0
0
LINE
5
985
100
AcDbEntity
8
0-2
6
DOT
62
4
100
AcDbLine
10
1300.080000000000
20
408.750000000000
30
0.0
11
1303.820000000000
21
412.490000000000
31
0.0
0
LINE
5
986
100
AcDbEntity
8
0-2
6
DOT
62
4
100
AcDbLine
10
1307.310000000000
20
415.980000000000
30
0.0
11
1311.890000000000
21
420.560000000000
31
0.0
0
LINE
5
987
100
AcDbEntity
8
0-2
6
DOT
62
4
100
AcDbLine
10
1299.150000000000
20
410.650000000000
30
0.0
11
1309.590000000000
21
421.090000000000
31
0.0
0
LINE
5
988
100
AcDbEntity
8
0-2
6
DOT
62
4
100
AcDbLine
10
1298.740000000000
20
413.070000000000
30
0.0
11
1306.600000000000
21
420.930000000000
31
0.0
0
LINE
5
989
100
AcDbEntity
8
0-2
6
DOT
62
4
100
AcDbLine
10
1299.700000000000
20
416.850000000000
30
0.0
11
1302.810000000000
21
419.960000000000
31
0.0
0
ARC
5
98a
100
AcDbEntity
8
F-4
6
CONTINUOUS
62
3
100
AcDbCircle
10
394.890000000000
20
829.150000000000
30
0.0
40
67.600000832168
100
AcDbArc
50
4.338195800781
51
75.000015258789
0
ARC
5
98b
100
AcDbEntity
8
F-4
6
CONTINUOUS
62
3
100
AcDbCircle
10
394.890000000000
20
829.150000000000
30
0.0
40
65.999995901760
100
AcDbArc
50
4.338195800781
51
75.000015258789
0
ARC
5
98c
100
AcDbEntity
8
F-4
6
CONTINUOUS
62
3
100
AcDbCircle
10
455.710000000000
20
833.760000000000
30
0.0
40
4.999999924124
100
AcDbArc
50
265.000015258789
51
364.338195800781
0
ARC
5
98d
100
AcDbEntity
8
F-4
6
CONTINUOUS
62
3
100
AcDbCircle
10
455.710000000000
20
833.760000000000
30
0.0
40
6.600000209512
100
AcDbArc
50
265.000015258789
51
364.338195800781
0
ARC
5
98e
100
AcDbEntity
8
F-4
6
CONTINUOUS
62
3
100
AcDbCircle
10
394.890000000000
20
890.640000000000
30
0.0
40
7.974909030133
100
AcDbArc
50
200.000000000000
51
340.000000000000
0
ARC
5
98f
100
AcDbEntity
8
F-4
6
CONTINUOUS
62
3
100
AcDbCircle
10
394.890000000000
20
890.640000000000
30
0.0
40
6.374909518915
100
AcDbArc
50
200.000000000000
51
340.000000000000
0
ARC
5
990
100
AcDbEntity
8
F-4
6
CONTINUOUS
62
3
100
AcDbCircle
10
409.900000000000
20
885.170000000000
30
0.0
40
7.999999878599
100
AcDbArc
50
75.000000000000
51
160.000000000000
0
ARC
5
991
100
AcDbEntity
8
F-4
6
CONTINUOUS
62
3
100
AcDbCircle
10
409.900000000000
20
885.170000000000
30
0.0
40
9.599999389817
100
AcDbArc
50
75.000000000000
51
160.000000000000
0
ARC
5
992
100
AcDbEntity
8
F-4
6
CONTINUOUS
62
3
100
AcDbCircle
10
379.880000000000
20
885.170000000000
30
0.0
40
9.599999389817
100
AcDbArc
50
20.000000000000
51
105.000000000000
0
ARC
5
993
100
AcDbEntity
8
F-4
6
CONTINUOUS
62
3
100
AcDbCircle
10
379.880000000000
20
885.170000000000
30
0.0
40
7.999999878599
100
AcDbArc
50
20.000000000000
51
105.000000000000
0
ARC
5
994
100
AcDbEntity
8
F-4
6
CONTINUOUS
62
3
100
AcDbCircle
10
446.280000000000
20
822.950000000000
30
0.0
40
6.600000209512
100
AcDbArc
50
85.000000000000
51
-118.422912597656
0
ARC
5
995
100
AcDbEntity
8
F-4
6
CONTINUOUS
62
3
100
AcDbCircle
10
446.280000000000
20
822.950000000000
30
0.0
40
4.999999924124
100
AcDbArc
50
85.000000000000
51
-118.422912597656
0
ARC
5
996
100
AcDbEntity
8
F-4
6
CONTINUOUS
62
3
100
AcDbCircle
10
394.890000000000
20
829.150000000000
30
0.0
40
65.999995901760
100
AcDbArc
50
105.000000000000
51
175.754409790039
0
ARC
5
997
100
AcDbEntity
8
F-4
6
CONTINUOUS
62
3
100
AcDbCircle
10
394.890000000000
20
829.150000000000
30
0.0
40
67.600000832168
100
AcDbArc
50
105.000000000000
51
175.754409790039
0
ARC
5
998
100
AcDbEntity
8
F-4
6
CONTINUOUS
62
3
100
AcDbCircle
10
414.040000000000
20
881.770000000000
30
0.0
40
5.999999908949
100
AcDbArc
50
70.000015258789
51
155.000015258789
0
ARC
5
999
100
AcDbEntity
8
F-4
6
CONTINUOUS
62
3
100
AcDbCircle
10
414.040000000000
20
881.770000000000
30
0.0
40
7.600000194337
100
AcDbArc
50
70.000015258789
51
155.000015258789
0
ARC
5
99a
100
AcDbEntity
8
F-4
6
CONTINUOUS
62
3
100
AcDbCircle
10
394.890000000000
20
890.700000000000
30
0.0
40
13.533138140355
100
AcDbArc
50
205.000000000000
51
335.000000000000
0
ARC
5
99b
100
AcDbEntity
8
F-4
6
CONTINUOUS
62
3
100
AcDbCircle
10
394.890000000000
20
890.700000000000
30
0.0
40
15.133138425743
100
AcDbArc
50
205.000000000000
51
335.000000000000
0
ARC
5
99c
100
AcDbEntity
8
F-4
6
CONTINUOUS
62
3
100
AcDbCircle
10
394.890000000000
20
829.150000000000
30
0.0
40
61.999995962461
100
AcDbArc
50
110.000000000000
51
175.000015258789
0
ARC
5
99d
100
AcDbEntity
8
F-4
6
CONTINUOUS
62
3
100
AcDbCircle
10
394.890000000000
20
829.150000000000
30
0.0
40
63.600000892869
100
AcDbArc
50
110.000000000000
51
175.000015258789
0
ARC
5
99e
100
AcDbEntity
8
F-4
6
CONTINUOUS
62
3
100
AcDbCircle
10
375.730000000000
20
881.770000000000
30
0.0
40
5.999999908949
100
AcDbArc
50
25.000015258789
51
110.000000000000
0
ARC
5
99f
100
AcDbEntity
8
F-4
6
CONTINUOUS
62
3
100
AcDbCircle
10
375.730000000000
20
881.770000000000
30
0.0
40
7.600000194337
100
AcDbArc
50
25.000015258789
51
110.000000000000
0
ARC
5
9a0
100
AcDbEntity
8
F-4
6
CONTINUOUS
62
3
100
AcDbCircle
10
338.100000000000
20
834.120000000000
30
0.0
40
4.999999924124
100
AcDbArc
50
175.000015258789
51
-85.000000000000
0
ARC
5
9a1
100
AcDbEntity
8
F-4
6
CONTINUOUS
62
3
100
AcDbCircle
10
338.100000000000
20
834.120000000000
30
0.0
40
6.600000209512
100
AcDbArc
50
175.000000000000
51
-85.000000000000
0
ARC
5
9a2
100
AcDbEntity
8
F-4
6
CONTINUOUS
62
3
100
AcDbCircle
10
343.500000000000
20
822.950000000000
30
0.0
40
4.999999924124
100
AcDbArc
50
298.422927856445
51
455.000015258789
0
ARC
5
9a3
100
AcDbEntity
8
F-4
6
CONTINUOUS
62
3
100
AcDbCircle
10
343.500000000000
20
822.950000000000
30
0.0
40
6.600000209512
100
AcDbArc
50
298.422927856445
51
455.000000000000
0
ARC
5
9a4
100
AcDbEntity
8
F-4
6
CONTINUOUS
62
3
100
AcDbCircle
10
394.890000000000
20
829.150000000000
30
0.0
40
63.600000892869
100
AcDbArc
50
41.418533325195
51
70.000015258789
0
ARC
5
9a5
100
AcDbEntity
8
F-4
6
CONTINUOUS
62
3
100
AcDbCircle
10
394.890000000000
20
829.150000000000
30
0.0
40
61.999995962461
100
AcDbArc
50
41.150985717773
51
70.000015258789
0
CIRCLE
5
9a6
100
AcDbEntity
8
F-F
6
CONTINUOUS
62
3
100
AcDbCircle
10
79.720000000000
20
67.100000000000
30
0.0
40
11.313709759210
0
CIRCLE
5
9a7
100
AcDbEntity
8
F-F
6
CONTINUOUS
62
3
100
AcDbCircle
10
79.720000000000
20
67.100000000000
30
0.0
40
12.913709270428
0
CIRCLE
5
9a8
100
AcDbEntity
8
F-F
6
CONTINUOUS
62
4
100
AcDbCircle
10
79.720000000000
20
67.100000000000
30
0.0
40
11.473710561919
0
CIRCLE
5
9a9
100
AcDbEntity
8
F-F
6
CONTINUOUS
62
4
100
AcDbCircle
10
79.720000000000
20
67.100000000000
30
0.0
40
11.793707522317
0
CIRCLE
5
9aa
100
AcDbEntity
8
F-F
6
CONTINUOUS
62
4
100
AcDbCircle
10
79.720000000000
20
67.100000000000
30
0.0
40
12.113709127734
0
CIRCLE
5
9ab
100
AcDbEntity
8
F-F
6
CONTINUOUS
62
4
100
AcDbCircle
10
79.720000000000
20
67.100000000000
30
0.0
40
12.433706862302
0
CIRCLE
5
9ac
100
AcDbEntity
8
F-F
6
CONTINUOUS
62
4
100
AcDbCircle
10
79.720000000000
20
67.100000000000
30
0.0
40
12.753706145210
0
ARC
5
9ad
100
AcDbEntity
8
F-4
6
CONTINUOUS
62
3
100
AcDbCircle
10
469.630000000000
20
800.530000000000
30
0.0
40
1.999999969650
100
AcDbArc
50
41.800827026367
51
61.577087402344
0
ARC
5
9ae
100
AcDbEntity
8
F-4
6
CONTINUOUS
62
3
100
AcDbCircle
10
469.630000000000
20
800.530000000000
30
0.0
40
3.599999867952
100
AcDbArc
50
41.800827026367
51
61.577087402344
0
ARC
5
9af
100
AcDbEntity
8
F-4
6
CONTINUOUS
62
7
100
AcDbCircle
10
396.320000000000
20
818.880000000000
30
0.0
40
64.199995000072
100
AcDbArc
50
12.961669921875
51
60.540283203125
0
ARC
5
9b0
100
AcDbEntity
8
F-4
6
CONTINUOUS
62
7
100
AcDbCircle
10
379.550000000000
20
880.480000000000
30
0.0
40
9.199999705555
100
AcDbArc
50
228.659759521484
51
270.000000000000
0
ARC
5
9b1
100
AcDbEntity
8
F-4
6
CONTINUOUS
62
7
100
AcDbCircle
10
362.890000000000
20
832.300000000000
30
0.0
40
5.999999908949
100
AcDbArc
50
360.000000000000
51
463.711349487305
0
ARC
5
9b2
100
AcDbEntity
8
F-4
6
CONTINUOUS
62
7
100
AcDbCircle
10
366.820000000000
20
866.020000000000
30
0.0
40
10.061659389035
100
AcDbArc
50
360.000000000000
51
479.459732055664
0
ARC
5
9b3
100
AcDbEntity
8
F-4
6
CONTINUOUS
62
7
100
AcDbCircle
10
410.230000000000
20
880.480000000000
30
0.0
40
9.199999705555
100
AcDbArc
50
270.000000000000
51
311.340255737305
0
ARC
5
9b4
100
AcDbEntity
8
F-4
6
CONTINUOUS
62
7
100
AcDbCircle
10
426.890000000000
20
832.300000000000
30
0.0
40
5.999999908949
100
AcDbArc
50
76.288665771484
51
180.000000000000
0
ARC
5
9b5
100
AcDbEntity
8
F-4
6
CONTINUOUS
62
7
100
AcDbCircle
10
422.950000000000
20
866.020000000000
30
0.0
40
10.061659389035
100
AcDbArc
50
60.540283203125
51
180.000000000000
0
ARC
5
9b6
100
AcDbEntity
8
F-4
6
CONTINUOUS
62
7
100
AcDbCircle
10
440.460000000000
20
811.310000000000
30
0.0
40
18.399999411109
100
AcDbArc
50
182.489562988281
51
239.534469604492
0
ARC
5
9b7
100
AcDbEntity
8
F-4
6
CONTINUOUS
62
7
100
AcDbCircle
10
371.260000000000
20
828.040000000000
30
0.0
40
13.999999787548
100
AcDbArc
50
133.757064819336
51
175.030273437500
0
ARC
5
9b8
100
AcDbEntity
8
F-4
6
CONTINUOUS
62
7
100
AcDbCircle
10
371.440000000000
20
830.050000000000
30
0.0
40
7.599999420167
100
AcDbArc
50
123.296264648438
51
175.030273437500
0
ARC
5
9b9
100
AcDbEntity
8
F-4
6
CONTINUOUS
62
7
100
AcDbCircle
10
418.330000000000
20
830.050000000000
30
0.0
40
7.599999420167
100
AcDbArc
50
4.969741821289
51
56.703750610352
0
ARC
5
9ba
100
AcDbEntity
8
F-4
6
CONTINUOUS
62
7
100
AcDbCircle
10
418.510000000000
20
828.040000000000
30
0.0
40
13.999999787548
100
AcDbArc
50
4.969741821289
51
46.242950439453
0
ARC
5
9bb
100
AcDbEntity
8
F-4
6
CONTINUOUS
62
7
100
AcDbCircle
10
445.200000000000
20
821.200000000000
30
0.0
40
11.999999817898
100
AcDbArc
50
184.969741821289
51
238.866470336914
0
ARC
5
9bc
100
AcDbEntity
8
F-4
6
CONTINUOUS
62
7
100
AcDbCircle
10
445.200000000000
20
821.200000000000
30
0.0
40
18.399999411109
100
AcDbArc
50
184.969741821289
51
238.866470336914
0
ARC
5
9bd
100
AcDbEntity
8
F-4
6
CONTINUOUS
62
7
100
AcDbCircle
10
344.570000000000
20
821.200000000000
30
0.0
40
18.399999411109
100
AcDbArc
50
301.133544921875
51
355.030273437500
0
ARC
5
9be
100
AcDbEntity
8
F-4
6
CONTINUOUS
62
7
100
AcDbCircle
10
349.320000000000
20
811.310000000000
30
0.0
40
18.399999411109
100
AcDbArc
50
300.465545654297
51
357.510452270508
0
ARC
5
9bf
100
AcDbEntity
8
F-4
6
CONTINUOUS
62
7
100
AcDbCircle
10
344.570000000000
20
821.200000000000
30
0.0
40
11.999999817898
100
AcDbArc
50
301.133544921875
51
355.030273437500
0
ARC
5
9c0
100
AcDbEntity
8
F-4
6
CONTINUOUS
62
7
100
AcDbCircle
10
454.440000000000
20
780.050000000000
30
0.0
40
18.399999411109
100
AcDbArc
50
37.318099975586
51
59.534469604492
0
ARC
5
9c1
100
AcDbEntity
8
F-4
6
CONTINUOUS
62
7
100
AcDbCircle
10
335.330000000000
20
780.050000000000
30
0.0
40
11.999999817898
100
AcDbArc
50
120.465545654297
51
142.681915283203
0
ARC
5
9c2
100
AcDbEntity
8
F-4
6
CONTINUOUS
62
7
100
AcDbCircle
10
454.440000000000
20
780.050000000000
30
0.0
40
11.999999817898
100
AcDbArc
50
37.318099975586
51
59.534469604492
0
ARC
5
9c3
100
AcDbEntity
8
F-4
6
CONTINUOUS
62
7
100
AcDbCircle
10
335.330000000000
20
780.050000000000
30
0.0
40
18.399999411109
100
AcDbArc
50
120.465545654297
51
142.681915283203
0
ARC
5
9c4
100
AcDbEntity
8
F-4
6
CONTINUOUS
62
7
100
AcDbCircle
10
446.280000000000
20
772.610000000000
30
0.0
40
11.999999817898
100
AcDbArc
50
37.318099975586
51
59.534469604492
0
ARC
5
9c5
100
AcDbEntity
8
F-4
6
CONTINUOUS
62
7
100
AcDbCircle
10
343.490000000000
20
772.610000000000
30
0.0
40
11.999999817898
100
AcDbArc
50
120.465545654297
51
142.681915283203
0
ARC
5
9c6
100
AcDbEntity
8
F-4
6
CONTINUOUS
62
3
100
AcDbCircle
10
319.840000000000
20
800.360000000000
30
0.0
40
1.999999969650
100
AcDbArc
50
118.422927856445
51
138.199188232422
0
ARC
5
9c7
100
AcDbEntity
8
F-4
6
CONTINUOUS
62
3
100
AcDbCircle
10
319.840000000000
20
800.360000000000
30
0.0
40
3.599999867952
100
AcDbArc
50
118.422927856445
51
138.199188232422
0
ARC
5
9c8
100
AcDbEntity
8
F-4
6
CONTINUOUS
62
7
100
AcDbCircle
10
393.450000000000
20
818.880000000000
30
0.0
40
64.199995000072
100
AcDbArc
50
119.222885131836
51
147.988281250000
0
ARC
5
9c9
100
AcDbEntity
8
F-4
6
CONTINUOUS
62
7
100
AcDbCircle
10
395.190000000000
20
829.150000000000
30
0.0
40
60.999997525976
100
AcDbArc
50
157.070755004883
51
173.104751586914
0
ARC
5
9ca
100
AcDbEntity
8
F-4
6
CONTINUOUS
62
7
100
AcDbCircle
10
396.190000000000
20
818.250000000000
30
0.0
40
64.199995000072
100
AcDbArc
50
163.511367797852
51
167.038330078125
0
ARC
5
9cb
100
AcDbEntity
8
0-1
6
CONTINUOUS
62
3
100
AcDbCircle
10
329.410000000000
20
334.570000000000
30
0.0
40
7.999946460871
100
AcDbArc
50
359.999740600586
51
89.999740600586
0
ARC
5
9cc
100
AcDbEntity
8
0-1
6
CONTINUOUS
62
3
100
AcDbCircle
10
350.910000000000
20
334.570000000000
30
0.0
40
7.999946460871
100
AcDbArc
50
89.999740600586
51
179.999740600586
0
ARC
5
9cd
100
AcDbEntity
8
0-1
6
CONTINUOUS
62
7
100
AcDbCircle
10
360.160000000000
20
355.020000000000
30
0.0
40
1.249999981031
100
AcDbArc
50
180.000000000000
51
270.000000000000
0
ARC
5
9ce
100
AcDbEntity
8
0-1
6
CONTINUOUS
62
7
100
AcDbCircle
10
320.160000000000
20
355.020000000000
30
0.0
40
1.249999981031
100
AcDbArc
50
270.000000000000
51
0.000000000000
0
ARC
5
9cf
100
AcDbEntity
8
0-1
6
DOT
62
7
100
AcDbCircle
10
335.750000000000
20
404.890000000000
30
0.0
40
0.999999984825
100
AcDbArc
50
249.429489135742
51
270.000000000000
0
ARC
5
9d0
100
AcDbEntity
8
0-1
6
DOT
62
7
100
AcDbCircle
10
344.380000000000
20
392.580000000000
30
0.0
40
0.999999984825
100
AcDbArc
50
270.000000000000
51
309.974060058594
0
ARC
5
9d1
100
AcDbEntity
8
0-1
6
DOT
62
7
100
AcDbCircle
10
328.390000000000
20
389.770000000000
30
0.0
40
5.999999908949
100
AcDbArc
50
50.025924682617
51
90.000000000000
0
ARC
5
9d2
100
AcDbEntity
8
0-1
6
DOT
62
7
100
AcDbCircle
10
350.830000000000
20
399.770000000000
30
0.0
40
5.999999908949
100
AcDbArc
50
90.000000000000
51
110.570495605469
0
ARC
5
9d3
100
AcDbEntity
8
0-1
6
DOT
62
7
100
AcDbCircle
10
335.940000000000
20
392.580000000000
30
0.0
40
0.999999984825
100
AcDbArc
50
230.025924682617
51
270.000000000000
0
ARC
5
9d4
100
AcDbEntity
8
0-1
6
DOT
62
7
100
AcDbCircle
10
351.920000000000
20
389.770000000000
30
0.0
40
5.999999908949
100
AcDbArc
50
90.000000000000
51
129.974060058594
0
ARC
5
9d5
100
AcDbEntity
8
0-1
6
DOT
62
7
100
AcDbCircle
10
344.560000000000
20
404.890000000000
30
0.0
40
0.999999984825
100
AcDbArc
50
270.000000000000
51
290.570495605469
0
ARC
5
9d6
100
AcDbEntity
8
0-1
6
DOT
62
7
100
AcDbCircle
10
329.480000000000
20
399.770000000000
30
0.0
40
5.999999908949
100
AcDbArc
50
69.429489135742
51
90.000000000000
0
ARC
5
9d7
100
AcDbEntity
8
0-1
6
DOT
62
7
100
AcDbCircle
10
340.160000000000
20
404.770000000000
30
0.0
40
23.999999635796
100
AcDbArc
50
83.081878662109
51
96.918106079102
0
ARC
5
9d8
100
AcDbEntity
8
0-1
6
DOT
62
7
100
AcDbCircle
10
352.660000000000
20
426.770000000000
30
0.0
40
9.999999848249
100
AcDbArc
50
360.000000000000
51
450.000000000000
0
ARC
5
9d9
100
AcDbEntity
8
0-1
6
DOT
62
7
100
AcDbCircle
10
327.660000000000
20
426.770000000000
30
0.0
40
9.999999848249
100
AcDbArc
50
90.000000000000
51
180.000000000000
0
ARC
5
9da
100
AcDbEntity
8
0-1
6
DOT
62
7
100
AcDbCircle
10
358.160000000000
20
417.870000000000
30
0.0
40
4.499999931712
100
AcDbArc
50
279.594055175781
51
317.917694091797
0
ARC
5
9db
100
AcDbEntity
8
0-1
6
DOT
62
7
100
AcDbCircle
10
322.160000000000
20
417.870000000000
30
0.0
40
4.499999931712
100
AcDbArc
50
222.082290649414
51
260.405929565430
0
ARC
5
9dc
100
AcDbEntity
8
0-1
6
CONTINUOUS
62
7
100
AcDbCircle
10
330.300000000000
20
350.770000000000
30
0.0
40
3.999999939299
100
AcDbArc
50
90.000000000000
51
131.409606933594
0
ARC
5
9dd
100
AcDbEntity
8
0-1
6
CONTINUOUS
62
7
100
AcDbCircle
10
327.660000000000
20
353.770000000000
30
0.0
40
3.199999990148
100
AcDbArc
50
269.999984741211
51
311.409606933594
0
ARC
5
9de
100
AcDbEntity
8
0-1
6
CONTINUOUS
62
7
100
AcDbCircle
10
350.010000000000
20
350.770000000000
30
0.0
40
3.999999939299
100
AcDbArc
50
48.590377807617
51
90.000000000000
0
ARC
5
9df
100
AcDbEntity
8
0-1
6
CONTINUOUS
62
7
100
AcDbCircle
10
350.010000000000
20
350.770000000000
30
0.0
40
0.799999997537
100
AcDbArc
50
48.590377807617
51
90.000000000000
0
ARC
5
9e0
100
AcDbEntity
8
0-1
6
CONTINUOUS
62
7
100
AcDbCircle
10
330.300000000000
20
350.770000000000
30
0.0
40
0.799999997537
100
AcDbArc
50
90.000000000000
51
131.409606933594
0
ARC
5
9e1
100
AcDbEntity
8
0-1
6
CONTINUOUS
62
7
100
AcDbCircle
10
352.660000000000
20
353.770000000000
30
0.0
40
3.199999990148
100
AcDbArc
50
228.590377807617
51
270.000000000000
0
ARC
5
9e2
100
AcDbEntity
8
0-1
6
DOT
62
7
100
AcDbCircle
10
341.130000000000
20
427.980000000000
30
0.0
40
2.632683984122
100
AcDbArc
50
27.204330444336
51
36.104293823242
0
ARC
5
9e3
100
AcDbEntity
8
0-1
6
DOT
62
7
100
AcDbCircle
10
341.050000000000
20
427.830000000000
30
0.0
40
2.780902307096
100
AcDbArc
50
37.597259521484
51
46.497222900391
0
ARC
5
9e4
100
AcDbEntity
8
0-1
6
DOT
62
7
100
AcDbCircle
10
340.960000000000
20
427.700000000000
30
0.0
40
2.943910760106
100
AcDbArc
50
46.881134033203
51
55.781112670898
0
ARC
5
9e5
100
AcDbEntity
8
0-1
6
DOT
62
7
100
AcDbCircle
10
340.840000000000
20
427.590000000000
30
0.0
40
3.105037399482
100
AcDbArc
50
55.188629150391
51
64.088592529297
0
ARC
5
9e6
100
AcDbEntity
8
0-1
6
DOT
62
7
100
AcDbCircle
10
340.700000000000
20
427.490000000000
30
0.0
40
3.250238007944
100
AcDbArc
50
62.708374023438
51
71.608352661133
0
ARC
5
9e7
100
AcDbEntity
8
0-1
6
DOT
62
7
100
AcDbCircle
10
340.560000000000
20
427.420000000000
30
0.0
40
3.368475824972
100
AcDbArc
50
69.637023925781
51
78.537002563477
0
ARC
5
9e8
100
AcDbEntity
8
0-1
6
DOT
62
7
100
AcDbCircle
10
340.400000000000
20
427.370000000000
30
0.0
40
3.451677806204
100
AcDbArc
50
76.159515380859
51
85.059478759766
0
ARC
5
9e9
100
AcDbEntity
8
0-1
6
DOT
62
7
100
AcDbCircle
10
340.240000000000
20
427.340000000000
30
0.0
40
3.494576886304
100
AcDbArc
50
82.445663452148
51
91.345642089844
0
ARC
5
9ea
100
AcDbEntity
8
0-1
6
DOT
62
7
100
AcDbCircle
10
340.080000000000
20
427.340000000000
30
0.0
40
3.494576886304
100
AcDbArc
50
88.654342651367
51
97.554321289063
0
ARC
5
9eb
100
AcDbEntity
8
0-1
6
DOT
62
7
100
AcDbCircle
10
339.910000000000
20
427.370000000000
30
0.0
40
3.451677806204
100
AcDbArc
50
94.940505981445
51
103.840469360352
0
ARC
5
9ec
100
AcDbEntity
8
0-1
6
DOT
62
7
100
AcDbCircle
10
339.760000000000
20
427.420000000000
30
0.0
40
3.368475824972
100
AcDbArc
50
101.462982177734
51
110.362960815430
0
ARC
5
9ed
100
AcDbEntity
8
0-1
6
DOT
62
7
100
AcDbCircle
10
339.610000000000
20
427.490000000000
30
0.0
40
3.250238007944
100
AcDbArc
50
108.391632080078
51
117.291610717773
0
ARC
5
9ee
100
AcDbEntity
8
0-1
6
DOT
62
7
100
AcDbCircle
10
339.480000000000
20
427.590000000000
30
0.0
40
3.105037399482
100
AcDbArc
50
115.911392211914
51
124.811355590820
0
ARC
5
9ef
100
AcDbEntity
8
0-1
6
DOT
62
7
100
AcDbCircle
10
339.360000000000
20
427.700000000000
30
0.0
40
2.943910760106
100
AcDbArc
50
124.218872070313
51
133.118850708008
0
ARC
5
9f0
100
AcDbEntity
8
0-1
6
DOT
62
7
100
AcDbCircle
10
339.260000000000
20
427.830000000000
30
0.0
40
2.780902307096
100
AcDbArc
50
133.502761840820
51
142.402725219727
0
ARC
5
9f1
100
AcDbEntity
8
0-1
6
DOT
62
7
100
AcDbCircle
10
339.190000000000
20
427.980000000000
30
0.0
40
2.632683984122
100
AcDbArc
50
143.895690917969
51
152.795654296875
0
ARC
5
9f2
100
AcDbEntity
8
0-1
6
DOT
62
7
100
AcDbCircle
10
341.180000000000
20
429.760000000000
30
0.0
40
2.487772141056
100
AcDbArc
50
4.680358886719
51
27.180358886719
0
ARC
5
9f3
100
AcDbEntity
8
0-1
6
DOT
62
7
100
AcDbCircle
10
341.020000000000
20
429.390000000000
30
0.0
40
2.809625561023
100
AcDbArc
50
32.545272827148
51
55.045272827148
0
ARC
5
9f4
100
AcDbEntity
8
0-1
6
DOT
62
7
100
AcDbCircle
10
340.740000000000
20
429.100000000000
30
0.0
40
3.210172389905
100
AcDbArc
50
53.781234741211
51
76.281234741211
0
ARC
5
9f5
100
AcDbEntity
8
0-1
6
DOT
62
7
100
AcDbCircle
10
340.360000000000
20
428.950000000000
30
0.0
40
3.465571834511
100
AcDbArc
50
70.858001708984
51
93.358001708984
0
ARC
5
9f6
100
AcDbEntity
8
0-1
6
DOT
62
7
100
AcDbCircle
10
339.950000000000
20
428.950000000000
30
0.0
40
3.465571834511
100
AcDbArc
50
86.641983032227
51
109.141983032227
0
ARC
5
9f7
100
AcDbEntity
8
0-1
6
DOT
62
7
100
AcDbCircle
10
339.580000000000
20
429.100000000000
30
0.0
40
3.210172389905
100
AcDbArc
50
103.718750000000
51
126.218750000000
0
ARC
5
9f8
100
AcDbEntity
8
0-1
6
DOT
62
7
100
AcDbCircle
10
339.290000000000
20
429.390000000000
30
0.0
40
2.809625561023
100
AcDbArc
50
124.954711914063
51
147.454711914063
0
ARC
5
9f9
100
AcDbEntity
8
0-1
6
DOT
62
7
100
AcDbCircle
10
339.140000000000
20
429.760000000000
30
0.0
40
2.487772141056
100
AcDbArc
50
152.819625854492
51
175.319625854492
0
ARC
5
9fa
100
AcDbEntity
8
0-1
6
DOT
62
7
100
AcDbCircle
10
339.140000000000
20
430.170000000000
30
0.0
40
2.487772141056
100
AcDbArc
50
184.680358886719
51
207.180358886719
0
ARC
5
9fb
100
AcDbEntity
8
0-1
6
DOT
62
7
100
AcDbCircle
10
339.290000000000
20
430.550000000000
30
0.0
40
2.809625561023
100
AcDbArc
50
212.545272827148
51
235.045272827148
0
ARC
5
9fc
100
AcDbEntity
8
0-1
6
DOT
62
7
100
AcDbCircle
10
339.580000000000
20
430.830000000000
30
0.0
40
3.210172389905
100
AcDbArc
50
233.781234741211
51
256.281234741211
0
ARC
5
9fd
100
AcDbEntity
8
0-1
6
DOT
62
7
100
AcDbCircle
10
339.950000000000
20
430.990000000000
30
0.0
40
3.465571834511
100
AcDbArc
50
250.858001708984
51
273.358001708984
0
ARC
5
9fe
100
AcDbEntity
8
0-1
6
DOT
62
7
100
AcDbCircle
10
340.360000000000
20
430.990000000000
30
0.0
40
3.465571834511
100
AcDbArc
50
266.641983032227
51
289.141983032227
0
ARC
5
9ff
100
AcDbEntity
8
0-1
6
DOT
62
7
100
AcDbCircle
10
340.740000000000
20
430.830000000000
30
0.0
40
3.210172389905
100
AcDbArc
50
283.718750000000
51
306.218750000000
0
ARC
5
a00
100
AcDbEntity
8
0-1
6
DOT
62
7
100
AcDbCircle
10
341.020000000000
20
430.550000000000
30
0.0
40
2.809625561023
100
AcDbArc
50
304.954711914063
51
327.454711914063
0
ARC
5
a01
100
AcDbEntity
8
0-1
6
DOT
62
7
100
AcDbCircle
10
341.180000000000
20
430.170000000000
30
0.0
40
2.487772141056
100
AcDbArc
50
332.819625854492
51
355.319625854492
0
ARC
5
a02
100
AcDbEntity
8
F-4
6
CONTINUOUS
62
7
100
AcDbCircle
10
395.190000000000
20
890.700000000000
30
0.0
40
11.673138292448
100
AcDbArc
50
205.000000000000
51
335.000000000000
0
ARC
5
a03
100
AcDbEntity
8
F-4
6
CONTINUOUS
62
7
100
AcDbCircle
10
395.190000000000
20
890.700000000000
30
0.0
40
10.073138007060
100
AcDbArc
50
205.000000000000
51
335.000000000000
0
ARC
5
a04
100
AcDbEntity
8
F-4
6
CONTINUOUS
62
7
100
AcDbCircle
10
456.920000000000
20
832.910000000000
30
0.0
40
1.999999969650
100
AcDbArc
50
257.303695678711
51
367.867828369141
0
ARC
5
a05
100
AcDbEntity
8
F-4
6
CONTINUOUS
62
7
100
AcDbCircle
10
456.920000000000
20
832.910000000000
30
0.0
40
3.599999867952
100
AcDbArc
50
257.304580688477
51
367.867523193359
0
ARC
5
a06
100
AcDbEntity
8
F-4
6
CONTINUOUS
62
7
100
AcDbCircle
10
412.700000000000
20
882.590000000000
30
0.0
40
7.619216641132
100
AcDbArc
50
77.166793823242
51
155.346847534180
0
ARC
5
a07
100
AcDbEntity
8
F-4
6
CONTINUOUS
62
7
100
AcDbCircle
10
412.700000000000
20
882.590000000000
30
0.0
40
9.219216926519
100
AcDbArc
50
77.166793823242
51
155.346847534180
0
ARC
5
a08
100
AcDbEntity
8
F-4
6
CONTINUOUS
62
7
100
AcDbCircle
10
377.680000000000
20
882.600000000000
30
0.0
40
7.619216641132
100
AcDbArc
50
24.653152465820
51
102.833206176758
0
ARC
5
a09
100
AcDbEntity
8
F-4
6
CONTINUOUS
62
7
100
AcDbCircle
10
377.680000000000
20
882.600000000000
30
0.0
40
9.219216926519
100
AcDbArc
50
24.653152465820
51
102.833206176758
0
ARC
5
a0a
100
AcDbEntity
8
F-4
6
CONTINUOUS
62
7
100
AcDbCircle
10
338.410000000000
20
834.110000000000
30
0.0
40
7.040000481536
100
AcDbArc
50
175.000000000000
51
-85.000000000000
0
ARC
5
a0b
100
AcDbEntity
8
F-4
6
CONTINUOUS
62
7
100
AcDbCircle
10
395.190000000000
20
829.150000000000
30
0.0
40
64.040001939063
100
AcDbArc
50
110.000000000000
51
175.000015258789
0
ARC
5
a0c
100
AcDbEntity
8
F-4
6
CONTINUOUS
62
7
100
AcDbCircle
10
395.190000000000
20
829.150000000000
30
0.0
40
65.640000676111
100
AcDbArc
50
110.000000000000
51
175.000015258789
0
ARC
5
a0d
100
AcDbEntity
8
F-4
6
CONTINUOUS
62
7
100
AcDbCircle
10
338.410000000000
20
834.110000000000
30
0.0
40
8.639999992754
100
AcDbArc
50
175.000000000000
51
-85.000000000000
0
ARC
5
a0e
100
AcDbEntity
8
F-4
6
CONTINUOUS
62
7
100
AcDbCircle
10
395.720000000000
20
830.060000000000
30
0.0
40
64.400003358072
100
AcDbArc
50
41.370315551758
51
72.696578979492
0
ARC
5
a0f
100
AcDbEntity
8
F-4
6
CONTINUOUS
62
7
100
AcDbCircle
10
378.420000000000
20
822.060000000000
30
0.0
40
82.841375960286
100
AcDbArc
50
7.867309570313
51
37.610107421875
0
ARC
5
a10
100
AcDbEntity
8
F-4
6
CONTINUOUS
62
7
100
AcDbCircle
10
378.420000000000
20
822.060000000000
30
0.0
40
81.241377223238
100
AcDbArc
50
7.867309570313
51
37.572891235352
0
ARC
5
a11
100
AcDbEntity
8
F-4
6
CONTINUOUS
62
7
100
AcDbCircle
10
395.720000000000
20
830.060000000000
30
0.0
40
62.799998427665
100
AcDbArc
50
41.417984008789
51
72.704483032227
0
ARC
5
a12
100
AcDbEntity
8
F-4
6
CONTINUOUS
62
3
100
AcDbCircle
10
337.050000000000
20
833.440000000000
30
0.0
40
7.999999878599
100
AcDbArc
50
175.754409790039
51
-108.687988281250
0
ARC
5
a13
100
AcDbEntity
8
F-4
6
CONTINUOUS
62
3
100
AcDbCircle
10
337.050000000000
20
833.440000000000
30
0.0
40
9.599999389817
100
AcDbArc
50
175.754409790039
51
-107.039047241211
0
ARC
5
a14
100
AcDbEntity
8
F-4
6
CONTINUOUS
62
3
100
AcDbCircle
10
337.820000000000
20
835.460000000000
30
0.0
40
11.755547910724
100
AcDbArc
50
250.836471557617
51
268.367553710938
0
ARC
5
a15
100
AcDbEntity
8
F-4
6
CONTINUOUS
62
3
100
AcDbCircle
10
337.820000000000
20
835.460000000000
30
0.0
40
10.155547625336
100
AcDbArc
50
250.836471557617
51
267.857711791992
0
ARC
5
a16
100
AcDbEntity
8
0-0
6
CONTINUOUS
62
3
100
AcDbCircle
10
646.880000000000
20
817.030000000000
30
0.0
40
1.999999969650
100
AcDbArc
50
172.724990844727
51
263.257995605469
0
ARC
5
a17
100
AcDbEntity
8
0-0
6
CONTINUOUS
62
3
100
AcDbCircle
10
706.540000000000
20
812.720000000000
30
0.0
40
1.999999969650
100
AcDbArc
50
92.479995727539
51
243.434997558594
0
ARC
5
a18
100
AcDbEntity
8
0-0
6
CONTINUOUS
62
3
100
AcDbCircle
10
672.640000000000
20
818.410000000000
30
0.0
40
27.766804099168
100
AcDbArc
50
94.125991821289
51
182.331985473633
0
ARC
5
a19
100
AcDbEntity
8
0-0
6
CONTINUOUS
62
3
100
AcDbCircle
10
710.920000000000
20
817.030000000000
30
0.0
40
1.999999969650
100
AcDbArc
50
276.741989135742
51
7.274993896484
0
ARC
5
a1a
100
AcDbEntity
8
0-0
6
CONTINUOUS
62
3
100
AcDbCircle
10
685.160000000000
20
818.410000000000
30
0.0
40
27.766804099168
100
AcDbArc
50
357.667999267578
51
85.873992919922
0
ARC
5
a1b
100
AcDbEntity
8
0-0
6
CONTINUOUS
62
3
100
AcDbCircle
10
951.260000000000
20
812.720000000000
30
0.0
40
1.999999969650
100
AcDbArc
50
296.564987182617
51
83.257995605469
0
ARC
5
a1c
100
AcDbEntity
8
0-0
6
CONTINUOUS
62
3
100
AcDbCircle
10
975.230000000000
20
817.020000000000
30
0.0
40
29.334869873627
100
AcDbArc
50
96.732986450195
51
179.487991333008
0
ARC
5
a1d
100
AcDbEntity
8
0-0
6
CONTINUOUS
62
3
100
AcDbCircle
10
1006.540000000000
20
812.720000000000
30
0.0
40
1.999999969650
100
AcDbArc
50
96.741989135742
51
243.434997558594
0
ARC
5
a1e
100
AcDbEntity
8
0-0
6
CONTINUOUS
62
3
100
AcDbCircle
10
948.040000000000
20
817.270000000000
30
0.0
40
2.143100061462
100
AcDbArc
50
179.467987060547
51
263.257995605469
0
ARC
5
a1f
100
AcDbEntity
8
0-0
6
CONTINUOUS
62
3
100
AcDbCircle
10
982.570000000000
20
817.020000000000
30
0.0
40
29.334869873627
100
AcDbArc
50
0.511993408203
51
83.266998291016
0
ARC
5
a20
100
AcDbEntity
8
0-0
6
CONTINUOUS
62
3
100
AcDbCircle
10
1009.760000000000
20
817.270000000000
30
0.0
40
2.143100061462
100
AcDbArc
50
276.741989135742
51
0.531997680664
0
ARC
5
a21
100
AcDbEntity
8
0-0
6
CONTINUOUS
62
3
100
AcDbCircle
10
1272.640000000000
20
818.410000000000
30
0.0
40
25.766801032838
100
AcDbArc
50
92.064987182617
51
181.030990600586
0
ARC
5
a22
100
AcDbEntity
8
0-0
6
CONTINUOUS
62
3
100
AcDbCircle
10
1285.160000000000
20
818.410000000000
30
0.0
40
25.766801032838
100
AcDbArc
50
69.785995483398
51
87.934997558594
0
ARC
5
a23
100
AcDbEntity
8
0-0
6
CONTINUOUS
62
3
100
AcDbCircle
10
1250.310000000000
20
813.570000000000
30
0.0
40
3.220483753170
100
AcDbArc
50
305.215988159180
51
86.117996215820
0
ARC
5
a24
100
AcDbEntity
8
0-0
6
CONTINUOUS
62
3
100
AcDbCircle
10
1247.880000000000
20
817.970000000000
30
0.0
40
0.999999984825
100
AcDbArc
50
181.030990600586
51
266.117996215820
0
ARC
5
a25
100
AcDbEntity
8
0-0
6
CONTINUOUS
62
3
100
AcDbCircle
10
646.880000000000
20
817.030000000000
30
0.0
40
1.200000020498
100
AcDbArc
50
169.895996093750
51
262.424987792969
0
ARC
5
a26
100
AcDbEntity
8
0-0
6
CONTINUOUS
62
3
100
AcDbCircle
10
672.640000000000
20
818.410000000000
30
0.0
40
26.966801633964
100
AcDbArc
50
94.040985107422
51
182.491989135742
0
ARC
5
a27
100
AcDbEntity
8
0-0
6
CONTINUOUS
62
3
100
AcDbCircle
10
685.160000000000
20
818.410000000000
30
0.0
40
26.966801633964
100
AcDbArc
50
357.507995605469
51
85.958999633789
0
ARC
5
a28
100
AcDbEntity
8
0-0
6
CONTINUOUS
62
3
100
AcDbCircle
10
710.920000000000
20
817.030000000000
30
0.0
40
1.200000020498
100
AcDbArc
50
277.574996948242
51
10.103988647461
0
ARC
5
a29
100
AcDbEntity
8
0-0
6
CONTINUOUS
62
3
100
AcDbCircle
10
706.540000000000
20
812.720000000000
30
0.0
40
2.799999918801
100
AcDbArc
50
92.479995727539
51
242.092987060547
0
ARC
5
a2a
100
AcDbEntity
8
0-0
6
CONTINUOUS
62
3
100
AcDbCircle
10
951.260000000000
20
812.720000000000
30
0.0
40
2.799999918801
100
AcDbArc
50
297.906997680664
51
83.257995605469
0
ARC
5
a2b
100
AcDbEntity
8
0-0
6
CONTINUOUS
62
3
100
AcDbCircle
10
948.040000000000
20
817.270000000000
30
0.0
40
1.343100015540
100
AcDbArc
50
179.467987060547
51
263.257995605469
0
ARC
5
a2c
100
AcDbEntity
8
0-0
6
CONTINUOUS
62
3
100
AcDbCircle
10
975.230000000000
20
817.020000000000
30
0.0
40
28.534870505103
100
AcDbArc
50
96.905990600586
51
179.467987060547
0
ARC
5
a2d
100
AcDbEntity
8
0-0
6
CONTINUOUS
62
3
100
AcDbCircle
10
982.570000000000
20
817.020000000000
30
0.0
40
28.534870505103
100
AcDbArc
50
0.531997680664
51
83.093994140625
0
ARC
5
a2e
100
AcDbEntity
8
0-0
6
CONTINUOUS
62
3
100
AcDbCircle
10
1009.760000000000
20
817.270000000000
30
0.0
40
1.343100015540
100
AcDbArc
50
276.741989135742
51
0.531997680664
0
ARC
5
a2f
100
AcDbEntity
8
0-0
6
CONTINUOUS
62
3
100
AcDbCircle
10
1006.540000000000
20
812.720000000000
30
0.0
40
2.799999918801
100
AcDbArc
50
96.741989135742
51
242.092987060547
0
ARC
5
a30
100
AcDbEntity
8
0-0
6
CONTINUOUS
62
3
100
AcDbCircle
10
1250.310000000000
20
813.570000000000
30
0.0
40
4.020484089407
100
AcDbArc
50
305.215988159180
51
86.117996215820
0
ARC
5
a31
100
AcDbEntity
8
0-0
6
CONTINUOUS
62
3
100
AcDbCircle
10
1247.880000000000
20
817.970000000000
30
0.0
40
0.199999999384
100
AcDbArc
50
181.030990600586
51
266.117996215820
0
ARC
5
a32
100
AcDbEntity
8
0-0
6
CONTINUOUS
62
3
100
AcDbCircle
10
1272.640000000000
20
818.410000000000
30
0.0
40
24.966804760994
100
AcDbArc
50
92.227996826172
51
181.030990600586
0
ARC
5
a33
100
AcDbEntity
8
0-0
6
CONTINUOUS
62
3
100
AcDbCircle
10
1285.160000000000
20
818.410000000000
30
0.0
40
24.966804760994
100
AcDbArc
50
69.785995483398
51
87.771987915039
0
ARC
5
a34
100
AcDbEntity
8
0-0
6
CONTINUOUS
62
3
100
AcDbCircle
10
671.400000000000
20
841.670000000000
30
0.0
40
4.499999931712
100
AcDbArc
50
15.000000000000
51
99.613998413086
0
ARC
5
a35
100
AcDbEntity
8
0-0
6
CONTINUOUS
62
3
100
AcDbCircle
10
678.900000000000
20
843.380000000000
30
0.0
40
3.201169954503
100
AcDbArc
50
189.826995849609
51
350.172988891602
0
ARC
5
a36
100
AcDbEntity
8
0-0
6
CONTINUOUS
62
3
100
AcDbCircle
10
686.400000000000
20
841.670000000000
30
0.0
40
4.499999931712
100
AcDbArc
50
80.385986328125
51
165.000000000000
0
ARC
5
a37
100
AcDbEntity
8
0-0
6
CONTINUOUS
62
3
100
AcDbCircle
10
686.400000000000
20
841.670000000000
30
0.0
40
3.699999789018
100
AcDbArc
50
79.816986083984
51
169.473999023438
0
ARC
5
a38
100
AcDbEntity
8
0-0
6
CONTINUOUS
62
3
100
AcDbCircle
10
678.900000000000
20
843.380000000000
30
0.0
40
4.001169710112
100
AcDbArc
50
190.700988769531
51
345.000991821289
0
ARC
5
a39
100
AcDbEntity
8
0-0
6
CONTINUOUS
62
3
100
AcDbCircle
10
671.400000000000
20
841.670000000000
30
0.0
40
3.699999789018
100
AcDbArc
50
15.173995971680
51
100.182998657227
0
ARC
5
a3a
100
AcDbEntity
8
0-0
6
CONTINUOUS
62
3
100
AcDbCircle
10
971.400000000000
20
841.670000000000
30
0.0
40
4.499999931712
100
AcDbArc
50
15.000000000000
51
84.941986083984
0
ARC
5
a3b
100
AcDbEntity
8
0-0
6
CONTINUOUS
62
3
100
AcDbCircle
10
978.900000000000
20
843.380000000000
30
0.0
40
3.201169954503
100
AcDbArc
50
189.826995849609
51
350.172988891602
0
ARC
5
a3c
100
AcDbEntity
8
0-0
6
CONTINUOUS
62
3
100
AcDbCircle
10
986.400000000000
20
841.670000000000
30
0.0
40
4.499999931712
100
AcDbArc
50
95.057998657227
51
165.000000000000
0
ARC
5
a3d
100
AcDbEntity
8
0-0
6
CONTINUOUS
62
3
100
AcDbCircle
10
986.400000000000
20
841.670000000000
30
0.0
40
3.699999789018
100
AcDbArc
50
96.283996582031
51
169.473999023438
0
ARC
5
a3e
100
AcDbEntity
8
0-0
6
CONTINUOUS
62
3
100
AcDbCircle
10
978.900000000000
20
843.380000000000
30
0.0
40
4.001169710112
100
AcDbArc
50
190.700988769531
51
345.000991821289
0
ARC
5
a3f
100
AcDbEntity
8
0-0
6
CONTINUOUS
62
3
100
AcDbCircle
10
971.400000000000
20
841.670000000000
30
0.0
40
3.699999789018
100
AcDbArc
50
15.173995971680
51
83.715988159180
0
ARC
5
a40
100
AcDbEntity
8
0-0
6
CONTINUOUS
62
3
100
AcDbCircle
10
1271.400000000000
20
841.670000000000
30
0.0
40
2.512265910939
100
AcDbArc
50
14.639999389648
51
82.724990844727
0
ARC
5
a41
100
AcDbEntity
8
0-0
6
CONTINUOUS
62
3
100
AcDbCircle
10
1286.400000000000
20
841.670000000000
30
0.0
40
2.512265910939
100
AcDbArc
50
97.274993896484
51
165.359985351563
0
ARC
5
a42
100
AcDbEntity
8
0-0
6
CONTINUOUS
62
3
100
AcDbCircle
10
1278.900000000000
20
843.380000000000
30
0.0
40
5.184863582245
100
AcDbArc
50
191.982986450195
51
348.016998291016
0
ARC
5
a43
100
AcDbEntity
8
0-0
6
CONTINUOUS
62
3
100
AcDbCircle
10
1286.400000000000
20
841.670000000000
30
0.0
40
1.712265961787
100
AcDbArc
50
99.270996093750
51
169.477996826172
0
ARC
5
a44
100
AcDbEntity
8
0-0
6
CONTINUOUS
62
3
100
AcDbCircle
10
1278.900000000000
20
843.380000000000
30
0.0
40
5.984864112024
100
AcDbArc
50
192.183990478516
51
346.483993530273
0
ARC
5
a45
100
AcDbEntity
8
0-0
6
CONTINUOUS
62
3
100
AcDbCircle
10
1271.400000000000
20
841.670000000000
30
0.0
40
1.712265961787
100
AcDbArc
50
15.177993774414
51
80.728988647461
0
ARC
5
a46
100
AcDbEntity
8
0-2
6
CONTINUOUS
62
7
100
AcDbCircle
10
678.900000000000
20
414.570000000000
30
0.0
40
31.999999514395
100
AcDbArc
50
10.564987182617
51
58.778991699219
0
ARC
5
a47
100
AcDbEntity
8
0-2
6
CONTINUOUS
62
7
100
AcDbCircle
10
678.900000000000
20
414.570000000000
30
0.0
40
31.999999514395
100
AcDbArc
50
121.220993041992
51
169.434997558594
0
ARC
5
a48
100
AcDbEntity
8
0-2
6
CONTINUOUS
62
7
100
AcDbCircle
10
694.450000000000
20
440.220000000000
30
0.0
40
1.999999969650
100
AcDbArc
50
58.778991699219
51
165.000000000000
0
ARC
5
a49
100
AcDbEntity
8
0-2
6
CONTINUOUS
62
7
100
AcDbCircle
10
663.350000000000
20
440.220000000000
30
0.0
40
1.999999969650
100
AcDbArc
50
15.000000000000
51
121.220993041992
0
ARC
5
a4a
100
AcDbEntity
8
0-2
6
CONTINUOUS
62
7
100
AcDbCircle
10
665.400000000000
20
418.460000000000
30
0.0
40
0.999999984825
100
AcDbArc
50
360.000000000000
51
455.000000000000
0
ARC
5
a4b
100
AcDbEntity
8
0-2
6
CONTINUOUS
62
7
100
AcDbCircle
10
649.410000000000
20
420.070000000000
30
0.0
40
1.999999969650
100
AcDbArc
50
169.434997558594
51
275.000000000000
0
ARC
5
a4c
100
AcDbEntity
8
0-2
6
CONTINUOUS
62
7
100
AcDbCircle
10
692.400000000000
20
418.460000000000
30
0.0
40
0.999999984825
100
AcDbArc
50
85.000000000000
51
180.000000000000
0
ARC
5
a4d
100
AcDbEntity
8
0-2
6
CONTINUOUS
62
7
100
AcDbCircle
10
708.390000000000
20
420.070000000000
30
0.0
40
1.999999969650
100
AcDbArc
50
265.000000000000
51
370.564987182617
0
ARC
5
a4e
100
AcDbEntity
8
0-2
6
CONTINUOUS
62
7
100
AcDbCircle
10
978.900000000000
20
414.570000000000
30
0.0
40
31.999999514395
100
AcDbArc
50
10.564987182617
51
58.778991699219
0
ARC
5
a4f
100
AcDbEntity
8
0-2
6
CONTINUOUS
62
7
100
AcDbCircle
10
978.900000000000
20
414.570000000000
30
0.0
40
31.999999514395
100
AcDbArc
50
121.220993041992
51
169.434997558594
0
ARC
5
a50
100
AcDbEntity
8
0-2
6
CONTINUOUS
62
7
100
AcDbCircle
10
994.450000000000
20
440.220000000000
30
0.0
40
1.999999969650
100
AcDbArc
50
58.778991699219
51
165.000000000000
0
ARC
5
a51
100
AcDbEntity
8
0-2
6
CONTINUOUS
62
7
100
AcDbCircle
10
963.350000000000
20
440.220000000000
30
0.0
40
1.999999969650
100
AcDbArc
50
15.000000000000
51
121.220993041992
0
ARC
5
a52
100
AcDbEntity
8
0-2
6
CONTINUOUS
62
7
100
AcDbCircle
10
965.400000000000
20
418.460000000000
30
0.0
40
0.999999984825
100
AcDbArc
50
360.000000000000
51
455.000000000000
0
ARC
5
a53
100
AcDbEntity
8
0-2
6
CONTINUOUS
62
7
100
AcDbCircle
10
949.410000000000
20
420.070000000000
30
0.0
40
1.999999969650
100
AcDbArc
50
169.434997558594
51
275.000000000000
0
ARC
5
a54
100
AcDbEntity
8
0-2
6
CONTINUOUS
62
7
100
AcDbCircle
10
992.400000000000
20
418.460000000000
30
0.0
40
0.999999984825
100
AcDbArc
50
85.000000000000
51
180.000000000000
0
ARC
5
a55
100
AcDbEntity
8
0-2
6
CONTINUOUS
62
7
100
AcDbCircle
10
1008.390000000000
20
420.070000000000
30
0.0
40
1.999999969650
100
AcDbArc
50
265.000000000000
51
370.564987182617
0
ARC
5
a56
100
AcDbEntity
8
0-2
6
CONTINUOUS
62
3
100
AcDbCircle
10
646.880000000000
20
417.430000000000
30
0.0
40
1.999999969650
100
AcDbArc
50
172.724990844727
51
263.257995605469
0
ARC
5
a57
100
AcDbEntity
8
0-2
6
CONTINUOUS
62
3
100
AcDbCircle
10
706.540000000000
20
413.120000000000
30
0.0
40
1.999999969650
100
AcDbArc
50
92.479995727539
51
243.434997558594
0
ARC
5
a58
100
AcDbEntity
8
0-2
6
CONTINUOUS
62
3
100
AcDbCircle
10
672.640000000000
20
418.810000000000
30
0.0
40
27.766804099168
100
AcDbArc
50
94.125991821289
51
182.331985473633
0
ARC
5
a59
100
AcDbEntity
8
0-2
6
CONTINUOUS
62
3
100
AcDbCircle
10
710.920000000000
20
417.430000000000
30
0.0
40
1.999999969650
100
AcDbArc
50
276.741989135742
51
7.274993896484
0
ARC
5
a5a
100
AcDbEntity
8
0-2
6
CONTINUOUS
62
3
100
AcDbCircle
10
685.160000000000
20
418.810000000000
30
0.0
40
27.766804099168
100
AcDbArc
50
357.667999267578
51
85.873992919922
0
ARC
5
a5b
100
AcDbEntity
8
0-2
6
CONTINUOUS
62
3
100
AcDbCircle
10
951.260000000000
20
413.120000000000
30
0.0
40
1.999999969650
100
AcDbArc
50
296.564987182617
51
83.257995605469
0
ARC
5
a5c
100
AcDbEntity
8
0-2
6
CONTINUOUS
62
3
100
AcDbCircle
10
975.230000000000
20
417.420000000000
30
0.0
40
29.334869873627
100
AcDbArc
50
96.732986450195
51
179.487991333008
0
ARC
5
a5d
100
AcDbEntity
8
0-2
6
CONTINUOUS
62
3
100
AcDbCircle
10
1006.540000000000
20
413.120000000000
30
0.0
40
1.999999969650
100
AcDbArc
50
96.741989135742
51
243.434997558594
0
ARC
5
a5e
100
AcDbEntity
8
0-2
6
CONTINUOUS
62
3
100
AcDbCircle
10
948.040000000000
20
417.670000000000
30
0.0
40
2.143100061462
100
AcDbArc
50
179.467987060547
51
263.257995605469
0
ARC
5
a5f
100
AcDbEntity
8
0-2
6
CONTINUOUS
62
3
100
AcDbCircle
10
982.570000000000
20
417.420000000000
30
0.0
40
29.334869873627
100
AcDbArc
50
0.511993408203
51
83.266998291016
0
ARC
5
a60
100
AcDbEntity
8
0-2
6
CONTINUOUS
62
3
100
AcDbCircle
10
1009.760000000000
20
417.670000000000
30
0.0
40
2.143100061462
100
AcDbArc
50
276.741989135742
51
0.531997680664
0
ARC
5
a61
100
AcDbEntity
8
0-2
6
CONTINUOUS
62
3
100
AcDbCircle
10
1272.640000000000
20
418.810000000000
30
0.0
40
25.766801032838
100
AcDbArc
50
92.064987182617
51
181.030990600586
0
ARC
5
a62
100
AcDbEntity
8
0-2
6
CONTINUOUS
62
3
100
AcDbCircle
10
1285.160000000000
20
418.810000000000
30
0.0
40
25.766801032838
100
AcDbArc
50
69.785995483398
51
87.934997558594
0
ARC
5
a63
100
AcDbEntity
8
0-2
6
CONTINUOUS
62
3
100
AcDbCircle
10
1250.310000000000
20
413.970000000000
30
0.0
40
3.220483753170
100
AcDbArc
50
305.215988159180
51
86.117996215820
0
ARC
5
a64
100
AcDbEntity
8
0-2
6
CONTINUOUS
62
3
100
AcDbCircle
10
1247.880000000000
20
418.360000000000
30
0.0
40
0.999999984825
100
AcDbArc
50
181.030990600586
51
266.117996215820
0
ARC
5
a65
100
AcDbEntity
8
0-2
6
CONTINUOUS
62
3
100
AcDbCircle
10
646.880000000000
20
417.430000000000
30
0.0
40
1.200000020498
100
AcDbArc
50
169.895996093750
51
262.424987792969
0
ARC
5
a66
100
AcDbEntity
8
0-2
6
CONTINUOUS
62
3
100
AcDbCircle
10
672.640000000000
20
418.810000000000
30
0.0
40
26.966801633964
100
AcDbArc
50
94.040985107422
51
182.491989135742
0
ARC
5
a67
100
AcDbEntity
8
0-2
6
CONTINUOUS
62
3
100
AcDbCircle
10
685.160000000000
20
418.810000000000
30
0.0
40
26.966801633964
100
AcDbArc
50
357.507995605469
51
85.958999633789
0
ARC
5
a68
100
AcDbEntity
8
0-2
6
CONTINUOUS
62
3
100
AcDbCircle
10
710.920000000000
20
417.430000000000
30
0.0
40
1.200000020498
100
AcDbArc
50
277.574996948242
51
10.103988647461
0
ARC
5
a69
100
AcDbEntity
8
0-2
6
CONTINUOUS
62
3
100
AcDbCircle
10
706.540000000000
20
413.120000000000
30
0.0
40
2.799999918801
100
AcDbArc
50
92.479995727539
51
242.092987060547
0
ARC
5
a6a
100
AcDbEntity
8
0-2
6
CONTINUOUS
62
3
100
AcDbCircle
10
951.260000000000
20
413.120000000000
30
0.0
40
2.799999918801
100
AcDbArc
50
297.906997680664
51
83.257995605469
0
ARC
5
a6b
100
AcDbEntity
8
0-2
6
CONTINUOUS
62
3
100
AcDbCircle
10
948.040000000000
20
417.670000000000
30
0.0
40
1.343100015540
100
AcDbArc
50
179.467987060547
51
263.257995605469
0
ARC
5
a6c
100
AcDbEntity
8
0-2
6
CONTINUOUS
62
3
100
AcDbCircle
10
975.230000000000
20
417.420000000000
30
0.0
40
28.534870505103
100
AcDbArc
50
96.905990600586
51
179.467987060547
0
ARC
5
a6d
100
AcDbEntity
8
0-2
6
CONTINUOUS
62
3
100
AcDbCircle
10
982.570000000000
20
417.420000000000
30
0.0
40
28.534870505103
100
AcDbArc
50
0.531997680664
51
83.093994140625
0
ARC
5
a6e
100
AcDbEntity
8
0-2
6
CONTINUOUS
62
3
100
AcDbCircle
10
1009.760000000000
20
417.670000000000
30
0.0
40
1.343100015540
100
AcDbArc
50
276.741989135742
51
0.531997680664
0
ARC
5
a6f
100
AcDbEntity
8
0-2
6
CONTINUOUS
62
3
100
AcDbCircle
10
1006.540000000000
20
413.120000000000
30
0.0
40
2.799999918801
100
AcDbArc
50
96.741989135742
51
242.092987060547
0
ARC
5
a70
100
AcDbEntity
8
0-2
6
CONTINUOUS
62
3
100
AcDbCircle
10
1250.310000000000
20
413.970000000000
30
0.0
40
4.020484089407
100
AcDbArc
50
305.215988159180
51
86.117996215820
0
ARC
5
a71
100
AcDbEntity
8
0-2
6
CONTINUOUS
62
3
100
AcDbCircle
10
1247.880000000000
20
418.360000000000
30
0.0
40
0.199999999384
100
AcDbArc
50
181.030990600586
51
266.117996215820
0
ARC
5
a72
100
AcDbEntity
8
0-2
6
CONTINUOUS
62
3
100
AcDbCircle
10
1272.640000000000
20
418.810000000000
30
0.0
40
24.966804760994
100
AcDbArc
50
92.227996826172
51
181.030990600586
0
ARC
5
a73
100
AcDbEntity
8
0-2
6
CONTINUOUS
62
3
100
AcDbCircle
10
1285.160000000000
20
418.810000000000
30
0.0
40
24.966804760994
100
AcDbArc
50
69.785995483398
51
87.771987915039
0
ARC
5
a74
100
AcDbEntity
8
0-2
6
CONTINUOUS
62
3
100
AcDbCircle
10
671.400000000000
20
442.070000000000
30
0.0
40
4.499999931712
100
AcDbArc
50
15.000000000000
51
99.613998413086
0
ARC
5
a75
100
AcDbEntity
8
0-2
6
CONTINUOUS
62
3
100
AcDbCircle
10
678.900000000000
20
443.780000000000
30
0.0
40
3.201169954503
100
AcDbArc
50
189.826995849609
51
350.172988891602
0
ARC
5
a76
100
AcDbEntity
8
0-2
6
CONTINUOUS
62
3
100
AcDbCircle
10
686.400000000000
20
442.070000000000
30
0.0
40
4.499999931712
100
AcDbArc
50
80.385986328125
51
165.000000000000
0
ARC
5
a77
100
AcDbEntity
8
0-2
6
CONTINUOUS
62
3
100
AcDbCircle
10
686.400000000000
20
442.070000000000
30
0.0
40
3.699999789018
100
AcDbArc
50
79.816986083984
51
169.473999023438
0
ARC
5
a78
100
AcDbEntity
8
0-2
6
CONTINUOUS
62
3
100
AcDbCircle
10
678.900000000000
20
443.780000000000
30
0.0
40
4.001169710112
100
AcDbArc
50
190.700988769531
51
345.000991821289
0
ARC
5
a79
100
AcDbEntity
8
0-2
6
CONTINUOUS
62
3
100
AcDbCircle
10
671.400000000000
20
442.070000000000
30
0.0
40
3.699999789018
100
AcDbArc
50
15.173995971680
51
100.182998657227
0
ARC
5
a7a
100
AcDbEntity
8
0-2
6
CONTINUOUS
62
3
100
AcDbCircle
10
971.400000000000
20
442.070000000000
30
0.0
40
4.499999931712
100
AcDbArc
50
15.000000000000
51
84.941986083984
0
ARC
5
a7b
100
AcDbEntity
8
0-2
6
CONTINUOUS
62
3
100
AcDbCircle
10
978.900000000000
20
443.780000000000
30
0.0
40
3.201169954503
100
AcDbArc
50
189.826995849609
51
350.172988891602
0
ARC
5
a7c
100
AcDbEntity
8
0-2
6
CONTINUOUS
62
3
100
AcDbCircle
10
986.400000000000
20
442.070000000000
30
0.0
40
4.499999931712
100
AcDbArc
50
95.057998657227
51
165.000000000000
0
ARC
5
a7d
100
AcDbEntity
8
0-2
6
CONTINUOUS
62
3
100
AcDbCircle
10
986.400000000000
20
442.070000000000
30
0.0
40
3.699999789018
100
AcDbArc
50
96.283996582031
51
169.473999023438
0
ARC
5
a7e
100
AcDbEntity
8
0-2
6
CONTINUOUS
62
3
100
AcDbCircle
10
978.900000000000
20
443.780000000000
30
0.0
40
4.001169710112
100
AcDbArc
50
190.700988769531
51
345.000991821289
0
ARC
5
a7f
100
AcDbEntity
8
0-2
6
CONTINUOUS
62
3
100
AcDbCircle
10
971.400000000000
20
442.070000000000
30
0.0
40
3.699999789018
100
AcDbArc
50
15.173995971680
51
83.715988159180
0
ARC
5
a80
100
AcDbEntity
8
0-2
6
CONTINUOUS
62
3
100
AcDbCircle
10
1271.400000000000
20
442.070000000000
30
0.0
40
2.512265910939
100
AcDbArc
50
14.639999389648
51
82.724990844727
0
ARC
5
a81
100
AcDbEntity
8
0-2
6
CONTINUOUS
62
3
100
AcDbCircle
10
1286.400000000000
20
442.070000000000
30
0.0
40
2.512265910939
100
AcDbArc
50
97.274993896484
51
165.359985351563
0
ARC
5
a82
100
AcDbEntity
8
0-2
6
CONTINUOUS
62
3
100
AcDbCircle
10
1278.900000000000
20
443.780000000000
30
0.0
40
5.184863582245
100
AcDbArc
50
191.982986450195
51
348.016998291016
0
ARC
5
a83
100
AcDbEntity
8
0-2
6
CONTINUOUS
62
3
100
AcDbCircle
10
1286.400000000000
20
442.070000000000
30
0.0
40
1.712265961787
100
AcDbArc
50
99.270996093750
51
169.477996826172
0
ARC
5
a84
100
AcDbEntity
8
0-2
6
CONTINUOUS
62
3
100
AcDbCircle
10
1278.900000000000
20
443.780000000000
30
0.0
40
5.984864112024
100
AcDbArc
50
192.183990478516
51
346.483993530273
0
ARC
5
a85
100
AcDbEntity
8
0-2
6
CONTINUOUS
62
3
100
AcDbCircle
10
1271.400000000000
20
442.070000000000
30
0.0
40
1.712265961787
100
AcDbArc
50
15.177993774414
51
80.728988647461
0
ARC
5
a86
100
AcDbEntity
8
0-2
6
CONTINUOUS
62
7
100
AcDbCircle
10
1278.900000000000
20
414.570000000000
30
0.0
40
31.999999514395
100
AcDbArc
50
10.564987182617
51
58.778991699219
0
ARC
5
a87
100
AcDbEntity
8
0-2
6
CONTINUOUS
62
7
100
AcDbCircle
10
1278.900000000000
20
414.570000000000
30
0.0
40
31.999999514395
100
AcDbArc
50
121.220993041992
51
169.434997558594
0
ARC
5
a88
100
AcDbEntity
8
0-2
6
CONTINUOUS
62
7
100
AcDbCircle
10
1294.450000000000
20
440.220000000000
30
0.0
40
1.999999969650
100
AcDbArc
50
58.778991699219
51
165.000000000000
0
ARC
5
a89
100
AcDbEntity
8
0-2
6
CONTINUOUS
62
7
100
AcDbCircle
10
1263.350000000000
20
440.220000000000
30
0.0
40
1.999999969650
100
AcDbArc
50
15.000000000000
51
121.220993041992
0
ARC
5
a8a
100
AcDbEntity
8
0-2
6
CONTINUOUS
62
7
100
AcDbCircle
10
1265.400000000000
20
418.460000000000
30
0.0
40
0.999999984825
100
AcDbArc
50
360.000000000000
51
455.000000000000
0
ARC
5
a8b
100
AcDbEntity
8
0-2
6
CONTINUOUS
62
7
100
AcDbCircle
10
1249.410000000000
20
420.070000000000
30
0.0
40
1.999999969650
100
AcDbArc
50
169.434997558594
51
275.000000000000
0
ARC
5
a8c
100
AcDbEntity
8
0-2
6
CONTINUOUS
62
7
100
AcDbCircle
10
1292.400000000000
20
418.460000000000
30
0.0
40
0.999999984825
100
AcDbArc
50
85.000000000000
51
180.000000000000
0
ARC
5
a8d
100
AcDbEntity
8
0-2
6
CONTINUOUS
62
7
100
AcDbCircle
10
1308.390000000000
20
420.070000000000
30
0.0
40
1.999999969650
100
AcDbArc
50
265.000000000000
51
370.564987182617
0
ARC
5
a8e
100
AcDbEntity
8
0-2
6
CONTINUOUS
62
3
100
AcDbCircle
10
672.640000000000
20
418.810000000000
30
0.0
40
25.766801032838
100
AcDbArc
50
92.064987182617
51
181.030990600586
0
ARC
5
a8f
100
AcDbEntity
8
0-2
6
CONTINUOUS
62
3
100
AcDbCircle
10
685.160000000000
20
418.810000000000
30
0.0
40
25.766801032838
100
AcDbArc
50
69.785995483398
51
87.934997558594
0
ARC
5
a90
100
AcDbEntity
8
0-2
6
CONTINUOUS
62
3
100
AcDbCircle
10
650.310000000000
20
413.970000000000
30
0.0
40
3.220483753170
100
AcDbArc
50
305.215988159180
51
86.117996215820
0
ARC
5
a91
100
AcDbEntity
8
0-2
6
CONTINUOUS
62
3
100
AcDbCircle
10
647.880000000000
20
418.360000000000
30
0.0
40
0.999999984825
100
AcDbArc
50
181.030990600586
51
266.117996215820
0
ARC
5
a92
100
AcDbEntity
8
0-2
6
CONTINUOUS
62
3
100
AcDbCircle
10
650.310000000000
20
413.970000000000
30
0.0
40
4.020484089407
100
AcDbArc
50
305.215988159180
51
86.117996215820
0
ARC
5
a93
100
AcDbEntity
8
0-2
6
CONTINUOUS
62
3
100
AcDbCircle
10
647.880000000000
20
418.360000000000
30
0.0
40
0.199999999384
100
AcDbArc
50
181.030990600586
51
266.117996215820
0
ARC
5
a94
100
AcDbEntity
8
0-2
6
CONTINUOUS
62
3
100
AcDbCircle
10
672.640000000000
20
418.810000000000
30
0.0
40
24.966804760994
100
AcDbArc
50
92.227996826172
51
181.030990600586
0
ARC
5
a95
100
AcDbEntity
8
0-2
6
CONTINUOUS
62
3
100
AcDbCircle
10
685.160000000000
20
418.810000000000
30
0.0
40
24.966804760994
100
AcDbArc
50
69.785995483398
51
87.771987915039
0
ARC
5
a96
100
AcDbEntity
8
0-2
6
CONTINUOUS
62
3
100
AcDbCircle
10
671.400000000000
20
442.070000000000
30
0.0
40
2.512265910939
100
AcDbArc
50
14.639999389648
51
82.724990844727
0
ARC
5
a97
100
AcDbEntity
8
0-2
6
CONTINUOUS
62
3
100
AcDbCircle
10
686.400000000000
20
442.070000000000
30
0.0
40
2.512265910939
100
AcDbArc
50
97.274993896484
51
165.359985351563
0
ARC
5
a98
100
AcDbEntity
8
0-2
6
CONTINUOUS
62
3
100
AcDbCircle
10
678.900000000000
20
443.780000000000
30
0.0
40
5.184863582245
100
AcDbArc
50
191.982986450195
51
348.016998291016
0
ARC
5
a99
100
AcDbEntity
8
0-2
6
CONTINUOUS
62
3
100
AcDbCircle
10
686.400000000000
20
442.070000000000
30
0.0
40
1.712265961787
100
AcDbArc
50
99.270996093750
51
169.477996826172
0
ARC
5
a9a
100
AcDbEntity
8
0-2
6
CONTINUOUS
62
3
100
AcDbCircle
10
678.900000000000
20
443.780000000000
30
0.0
40
5.984864112024
100
AcDbArc
50
192.183990478516
51
346.483993530273
0
ARC
5
a9b
100
AcDbEntity
8
0-2
6
CONTINUOUS
62
3
100
AcDbCircle
10
671.400000000000
20
442.070000000000
30
0.0
40
1.712265961787
100
AcDbArc
50
15.177993774414
51
80.728988647461
0
ARC
5
a9c
100
AcDbEntity
8
0-2
6
CONTINUOUS
62
3
100
AcDbCircle
10
1246.880000000000
20
417.430000000000
30
0.0
40
1.999999969650
100
AcDbArc
50
172.724990844727
51
263.257995605469
0
ARC
5
a9d
100
AcDbEntity
8
0-2
6
CONTINUOUS
62
3
100
AcDbCircle
10
1306.540000000000
20
413.120000000000
30
0.0
40
1.999999969650
100
AcDbArc
50
92.479995727539
51
243.434997558594
0
ARC
5
a9e
100
AcDbEntity
8
0-2
6
CONTINUOUS
62
3
100
AcDbCircle
10
1272.640000000000
20
418.810000000000
30
0.0
40
27.766804099168
100
AcDbArc
50
94.125991821289
51
182.331985473633
0
ARC
5
a9f
100
AcDbEntity
8
0-2
6
CONTINUOUS
62
3
100
AcDbCircle
10
1310.920000000000
20
417.430000000000
30
0.0
40
1.999999969650
100
AcDbArc
50
276.741989135742
51
7.274993896484
0
ARC
5
aa0
100
AcDbEntity
8
0-2
6
CONTINUOUS
62
3
100
AcDbCircle
10
1285.160000000000
20
418.810000000000
30
0.0
40
27.766804099168
100
AcDbArc
50
357.667999267578
51
85.873992919922
0
ARC
5
aa1
100
AcDbEntity
8
0-2
6
CONTINUOUS
62
3
100
AcDbCircle
10
1246.880000000000
20
417.430000000000
30
0.0
40
1.200000020498
100
AcDbArc
50
169.895996093750
51
262.424987792969
0
ARC
5
aa2
100
AcDbEntity
8
0-2
6
CONTINUOUS
62
3
100
AcDbCircle
10
1272.640000000000
20
418.810000000000
30
0.0
40
26.966801633964
100
AcDbArc
50
94.040985107422
51
182.491989135742
0
ARC
5
aa3
100
AcDbEntity
8
0-2
6
CONTINUOUS
62
3
100
AcDbCircle
10
1285.160000000000
20
418.810000000000
30
0.0
40
26.966801633964
100
AcDbArc
50
357.507995605469
51
85.958999633789
0
ARC
5
aa4
100
AcDbEntity
8
0-2
6
CONTINUOUS
62
3
100
AcDbCircle
10
1310.920000000000
20
417.430000000000
30
0.0
40
1.200000020498
100
AcDbArc
50
277.574996948242
51
10.103988647461
0
ARC
5
aa5
100
AcDbEntity
8
0-2
6
CONTINUOUS
62
3
100
AcDbCircle
10
1306.540000000000
20
413.120000000000
30
0.0
40
2.799999918801
100
AcDbArc
50
92.479995727539
51
242.092987060547
0
ARC
5
aa6
100
AcDbEntity
8
0-2
6
CONTINUOUS
62
3
100
AcDbCircle
10
1271.400000000000
20
442.070000000000
30
0.0
40
4.499999931712
100
AcDbArc
50
15.000000000000
51
99.613998413086
0
ARC
5
aa7
100
AcDbEntity
8
0-2
6
CONTINUOUS
62
3
100
AcDbCircle
10
1278.900000000000
20
443.780000000000
30
0.0
40
3.201169954503
100
AcDbArc
50
189.826995849609
51
350.172988891602
0
ARC
5
aa8
100
AcDbEntity
8
0-2
6
CONTINUOUS
62
3
100
AcDbCircle
10
1286.400000000000
20
442.070000000000
30
0.0
40
4.499999931712
100
AcDbArc
50
80.385986328125
51
165.000000000000
0
ARC
5
aa9
100
AcDbEntity
8
0-2
6
CONTINUOUS
62
3
100
AcDbCircle
10
1286.400000000000
20
442.070000000000
30
0.0
40
3.699999789018
100
AcDbArc
50
79.816986083984
51
169.473999023438
0
ARC
5
aaa
100
AcDbEntity
8
0-2
6
CONTINUOUS
62
3
100
AcDbCircle
10
1278.900000000000
20
443.780000000000
30
0.0
40
4.001169710112
100
AcDbArc
50
190.700988769531
51
345.000991821289
0
ARC
5
aab
100
AcDbEntity
8
0-2
6
CONTINUOUS
62
3
100
AcDbCircle
10
1271.400000000000
20
442.070000000000
30
0.0
40
3.699999789018
100
AcDbArc
50
15.173995971680
51
100.182998657227
0
ARC
5
aac
100
AcDbEntity
8
0-2
6
DOT
62
4
100
AcDbCircle
10
650.310000000000
20
413.970000000000
30
0.0
40
9.020484400616
100
AcDbArc
50
305.215988159180
51
86.117996215820
0
ARC
5
aad
100
AcDbEntity
8
0-2
6
DOT
62
4
100
AcDbCircle
10
706.540000000000
20
413.120000000000
30
0.0
40
7.800000036468
100
AcDbArc
50
92.479995727539
51
242.092987060547
0
ARC
5
aae
100
AcDbEntity
8
0-2
6
DOT
62
4
100
AcDbCircle
10
950.310000000000
20
413.970000000000
30
0.0
40
9.020484400616
100
AcDbArc
50
305.215988159180
51
86.117996215820
0
ARC
5
aaf
100
AcDbEntity
8
0-2
6
DOT
62
4
100
AcDbCircle
10
1006.540000000000
20
413.120000000000
30
0.0
40
7.800000036468
100
AcDbArc
50
92.479995727539
51
242.092987060547
0
ARC
5
ab0
100
AcDbEntity
8
0-2
6
DOT
62
4
100
AcDbCircle
10
1250.310000000000
20
413.970000000000
30
0.0
40
9.020484400616
100
AcDbArc
50
305.215988159180
51
86.117996215820
0
ARC
5
ab1
100
AcDbEntity
8
0-2
6
DOT
62
4
100
AcDbCircle
10
1306.540000000000
20
413.120000000000
30
0.0
40
7.800000036468
100
AcDbArc
50
92.479995727539
51
242.092987060547
0
TEXT
5
ab2
100
AcDbEntity
8
F-4
62
3
370
-3
100
AcDbText
10
344.310
20
952.983
30
0.0
40
13.127
41
0.704
50
0.000
1
33.7
72
1
11
361.860
21
951.525
31
0.0
100
AcDbText
73
1
0
TEXT
5
ab3
100
AcDbEntity
8
F-4
62
3
370
-3
100
AcDbText
10
411.710
20
952.983
30
0.0
40
13.127
41
0.704
50
0.000
1
33.7
72
1
11
429.260
21
951.525
31
0.0
100
AcDbText
73
1
0
TEXT
5
ab4
100
AcDbEntity
8
F-4
62
3
370
-3
100
AcDbText
10
378.010
20
982.983
30
0.0
40
13.127
41
0.712
50
0.000
1
67.4
72
1
11
395.560
21
981.525
31
0.0
100
AcDbText
73
1
0
TEXT
5
ab5
100
AcDbEntity
8
F-F
62
3
370
-3
100
AcDbText
10
532.090
20
75.752
30
0.0
40
4.923
1
変　　　　　　更　　　　　　記　　　　　　事
41
0.999
50
0.000
100
AcDbText
0
TEXT
5
ab6
100
AcDbEntity
8
F-F
62
3
370
-3
100
AcDbText
10
815.825
20
74.952
30
0.0
40
4.923
1
受領　　日附
41
0.999
50
0.000
100
AcDbText
0
TEXT
5
ab7
100
AcDbEntity
8
F-F
62
3
370
-3
100
AcDbText
10
1014.042
20
45.520
30
0.0
40
4.923
1
施工者
41
0.999
50
0.000
100
AcDbText
0
TEXT
5
ab8
100
AcDbEntity
8
F-F
62
3
370
-3
100
AcDbText
10
1014.042
20
75.150
30
0.0
40
4.923
1
設計者
41
0.999
50
0.000
100
AcDbText
0
TEXT
5
ab9
100
AcDbEntity
8
F-F
62
3
370
-3
100
AcDbText
10
1219.525
20
44.977
30
0.0
40
4.923
1
作図
41
0.999
50
0.000
100
AcDbText
0
TEXT
5
aba
100
AcDbEntity
8
F-F
62
3
370
-3
100
AcDbText
10
1291.352
20
45.508
30
0.0
40
4.923
1
図面名
41
0.999
50
0.000
100
AcDbText
0
TEXT
5
abb
100
AcDbEntity
8
F-F
62
3
370
-3
100
AcDbText
10
1219.525
20
74.607
30
0.0
40
4.923
1
日附
41
0.999
50
0.000
100
AcDbText
0
TEXT
5
abc
100
AcDbEntity
8
F-F
62
3
370
-3
100
AcDbText
10
1291.352
20
75.137
30
0.0
40
4.923
1
工事件名
41
0.999
50
0.000
100
AcDbText
0
TEXT
5
abd
100
AcDbEntity
8
F-F
62
3
370
-3
100
AcDbText
10
1241.661
20
74.355
30
0.0
40
4.923
1
年　月　日
41
0.999
50
0.000
100
AcDbText
0
TEXT
5
abe
100
AcDbEntity
8
F-F
62
3
370
-3
100
AcDbText
10
1241.661
20
44.726
30
0.0
40
4.923
1
年　月　日
41
0.999
50
0.000
100
AcDbText
0
TEXT
5
abf
100
AcDbEntity
8
F-F
62
3
370
-3
100
AcDbText
10
1543.695
20
75.137
30
0.0
40
4.923
1
設計番号
41
0.999
50
0.000
100
AcDbText
0
MTEXT
5
ac0
100
AcDbEntity
8
F-F
62
3
370
-3
100
AcDbMText
10
387.012
20
67.821
30
0.0
40
4.649
41
0.000
71
7
72
1
1
\W1.134;{\W0.817;. }　{\W0.817;.}　{\W0.817; }
7
STANDARD
11
1.00000
21
0.00000
31
0.0
0
MTEXT
5
ac1
100
AcDbEntity
8
F-F
62
3
370
-3
100
AcDbMText
10
387.012
20
57.945
30
0.0
40
4.649
41
0.000
71
7
72
1
1
\W1.134;{\W0.817;. }　{\W0.817;.}　{\W0.817; }
7
STANDARD
11
1.00000
21
0.00000
31
0.0
0
MTEXT
5
ac2
100
AcDbEntity
8
F-F
62
3
370
-3
100
AcDbMText
10
387.012
20
48.068
30
0.0
40
4.649
41
0.000
71
7
72
1
1
\W1.134;{\W0.817;. }　{\W0.817;.}　{\W0.817; }
7
STANDARD
11
1.00000
21
0.00000
31
0.0
0
MTEXT
5
ac3
100
AcDbEntity
8
F-F
62
3
370
-3
100
AcDbMText
10
387.012
20
38.191
30
0.0
40
4.649
41
0.000
71
7
72
1
1
\W1.134;{\W0.817;. }　{\W0.817;.}　{\W0.817; }
7
STANDARD
11
1.00000
21
0.00000
31
0.0
0
MTEXT
5
ac4
100
AcDbEntity
8
F-F
62
3
370
-3
100
AcDbMText
10
387.012
20
28.314
30
0.0
40
4.649
41
0.000
71
7
72
1
1
\W1.134;{\W0.817;. }　{\W0.817;.}　{\W0.817; }
7
STANDARD
11
1.00000
21
0.00000
31
0.0
0
TEXT
5
ac5
100
AcDbEntity
8
F-F
62
3
370
-3
100
AcDbText
10
1034.383
20
62.373
30
0.0
40
6.564
1
　　　　　　　　　　
41
0.963
50
0.000
100
AcDbText
0
TEXT
5
ac6
100
AcDbEntity
8
F-F
62
3
370
-3
100
AcDbText
10
1034.383
20
32.743
30
0.0
40
6.564
1
　　　　　　　　　　
41
0.963
50
0.000
100
AcDbText
0
TEXT
5
ac7
100
AcDbEntity
8
F-F
62
3
370
-3
100
AcDbText
10
1317.846
20
63.920
30
0.0
40
6.564
1
　　　　　　　　　　　　　
41
0.963
50
0.000
100
AcDbText
0
TEXT
5
ac8
100
AcDbEntity
8
F-F
62
3
370
-3
100
AcDbText
10
378.040
20
75.687
30
0.0
40
4.923
1
年　月　日
41
0.999
50
0.000
100
AcDbText
0
TEXT
5
ac9
100
AcDbEntity
8
F-F
62
3
370
-3
100
AcDbText
10
872.996
20
74.368
30
0.0
40
4.923
1
年　　月　　日
41
0.999
50
0.000
100
AcDbText
0
MTEXT
5
aca
100
AcDbEntity
8
F-F
62
3
370
-3
100
AcDbMText
10
885.548
20
63.398
30
0.0
40
4.649
41
0.000
71
7
72
1
1
\W1.134;{\W0.817;.}　{\W0.817; }　{\W0.817;.}
7
STANDARD
11
1.00000
21
0.00000
31
0.0
0
TEXT
5
acb
100
AcDbEntity
8
F-F
62
3
370
-3
100
AcDbText
10
815.825
20
45.323
30
0.0
40
4.923
1
受領　　日附
41
0.999
50
0.000
100
AcDbText
0
TEXT
5
acc
100
AcDbEntity
8
F-F
62
3
370
-3
100
AcDbText
10
872.996
20
44.738
30
0.0
40
4.923
1
年　　月　　日
41
0.999
50
0.000
100
AcDbText
0
MTEXT
5
acd
100
AcDbEntity
8
F-F
62
3
370
-3
100
AcDbMText
10
885.548
20
33.769
30
0.0
40
4.649
41
0.000
71
7
72
1
1
\W1.134;{\W0.817;.}　{\W0.817; }　{\W0.817;.}
7
STANDARD
11
1.00000
21
0.00000
31
0.0
0
MTEXT
5
ace
100
AcDbEntity
8
F-F
62
3
370
-3
100
AcDbMText
10
1248.433
20
61.685
30
0.0
40
4.649
41
0.000
71
7
72
1
1
\W1.134;{\W0.817;.}　　{\W0.817;.}　
7
STANDARD
11
1.00000
21
0.00000
31
0.0
0
TEXT
5
acf
100
AcDbEntity
8
F-F
62
3
370
-3
100
AcDbText
10
1543.695
20
45.508
30
0.0
40
4.923
1
縮　尺
41
0.999
50
0.000
100
AcDbText
0
TEXT
5
ad0
100
AcDbEntity
8
F-F
62
3
370
-3
100
AcDbText
10
1567.012
20
41.647
30
0.0
40
6.564
1
Ａ１－１／２　
41
0.963
50
0.000
100
AcDbText
0
TEXT
5
ad1
100
AcDbEntity
8
F-F
62
3
370
-3
100
AcDbText
10
1567.012
20
26.832
30
0.0
40
6.564
1
Ａ３－１／４　
41
0.963
50
0.000
100
AcDbText
0
TEXT
5
ad2
100
AcDbEntity
8
F-F
62
3
370
-3
100
AcDbText
10
166.668
20
28.767
30
0.0
40
6.564
1
電話（０５４）２６３－２２８０（代表）
41
0.963
50
0.000
100
AcDbText
0
TEXT
5
ad3
100
AcDbEntity
8
F-F
62
3
370
-3
100
AcDbText
10
122.770
20
61.158
30
0.0
40
13.127
1
小　池　弥　太　郎　商　店
41
0.963
50
0.000
100
AcDbText
0
TEXT
5
ad4
100
AcDbEntity
8
F-F
62
3
370
-3
100
AcDbText
10
166.664
20
43.600
30
0.0
40
6.564
1
静岡県静岡市葵区流通センター１６番
41
0.963
50
0.000
100
AcDbText
0
TEXT
5
ad5
100
AcDbEntity
8
F-F
62
3
370
-3
100
AcDbText
10
100.135
20
68.250
30
0.0
40
4.923
1
株
41
0.999
50
0.000
100
AcDbText
0
TEXT
5
ad6
100
AcDbEntity
8
F-F
62
3
370
-3
100
AcDbText
10
107.285
20
61.000
30
0.0
40
4.923
1
社
41
0.999
50
0.000
100
AcDbText
0
TEXT
5
ad7
100
AcDbEntity
8
F-F
62
3
370
-3
100
AcDbText
10
100.085
20
61.000
30
0.0
40
4.923
1
会
41
0.999
50
0.000
100
AcDbText
0
TEXT
5
ad8
100
AcDbEntity
8
F-F
62
3
370
-3
100
AcDbText
10
106.885
20
68.050
30
0.0
40
4.923
1
式
41
0.999
50
0.000
100
AcDbText
0
TEXT
5
ad9
100
AcDbEntity
8
0-1
62
3
370
-3
100
AcDbText
10
206.525
20
376.456
30
0.0
40
11.486
1
タイトフレーム
41
0.979
50
0.000
100
AcDbText
0
TEXT
5
ada
100
AcDbEntity
8
0-1
62
3
370
-3
100
AcDbText
10
332.282
20
378.886
30
0.0
40
13.127
41
0.597
50
0.000
1
39
72
1
11
341.057
21
377.428
31
0.0
100
AcDbText
73
1
0
TEXT
5
adb
100
AcDbEntity
8
0-2
62
3
370
-3
100
AcDbText
10
908.825
20
313.787
30
0.0
40
13.127
1
タイトフレーム
41
0.963
50
0.000
100
AcDbText
0
TEXT
5
adc
100
AcDbEntity
8
0-1
62
3
370
-3
100
AcDbText
10
176.764
20
420.691
30
0.0
40
13.127
41
0.597
50
90.000
1
34
72
1
11
178.222
21
429.466
31
0.0
100
AcDbText
73
1
0
TEXT
5
add
100
AcDbEntity
8
0-2
62
3
370
-3
100
AcDbText
10
580.155
20
457.219
30
0.0
40
13.127
1
吊子
41
0.963
50
360.000
100
AcDbText
0
TEXT
5
ade
100
AcDbEntity
8
0-2
62
3
370
-3
100
AcDbText
10
513.989
20
430.681
30
0.0
40
13.127
1
ルーフバンド
41
0.963
50
360.000
100
AcDbText
0
TEXT
5
adf
100
AcDbEntity
8
F-4
62
3
370
-3
100
AcDbText
10
197.732
20
866.836
30
0.0
40
11.486
1
ルーフバンド
41
0.979
50
360.000
100
AcDbText
0
TEXT
5
ae0
100
AcDbEntity
8
F-4
62
3
370
-3
100
AcDbText
10
336.443
20
718.484
30
0.0
40
11.486
1
タイトフレーム
41
0.979
50
0.000
100
AcDbText
0
TEXT
5
ae1
100
AcDbEntity
8
0-2
62
3
370
-3
100
AcDbText
10
773.406
20
313.787
30
0.0
40
13.127
1
裏貼材
41
0.963
50
0.000
100
AcDbText
0
TEXT
5
ae2
100
AcDbEntity
8
0-0
62
3
370
-3
100
AcDbText
10
816.525
20
726.565
30
0.0
40
13.127
41
0.677
50
0.000
1
176
72
1
11
829.687
21
725.107
31
0.0
100
AcDbText
73
1
0
TEXT
5
ae3
100
AcDbEntity
8
0-0
62
3
370
-3
100
AcDbText
10
1116.525
20
726.565
30
0.0
40
13.127
41
0.677
50
0.000
1
176
72
1
11
1129.687
21
725.107
31
0.0
100
AcDbText
73
1
0
TEXT
5
ae4
100
AcDbEntity
8
0-0
62
3
370
-3
100
AcDbText
10
966.525
20
940.560
30
0.0
40
13.127
41
0.653
50
0.000
1
600
72
1
11
979.687
21
939.101
31
0.0
100
AcDbText
73
1
0
TEXT
5
ae5
100
AcDbEntity
8
0-0
62
3
370
-3
100
AcDbText
10
816.525
20
920.560
30
0.0
40
13.127
41
0.658
50
0.000
1
300
72
1
11
829.687
21
919.101
31
0.0
100
AcDbText
73
1
0
TEXT
5
ae6
100
AcDbEntity
8
0-0
62
3
370
-3
100
AcDbText
10
1116.525
20
920.560
30
0.0
40
13.127
41
0.658
50
0.000
1
300
72
1
11
1129.687
21
919.101
31
0.0
100
AcDbText
73
1
0
TEXT
5
ae7
100
AcDbEntity
8
0-0
62
3
370
-3
100
AcDbText
10
971.025
20
880.560
30
0.0
40
13.127
41
0.568
50
0.000
1
66
72
1
11
979.800
21
879.101
31
0.0
100
AcDbText
73
1
0
TEXT
5
ae8
100
AcDbEntity
8
0-0
62
3
370
-3
100
AcDbText
10
671.036
20
880.560
30
0.0
40
13.127
41
0.561
50
0.000
1
68
72
1
11
679.811
21
879.101
31
0.0
100
AcDbText
73
1
0
TEXT
5
ae9
100
AcDbEntity
8
0-0
62
3
370
-3
100
AcDbText
10
766.360
20
796.795
30
0.0
40
13.127
41
0.567
50
90.000
1
83
72
1
11
767.819
21
805.570
31
0.0
100
AcDbText
73
1
0
TEXT
5
aea
100
AcDbEntity
8
F-4
62
3
370
-3
100
AcDbText
10
437.613
20
1042.983
30
0.0
40
13.127
41
0.633
50
0.000
1
@600
72
1
11
455.163
21
1041.524
31
0.0
100
AcDbText
73
1
0
TEXT
5
aeb
100
AcDbEntity
8
F-F
62
3
370
-3
100
AcDbText
10
1317.846
20
34.290
30
0.0
40
6.564
1
コイケ　Ｈルーフ６００折板　断面図
41
0.963
50
0.000
100
AcDbText
0
TEXT
5
aec
100
AcDbEntity
8
0-1
62
3
370
-3
100
AcDbText
10
156.764
20
348.691
30
0.0
40
13.127
41
0.675
50
90.000
1
12
72
1
11
158.223
21
357.466
31
0.0
100
AcDbText
73
1
0
TEXT
5
aed
100
AcDbEntity
8
0-1
62
3
370
-3
100
AcDbText
10
156.764
20
396.191
30
0.0
40
13.127
41
0.567
50
90.000
1
83
72
1
11
158.223
21
404.966
31
0.0
100
AcDbText
73
1
0
TEXT
5
aee
100
AcDbEntity
8
0-2
62
3
370
-3
100
AcDbText
10
816.603
20
501.234
30
0.0
40
14.768
41
0.650
50
0.000
1
300
72
1
11
831.228
21
499.593
31
0.0
100
AcDbText
73
1
0
TEXT
5
aef
100
AcDbEntity
8
0-2
62
3
370
-3
100
AcDbText
10
1116.603
20
501.234
30
0.0
40
14.768
41
0.650
50
0.000
1
300
72
1
11
1131.228
21
499.593
31
0.0
100
AcDbText
73
1
0
TEXT
5
af0
100
AcDbEntity
8
0-2
62
3
370
-3
100
AcDbText
10
1184.353
20
397.495
30
0.0
40
14.768
41
0.560
50
90.000
1
83
72
1
11
1185.994
21
407.245
31
0.0
100
AcDbText
73
1
0
TEXT
5
af1
100
AcDbEntity
8
0-2
62
3
370
-3
100
AcDbText
10
1278.390
20
355.889
30
0.0
40
13.127
1
12
41
0.675
50
0.000
100
AcDbText
0
TEXT
5
af2
100
AcDbEntity
8
0-2
62
3
370
-3
100
AcDbText
10
966.603
20
526.234
30
0.0
40
14.768
41
0.645
50
0.000
1
600
72
1
11
981.228
21
524.593
31
0.0
100
AcDbText
73
1
0
TEXT
5
af3
100
AcDbEntity
8
0-2
62
3
370
-3
100
AcDbText
10
591.603
20
526.234
30
0.0
40
14.768
41
0.625
50
0.000
1
@600
72
1
11
611.103
21
524.593
31
0.0
100
AcDbText
73
1
0
TEXT
5
af4
100
AcDbEntity
8
0-2
62
3
370
-3
100
AcDbText
10
1332.603
20
526.234
30
0.0
40
14.768
41
0.625
50
0.000
1
@600
72
1
11
1352.103
21
524.593
31
0.0
100
AcDbText
73
1
0
TEXT
5
af5
100
AcDbEntity
8
F-4
62
3
370
-3
100
AcDbText
10
206.736
20
895.801
30
0.0
40
11.486
1
Ｈルーフ６００
41
0.979
50
0.000
100
AcDbText
0
TEXT
5
af6
100
AcDbEntity
8
0-2
62
3
370
-3
100
AcDbText
10
739.464
20
457.583
30
0.0
40
13.127
1
Ｈルーフ６００
41
0.963
50
360.000
100
AcDbText
0
TEXT
5
af7
100
AcDbEntity
8
F-F
62
3
370
-3
100
AcDbText
10
1222.716
20
31.565
30
0.0
40
4.923
1
MA 2015-05-27
41
0.651
50
0.000
100
AcDbText
0
TEXT
5
af8
100
AcDbEntity
8
F-F
62
3
370
-3
100
AcDbText
10
1568.835
20
61.186
30
0.0
40
8.205
1
KH600-01
41
0.636
50
0.000
100
AcDbText
0
POLYLINE
5
af9
100
AcDbEntity
  8
F-4
6
CONTINUOUS
62
3
100
AcDb2dPolyline
66
1
10
0
20
0
70
1
40
0.800
41
0.800
0
VERTEX
5
afa
100
AcDbEntity
  8
F-4
6
CONTINUOUS
62
3
100
AcDbVertex
100
AcDb2dVertex
10
327.086
20
979.589
30
0.0
42
1.000
0
VERTEX
5
afb
100
AcDbEntity
  8
F-4
6
CONTINUOUS
62
3
100
AcDbVertex
100
AcDb2dVertex
10
327.886
20
979.589
30
0.0
42
1.000
0
SEQEND
5
afc
100
AcDbEntity
  8
F-4
0
POLYLINE
5
afd
100
AcDbEntity
  8
F-4
6
CONTINUOUS
62
3
100
AcDb2dPolyline
66
1
10
0
20
0
70
1
40
0.800
41
0.800
0
VERTEX
5
afe
100
AcDbEntity
  8
F-4
6
CONTINUOUS
62
3
100
AcDbVertex
100
AcDb2dVertex
10
394.486
20
1039.588
30
0.0
42
1.000
0
VERTEX
5
aff
100
AcDbEntity
  8
F-4
6
CONTINUOUS
62
3
100
AcDbVertex
100
AcDb2dVertex
10
395.286
20
1039.588
30
0.0
42
1.000
0
SEQEND
5
b00
100
AcDbEntity
  8
F-4
0
POLYLINE
5
b01
100
AcDbEntity
  8
F-4
6
CONTINUOUS
62
3
100
AcDb2dPolyline
66
1
10
0
20
0
70
1
40
0.800
41
0.800
0
VERTEX
5
b02
100
AcDbEntity
  8
F-4
6
CONTINUOUS
62
3
100
AcDbVertex
100
AcDb2dVertex
10
461.886
20
979.589
30
0.0
42
1.000
0
VERTEX
5
b03
100
AcDbEntity
  8
F-4
6
CONTINUOUS
62
3
100
AcDbVertex
100
AcDb2dVertex
10
462.686
20
979.589
30
0.0
42
1.000
0
SEQEND
5
b04
100
AcDbEntity
  8
F-4
0
POLYLINE
5
b05
100
AcDbEntity
  8
F-4
6
CONTINUOUS
62
3
100
AcDb2dPolyline
66
1
10
0
20
0
70
1
40
0.800
41
0.800
0
VERTEX
5
b06
100
AcDbEntity
  8
F-4
6
CONTINUOUS
62
3
100
AcDbVertex
100
AcDb2dVertex
10
327.086
20
949.589
30
0.0
42
1.000
0
VERTEX
5
b07
100
AcDbEntity
  8
F-4
6
CONTINUOUS
62
3
100
AcDbVertex
100
AcDb2dVertex
10
327.886
20
949.589
30
0.0
42
1.000
0
SEQEND
5
b08
100
AcDbEntity
  8
F-4
0
POLYLINE
5
b09
100
AcDbEntity
  8
F-4
6
CONTINUOUS
62
3
100
AcDb2dPolyline
66
1
10
0
20
0
70
1
40
0.800
41
0.800
0
VERTEX
5
b0a
100
AcDbEntity
  8
F-4
6
CONTINUOUS
62
3
100
AcDbVertex
100
AcDb2dVertex
10
394.486
20
949.589
30
0.0
42
1.000
0
VERTEX
5
b0b
100
AcDbEntity
  8
F-4
6
CONTINUOUS
62
3
100
AcDbVertex
100
AcDb2dVertex
10
395.286
20
949.589
30
0.0
42
1.000
0
SEQEND
5
b0c
100
AcDbEntity
  8
F-4
0
POLYLINE
5
b0d
100
AcDbEntity
  8
F-4
6
CONTINUOUS
62
3
100
AcDb2dPolyline
66
1
10
0
20
0
70
1
40
0.800
41
0.800
0
VERTEX
5
b0e
100
AcDbEntity
  8
F-4
6
CONTINUOUS
62
3
100
AcDbVertex
100
AcDb2dVertex
10
461.886
20
949.589
30
0.0
42
1.000
0
VERTEX
5
b0f
100
AcDbEntity
  8
F-4
6
CONTINUOUS
62
3
100
AcDbVertex
100
AcDb2dVertex
10
462.686
20
949.589
30
0.0
42
1.000
0
SEQEND
5
b10
100
AcDbEntity
  8
F-4
0
POLYLINE
5
b11
100
AcDbEntity
  8
F-4
6
CONTINUOUS
62
3
100
AcDb2dPolyline
66
1
10
0
20
0
70
1
40
0.800
41
0.800
0
VERTEX
5
b12
100
AcDbEntity
  8
F-4
6
CONTINUOUS
62
3
100
AcDbVertex
100
AcDb2dVertex
10
513.692
20
1039.588
30
0.0
42
1.000
0
VERTEX
5
b13
100
AcDbEntity
  8
F-4
6
CONTINUOUS
62
3
100
AcDbVertex
100
AcDb2dVertex
10
514.492
20
1039.588
30
0.0
42
1.000
0
SEQEND
5
b14
100
AcDbEntity
  8
F-4
0
POLYLINE
5
b15
100
AcDbEntity
  8
F-F
6
CONTINUOUS
62
3
100
AcDb2dPolyline
66
1
10
0
20
0
70
1
40
0.800
41
0.800
0
VERTEX
5
b16
100
AcDbEntity
  8
F-F
6
CONTINUOUS
62
3
100
AcDbVertex
100
AcDb2dVertex
10
54.357
20
1143.641
30
0.0
42
1.000
0
VERTEX
5
b17
100
AcDbEntity
  8
F-F
6
CONTINUOUS
62
3
100
AcDbVertex
100
AcDb2dVertex
10
55.157
20
1143.641
30
0.0
42
1.000
0
SEQEND
5
b18
100
AcDbEntity
  8
F-F
0
POLYLINE
5
b19
100
AcDbEntity
  8
0-1
6
CONTINUOUS
62
3
100
AcDb2dPolyline
66
1
10
0
20
0
70
1
40
0.800
41
0.800
0
VERTEX
5
b1a
100
AcDbEntity
  8
0-1
6
CONTINUOUS
62
3
100
AcDbVertex
100
AcDb2dVertex
10
321.009
20
373.492
30
0.0
42
1.000
0
VERTEX
5
b1b
100
AcDbEntity
  8
0-1
6
CONTINUOUS
62
3
100
AcDbVertex
100
AcDb2dVertex
10
321.809
20
373.492
30
0.0
42
1.000
0
SEQEND
5
b1c
100
AcDbEntity
  8
0-1
0
POLYLINE
5
b1d
100
AcDbEntity
  8
0-1
6
CONTINUOUS
62
3
100
AcDb2dPolyline
66
1
10
0
20
0
70
1
40
0.800
41
0.800
0
VERTEX
5
b1e
100
AcDbEntity
  8
0-1
6
CONTINUOUS
62
3
100
AcDbVertex
100
AcDb2dVertex
10
358.509
20
373.492
30
0.0
42
1.000
0
VERTEX
5
b1f
100
AcDbEntity
  8
0-1
6
CONTINUOUS
62
3
100
AcDbVertex
100
AcDb2dVertex
10
359.309
20
373.492
30
0.0
42
1.000
0
SEQEND
5
b20
100
AcDbEntity
  8
0-1
0
POLYLINE
5
b21
100
AcDbEntity
  8
0-2
6
CONTINUOUS
62
3
100
AcDb2dPolyline
66
1
10
0
20
0
70
1
40
0.800
41
0.800
0
VERTEX
5
b22
100
AcDbEntity
  8
0-2
6
CONTINUOUS
62
3
100
AcDbVertex
100
AcDb2dVertex
10
678.501
20
522.540
30
0.0
42
1.000
0
VERTEX
5
b23
100
AcDbEntity
  8
0-2
6
CONTINUOUS
62
3
100
AcDbVertex
100
AcDb2dVertex
10
679.301
20
522.540
30
0.0
42
1.000
0
SEQEND
5
b24
100
AcDbEntity
  8
0-2
0
POLYLINE
5
b25
100
AcDbEntity
  8
0-2
6
CONTINUOUS
62
3
100
AcDb2dPolyline
66
1
10
0
20
0
70
1
40
0.800
41
0.800
0
VERTEX
5
b26
100
AcDbEntity
  8
0-2
6
CONTINUOUS
62
3
100
AcDbVertex
100
AcDb2dVertex
10
1272.659
20
350.567
30
0.0
42
1.000
0
VERTEX
5
b27
100
AcDbEntity
  8
0-2
6
CONTINUOUS
62
3
100
AcDbVertex
100
AcDb2dVertex
10
1273.459
20
350.567
30
0.0
42
1.000
0
SEQEND
5
b28
100
AcDbEntity
  8
0-2
0
POLYLINE
5
b29
100
AcDbEntity
  8
0-2
6
CONTINUOUS
62
3
100
AcDb2dPolyline
66
1
10
0
20
0
70
1
40
0.800
41
0.800
0
VERTEX
5
b2a
100
AcDbEntity
  8
0-2
6
CONTINUOUS
62
3
100
AcDbVertex
100
AcDb2dVertex
10
1272.659
20
363.567
30
0.0
42
1.000
0
VERTEX
5
b2b
100
AcDbEntity
  8
0-2
6
CONTINUOUS
62
3
100
AcDbVertex
100
AcDb2dVertex
10
1273.459
20
363.567
30
0.0
42
1.000
0
SEQEND
5
b2c
100
AcDbEntity
  8
0-2
0
POLYLINE
5
b2d
100
AcDbEntity
  8
0-2
6
CONTINUOUS
62
3
100
AcDb2dPolyline
66
1
10
0
20
0
70
1
40
0.800
41
0.800
0
VERTEX
5
b2e
100
AcDbEntity
  8
0-2
6
CONTINUOUS
62
3
100
AcDbVertex
100
AcDb2dVertex
10
1187.647
20
363.567
30
0.0
42
1.000
0
VERTEX
5
b2f
100
AcDbEntity
  8
0-2
6
CONTINUOUS
62
3
100
AcDbVertex
100
AcDb2dVertex
10
1188.447
20
363.567
30
0.0
42
1.000
0
SEQEND
5
b30
100
AcDbEntity
  8
0-2
0
POLYLINE
5
b31
100
AcDbEntity
  8
0-2
6
CONTINUOUS
62
3
100
AcDb2dPolyline
66
1
10
0
20
0
70
1
40
0.800
41
0.800
0
VERTEX
5
b32
100
AcDbEntity
  8
0-2
6
CONTINUOUS
62
3
100
AcDbVertex
100
AcDb2dVertex
10
1278.501
20
522.540
30
0.0
42
1.000
0
VERTEX
5
b33
100
AcDbEntity
  8
0-2
6
CONTINUOUS
62
3
100
AcDbVertex
100
AcDb2dVertex
10
1279.301
20
522.540
30
0.0
42
1.000
0
SEQEND
5
b34
100
AcDbEntity
  8
0-2
0
POLYLINE
5
b35
100
AcDbEntity
  8
0-1
6
CONTINUOUS
62
3
100
AcDb2dPolyline
66
1
10
0
20
0
70
1
40
0.800
41
0.800
0
VERTEX
5
b36
100
AcDbEntity
  8
0-1
6
CONTINUOUS
62
3
100
AcDbVertex
100
AcDb2dVertex
10
179.758
20
411.567
30
0.0
42
1.000
0
VERTEX
5
b37
100
AcDbEntity
  8
0-1
6
CONTINUOUS
62
3
100
AcDbVertex
100
AcDb2dVertex
10
180.558
20
411.567
30
0.0
42
1.000
0
SEQEND
5
b38
100
AcDbEntity
  8
0-1
0
POLYLINE
5
b39
100
AcDbEntity
  8
0-1
6
CONTINUOUS
62
3
100
AcDb2dPolyline
66
1
10
0
20
0
70
1
40
0.800
41
0.800
0
VERTEX
5
b3a
100
AcDbEntity
  8
0-1
6
CONTINUOUS
62
3
100
AcDbVertex
100
AcDb2dVertex
10
179.759
20
445.567
30
0.0
42
1.000
0
VERTEX
5
b3b
100
AcDbEntity
  8
0-1
6
CONTINUOUS
62
3
100
AcDbVertex
100
AcDb2dVertex
10
180.559
20
445.567
30
0.0
42
1.000
0
SEQEND
5
b3c
100
AcDbEntity
  8
0-1
0
POLYLINE
5
b3d
100
AcDbEntity
  8
0-1
6
CONTINUOUS
62
3
100
AcDb2dPolyline
66
1
10
0
20
0
70
1
40
0.800
41
0.800
0
VERTEX
5
b3e
100
AcDbEntity
  8
0-1
6
CONTINUOUS
62
3
100
AcDbVertex
100
AcDb2dVertex
10
159.759
20
350.567
30
0.0
42
1.000
0
VERTEX
5
b3f
100
AcDbEntity
  8
0-1
6
CONTINUOUS
62
3
100
AcDbVertex
100
AcDb2dVertex
10
160.559
20
350.567
30
0.0
42
1.000
0
SEQEND
5
b40
100
AcDbEntity
  8
0-1
0
POLYLINE
5
b41
100
AcDbEntity
  8
0-1
6
CONTINUOUS
62
3
100
AcDb2dPolyline
66
1
10
0
20
0
70
1
40
0.800
41
0.800
0
VERTEX
5
b42
100
AcDbEntity
  8
0-1
6
CONTINUOUS
62
3
100
AcDbVertex
100
AcDb2dVertex
10
159.759
20
362.567
30
0.0
42
1.000
0
VERTEX
5
b43
100
AcDbEntity
  8
0-1
6
CONTINUOUS
62
3
100
AcDbVertex
100
AcDb2dVertex
10
160.559
20
362.567
30
0.0
42
1.000
0
SEQEND
5
b44
100
AcDbEntity
  8
0-1
0
POLYLINE
5
b45
100
AcDbEntity
  8
0-1
6
CONTINUOUS
62
3
100
AcDb2dPolyline
66
1
10
0
20
0
70
1
40
0.800
41
0.800
0
VERTEX
5
b46
100
AcDbEntity
  8
0-1
6
CONTINUOUS
62
3
100
AcDbVertex
100
AcDb2dVertex
10
159.759
20
445.567
30
0.0
42
1.000
0
VERTEX
5
b47
100
AcDbEntity
  8
0-1
6
CONTINUOUS
62
3
100
AcDbVertex
100
AcDb2dVertex
10
160.559
20
445.567
30
0.0
42
1.000
0
SEQEND
5
b48
100
AcDbEntity
  8
0-1
0
POLYLINE
5
b49
100
AcDbEntity
  8
F-4
6
CONTINUOUS
62
3
100
AcDb2dPolyline
66
1
10
0
20
0
70
1
40
0.800
41
0.800
0
VERTEX
5
b4a
100
AcDbEntity
  8
F-4
6
CONTINUOUS
62
3
100
AcDbVertex
100
AcDb2dVertex
10
338.074
20
859.516
30
0.0
42
1.000
0
VERTEX
5
b4b
100
AcDbEntity
  8
F-4
6
CONTINUOUS
62
3
100
AcDbVertex
100
AcDb2dVertex
10
338.874
20
859.516
30
0.0
42
1.000
0
SEQEND
5
b4c
100
AcDbEntity
  8
F-4
0
POLYLINE
5
b4d
100
AcDbEntity
  8
F-4
6
CONTINUOUS
62
3
100
AcDb2dPolyline
66
1
10
0
20
0
70
1
40
0.800
41
0.800
0
VERTEX
5
b4e
100
AcDbEntity
  8
F-4
6
CONTINUOUS
62
3
100
AcDbVertex
100
AcDb2dVertex
10
351.938
20
881.680
30
0.0
42
1.000
0
VERTEX
5
b4f
100
AcDbEntity
  8
F-4
6
CONTINUOUS
62
3
100
AcDbVertex
100
AcDb2dVertex
10
352.738
20
881.680
30
0.0
42
1.000
0
SEQEND
5
b50
100
AcDbEntity
  8
F-4
0
POLYLINE
5
b51
100
AcDbEntity
  8
F-4
6
CONTINUOUS
62
3
100
AcDb2dPolyline
66
1
10
0
20
0
70
1
40
0.800
41
0.800
0
VERTEX
5
b52
100
AcDbEntity
  8
F-4
6
CONTINUOUS
62
3
100
AcDbVertex
100
AcDb2dVertex
10
294.943
20
739.684
30
0.0
42
1.000
0
VERTEX
5
b53
100
AcDbEntity
  8
F-4
6
CONTINUOUS
62
3
100
AcDbVertex
100
AcDb2dVertex
10
295.743
20
739.684
30
0.0
42
1.000
0
SEQEND
5
b54
100
AcDbEntity
  8
F-4
0
POLYLINE
5
b55
100
AcDbEntity
  8
0-0
6
CONTINUOUS
62
3
100
AcDb2dPolyline
66
1
10
0
20
0
70
1
40
0.800
41
0.800
0
VERTEX
5
b56
100
AcDbEntity
  8
0-0
6
CONTINUOUS
62
3
100
AcDbVertex
100
AcDb2dVertex
10
1217.974
20
723.171
30
0.0
42
1.000
0
VERTEX
5
b57
100
AcDbEntity
  8
0-0
6
CONTINUOUS
62
3
100
AcDbVertex
100
AcDb2dVertex
10
1218.774
20
723.171
30
0.0
42
1.000
0
SEQEND
5
b58
100
AcDbEntity
  8
0-0
0
POLYLINE
5
b59
100
AcDbEntity
  8
0-0
6
CONTINUOUS
62
3
100
AcDb2dPolyline
66
1
10
0
20
0
70
1
40
0.800
41
0.800
0
VERTEX
5
b5a
100
AcDbEntity
  8
0-0
6
CONTINUOUS
62
3
100
AcDbVertex
100
AcDb2dVertex
10
1039.027
20
723.171
30
0.0
42
1.000
0
VERTEX
5
b5b
100
AcDbEntity
  8
0-0
6
CONTINUOUS
62
3
100
AcDbVertex
100
AcDb2dVertex
10
1039.827
20
723.171
30
0.0
42
1.000
0
SEQEND
5
b5c
100
AcDbEntity
  8
0-0
0
POLYLINE
5
b5d
100
AcDbEntity
  8
0-0
6
CONTINUOUS
62
3
100
AcDb2dPolyline
66
1
10
0
20
0
70
1
40
0.800
41
0.800
0
VERTEX
5
b5e
100
AcDbEntity
  8
0-0
6
CONTINUOUS
62
3
100
AcDbVertex
100
AcDb2dVertex
10
917.974
20
723.171
30
0.0
42
1.000
0
VERTEX
5
b5f
100
AcDbEntity
  8
0-0
6
CONTINUOUS
62
3
100
AcDbVertex
100
AcDb2dVertex
10
918.774
20
723.171
30
0.0
42
1.000
0
SEQEND
5
b60
100
AcDbEntity
  8
0-0
0
POLYLINE
5
b61
100
AcDbEntity
  8
0-0
6
CONTINUOUS
62
3
100
AcDb2dPolyline
66
1
10
0
20
0
70
1
40
0.800
41
0.800
0
VERTEX
5
b62
100
AcDbEntity
  8
0-0
6
CONTINUOUS
62
3
100
AcDbVertex
100
AcDb2dVertex
10
739.027
20
723.171
30
0.0
42
1.000
0
VERTEX
5
b63
100
AcDbEntity
  8
0-0
6
CONTINUOUS
62
3
100
AcDbVertex
100
AcDb2dVertex
10
739.827
20
723.171
30
0.0
42
1.000
0
SEQEND
5
b64
100
AcDbEntity
  8
0-0
0
POLYLINE
5
b65
100
AcDbEntity
  8
0-0
6
CONTINUOUS
62
3
100
AcDb2dPolyline
66
1
10
0
20
0
70
1
40
0.800
41
0.800
0
VERTEX
5
b66
100
AcDbEntity
  8
0-0
6
CONTINUOUS
62
3
100
AcDbVertex
100
AcDb2dVertex
10
678.501
20
937.165
30
0.0
42
1.000
0
VERTEX
5
b67
100
AcDbEntity
  8
0-0
6
CONTINUOUS
62
3
100
AcDbVertex
100
AcDb2dVertex
10
679.301
20
937.165
30
0.0
42
1.000
0
SEQEND
5
b68
100
AcDbEntity
  8
0-0
0
POLYLINE
5
b69
100
AcDbEntity
  8
0-0
6
CONTINUOUS
62
3
100
AcDb2dPolyline
66
1
10
0
20
0
70
1
40
0.800
41
0.800
0
VERTEX
5
b6a
100
AcDbEntity
  8
0-0
6
CONTINUOUS
62
3
100
AcDbVertex
100
AcDb2dVertex
10
1278.501
20
937.165
30
0.0
42
1.000
0
VERTEX
5
b6b
100
AcDbEntity
  8
0-0
6
CONTINUOUS
62
3
100
AcDbVertex
100
AcDb2dVertex
10
1279.301
20
937.165
30
0.0
42
1.000
0
SEQEND
5
b6c
100
AcDbEntity
  8
0-0
0
POLYLINE
5
b6d
100
AcDbEntity
  8
0-0
6
CONTINUOUS
62
3
100
AcDb2dPolyline
66
1
10
0
20
0
70
1
40
0.800
41
0.800
0
VERTEX
5
b6e
100
AcDbEntity
  8
0-0
6
CONTINUOUS
62
3
100
AcDbVertex
100
AcDb2dVertex
10
678.501
20
917.165
30
0.0
42
1.000
0
VERTEX
5
b6f
100
AcDbEntity
  8
0-0
6
CONTINUOUS
62
3
100
AcDbVertex
100
AcDb2dVertex
10
679.301
20
917.165
30
0.0
42
1.000
0
SEQEND
5
b70
100
AcDbEntity
  8
0-0
0
POLYLINE
5
b71
100
AcDbEntity
  8
0-0
6
CONTINUOUS
62
3
100
AcDb2dPolyline
66
1
10
0
20
0
70
1
40
0.800
41
0.800
0
VERTEX
5
b72
100
AcDbEntity
  8
0-0
6
CONTINUOUS
62
3
100
AcDbVertex
100
AcDb2dVertex
10
978.501
20
917.165
30
0.0
42
1.000
0
VERTEX
5
b73
100
AcDbEntity
  8
0-0
6
CONTINUOUS
62
3
100
AcDbVertex
100
AcDb2dVertex
10
979.301
20
917.165
30
0.0
42
1.000
0
SEQEND
5
b74
100
AcDbEntity
  8
0-0
0
POLYLINE
5
b75
100
AcDbEntity
  8
0-0
6
CONTINUOUS
62
3
100
AcDb2dPolyline
66
1
10
0
20
0
70
1
40
0.800
41
0.800
0
VERTEX
5
b76
100
AcDbEntity
  8
0-0
6
CONTINUOUS
62
3
100
AcDbVertex
100
AcDb2dVertex
10
1278.501
20
917.165
30
0.0
42
1.000
0
VERTEX
5
b77
100
AcDbEntity
  8
0-0
6
CONTINUOUS
62
3
100
AcDbVertex
100
AcDb2dVertex
10
1279.301
20
917.165
30
0.0
42
1.000
0
SEQEND
5
b78
100
AcDbEntity
  8
0-0
0
POLYLINE
5
b79
100
AcDbEntity
  8
0-0
6
CONTINUOUS
62
3
100
AcDb2dPolyline
66
1
10
0
20
0
70
1
40
0.800
41
0.800
0
VERTEX
5
b7a
100
AcDbEntity
  8
0-0
6
CONTINUOUS
62
3
100
AcDbVertex
100
AcDb2dVertex
10
1011.501
20
877.165
30
0.0
42
1.000
0
VERTEX
5
b7b
100
AcDbEntity
  8
0-0
6
CONTINUOUS
62
3
100
AcDbVertex
100
AcDb2dVertex
10
1012.301
20
877.165
30
0.0
42
1.000
0
SEQEND
5
b7c
100
AcDbEntity
  8
0-0
0
POLYLINE
5
b7d
100
AcDbEntity
  8
0-0
6
CONTINUOUS
62
3
100
AcDb2dPolyline
66
1
10
0
20
0
70
1
40
0.800
41
0.800
0
VERTEX
5
b7e
100
AcDbEntity
  8
0-0
6
CONTINUOUS
62
3
100
AcDbVertex
100
AcDb2dVertex
10
945.501
20
877.165
30
0.0
42
1.000
0
VERTEX
5
b7f
100
AcDbEntity
  8
0-0
6
CONTINUOUS
62
3
100
AcDbVertex
100
AcDb2dVertex
10
946.301
20
877.165
30
0.0
42
1.000
0
SEQEND
5
b80
100
AcDbEntity
  8
0-0
0
POLYLINE
5
b81
100
AcDbEntity
  8
0-0
6
CONTINUOUS
62
3
100
AcDb2dPolyline
66
1
10
0
20
0
70
1
40
0.800
41
0.800
0
VERTEX
5
b82
100
AcDbEntity
  8
0-0
6
CONTINUOUS
62
3
100
AcDbVertex
100
AcDb2dVertex
10
712.524
20
877.165
30
0.0
42
1.000
0
VERTEX
5
b83
100
AcDbEntity
  8
0-0
6
CONTINUOUS
62
3
100
AcDbVertex
100
AcDb2dVertex
10
713.324
20
877.165
30
0.0
42
1.000
0
SEQEND
5
b84
100
AcDbEntity
  8
0-0
0
POLYLINE
5
b85
100
AcDbEntity
  8
0-0
6
CONTINUOUS
62
3
100
AcDb2dPolyline
66
1
10
0
20
0
70
1
40
0.800
41
0.800
0
VERTEX
5
b86
100
AcDbEntity
  8
0-0
6
CONTINUOUS
62
3
100
AcDbVertex
100
AcDb2dVertex
10
644.501
20
877.165
30
0.0
42
1.000
0
VERTEX
5
b87
100
AcDbEntity
  8
0-0
6
CONTINUOUS
62
3
100
AcDbVertex
100
AcDb2dVertex
10
645.301
20
877.165
30
0.0
42
1.000
0
SEQEND
5
b88
100
AcDbEntity
  8
0-0
0
POLYLINE
5
b89
100
AcDbEntity
  8
0-0
6
CONTINUOUS
62
3
100
AcDb2dPolyline
66
1
10
0
20
0
70
1
40
0.800
41
0.800
0
VERTEX
5
b8a
100
AcDbEntity
  8
0-0
6
CONTINUOUS
62
3
100
AcDbVertex
100
AcDb2dVertex
10
769.355
20
763.171
30
0.0
42
1.000
0
VERTEX
5
b8b
100
AcDbEntity
  8
0-0
6
CONTINUOUS
62
3
100
AcDbVertex
100
AcDb2dVertex
10
770.155
20
763.171
30
0.0
42
1.000
0
SEQEND
5
b8c
100
AcDbEntity
  8
0-0
0
POLYLINE
5
b8d
100
AcDbEntity
  8
0-0
6
CONTINUOUS
62
3
100
AcDb2dPolyline
66
1
10
0
20
0
70
1
40
0.800
41
0.800
0
VERTEX
5
b8e
100
AcDbEntity
  8
0-0
6
CONTINUOUS
62
3
100
AcDbVertex
100
AcDb2dVertex
10
769.355
20
846.171
30
0.0
42
1.000
0
VERTEX
5
b8f
100
AcDbEntity
  8
0-0
6
CONTINUOUS
62
3
100
AcDbVertex
100
AcDb2dVertex
10
770.155
20
846.171
30
0.0
42
1.000
0
SEQEND
5
b90
100
AcDbEntity
  8
0-0
0
POLYLINE
5
b91
100
AcDbEntity
  8
0-2
6
CONTINUOUS
62
3
100
AcDb2dPolyline
66
1
10
0
20
0
70
1
40
0.800
41
0.800
0
VERTEX
5
b92
100
AcDbEntity
  8
0-2
6
CONTINUOUS
62
3
100
AcDbVertex
100
AcDb2dVertex
10
978.501
20
497.540
30
0.0
42
1.000
0
VERTEX
5
b93
100
AcDbEntity
  8
0-2
6
CONTINUOUS
62
3
100
AcDbVertex
100
AcDb2dVertex
10
979.301
20
497.540
30
0.0
42
1.000
0
SEQEND
5
b94
100
AcDbEntity
  8
0-2
0
POLYLINE
5
b95
100
AcDbEntity
  8
0-2
6
CONTINUOUS
62
3
100
AcDb2dPolyline
66
1
10
0
20
0
70
1
40
0.800
41
0.800
0
VERTEX
5
b96
100
AcDbEntity
  8
0-2
6
CONTINUOUS
62
3
100
AcDbVertex
100
AcDb2dVertex
10
678.501
20
497.540
30
0.0
42
1.000
0
VERTEX
5
b97
100
AcDbEntity
  8
0-2
6
CONTINUOUS
62
3
100
AcDbVertex
100
AcDb2dVertex
10
679.301
20
497.540
30
0.0
42
1.000
0
SEQEND
5
b98
100
AcDbEntity
  8
0-2
0
POLYLINE
5
b99
100
AcDbEntity
  8
0-2
6
CONTINUOUS
62
3
100
AcDb2dPolyline
66
1
10
0
20
0
70
1
40
0.800
41
0.800
0
VERTEX
5
b9a
100
AcDbEntity
  8
0-2
6
CONTINUOUS
62
3
100
AcDbVertex
100
AcDb2dVertex
10
978.501
20
497.540
30
0.0
42
1.000
0
VERTEX
5
b9b
100
AcDbEntity
  8
0-2
6
CONTINUOUS
62
3
100
AcDbVertex
100
AcDb2dVertex
10
979.301
20
497.540
30
0.0
42
1.000
0
SEQEND
5
b9c
100
AcDbEntity
  8
0-2
0
POLYLINE
5
b9d
100
AcDbEntity
  8
0-2
6
CONTINUOUS
62
3
100
AcDb2dPolyline
66
1
10
0
20
0
70
1
40
0.800
41
0.800
0
VERTEX
5
b9e
100
AcDbEntity
  8
0-2
6
CONTINUOUS
62
3
100
AcDbVertex
100
AcDb2dVertex
10
1278.501
20
497.540
30
0.0
42
1.000
0
VERTEX
5
b9f
100
AcDbEntity
  8
0-2
6
CONTINUOUS
62
3
100
AcDbVertex
100
AcDb2dVertex
10
1279.301
20
497.540
30
0.0
42
1.000
0
SEQEND
5
ba0
100
AcDbEntity
  8
0-2
0
POLYLINE
5
ba1
100
AcDbEntity
  8
0-2
6
CONTINUOUS
62
3
100
AcDb2dPolyline
66
1
10
0
20
0
70
1
40
0.800
41
0.800
0
VERTEX
5
ba2
100
AcDbEntity
  8
0-2
6
CONTINUOUS
62
3
100
AcDbVertex
100
AcDb2dVertex
10
1187.647
20
363.567
30
0.0
42
1.000
0
VERTEX
5
ba3
100
AcDbEntity
  8
0-2
6
CONTINUOUS
62
3
100
AcDbVertex
100
AcDb2dVertex
10
1188.447
20
363.567
30
0.0
42
1.000
0
SEQEND
5
ba4
100
AcDbEntity
  8
0-2
0
POLYLINE
5
ba5
100
AcDbEntity
  8
0-2
6
CONTINUOUS
62
3
100
AcDb2dPolyline
66
1
10
0
20
0
70
1
40
0.800
41
0.800
0
VERTEX
5
ba6
100
AcDbEntity
  8
0-2
6
CONTINUOUS
62
3
100
AcDbVertex
100
AcDb2dVertex
10
1187.647
20
447.018
30
0.0
42
1.000
0
VERTEX
5
ba7
100
AcDbEntity
  8
0-2
6
CONTINUOUS
62
3
100
AcDbVertex
100
AcDb2dVertex
10
1188.447
20
447.018
30
0.0
42
1.000
0
SEQEND
5
ba8
100
AcDbEntity
  8
0-2
0
POLYLINE
5
ba9
100
AcDbEntity
  8
0-2
6
CONTINUOUS
62
3
100
AcDb2dPolyline
66
1
10
0
20
0
70
1
40
0.800
41
0.800
0
VERTEX
5
baa
100
AcDbEntity
  8
0-2
6
CONTINUOUS
62
3
100
AcDbVertex
100
AcDb2dVertex
10
663.962
20
424.727
30
0.0
42
1.000
0
VERTEX
5
bab
100
AcDbEntity
  8
0-2
6
CONTINUOUS
62
3
100
AcDbVertex
100
AcDb2dVertex
10
664.762
20
424.727
30
0.0
42
1.000
0
SEQEND
5
bac
100
AcDbEntity
  8
0-2
0
POLYLINE
5
bad
100
AcDbEntity
  8
0-2
6
CONTINUOUS
62
3
100
AcDb2dPolyline
66
1
10
0
20
0
70
1
40
0.800
41
0.800
0
VERTEX
5
bae
100
AcDbEntity
  8
0-2
6
CONTINUOUS
62
3
100
AcDbVertex
100
AcDb2dVertex
10
646.432
20
423.385
30
0.0
42
1.000
0
VERTEX
5
baf
100
AcDbEntity
  8
0-2
6
CONTINUOUS
62
3
100
AcDbVertex
100
AcDb2dVertex
10
647.232
20
423.385
30
0.0
42
1.000
0
SEQEND
5
bb0
100
AcDbEntity
  8
0-2
0
POLYLINE
5
bb1
100
AcDbEntity
  8
0-2
6
CONTINUOUS
62
3
100
AcDb2dPolyline
66
1
10
0
20
0
70
1
40
0.800
41
0.800
0
VERTEX
5
bb2
100
AcDbEntity
  8
0-2
6
CONTINUOUS
62
3
100
AcDbVertex
100
AcDb2dVertex
10
731.024
20
379.012
30
0.0
42
1.000
0
VERTEX
5
bb3
100
AcDbEntity
  8
0-2
6
CONTINUOUS
62
3
100
AcDbVertex
100
AcDb2dVertex
10
731.824
20
379.012
30
0.0
42
1.000
0
SEQEND
5
bb4
100
AcDbEntity
  8
0-2
0
POLYLINE
5
bb5
100
AcDbEntity
  8
0-2
6
CONTINUOUS
62
3
100
AcDb2dPolyline
66
1
10
0
20
0
70
1
40
0.800
41
0.800
0
VERTEX
5
bb6
100
AcDbEntity
  8
0-2
6
CONTINUOUS
62
3
100
AcDbVertex
100
AcDb2dVertex
10
831.205
20
363.971
30
0.0
42
1.000
0
VERTEX
5
bb7
100
AcDbEntity
  8
0-2
6
CONTINUOUS
62
3
100
AcDbVertex
100
AcDb2dVertex
10
832.005
20
363.971
30
0.0
42
1.000
0
SEQEND
5
bb8
100
AcDbEntity
  8
0-2
0
POLYLINE
5
bb9
100
AcDbEntity
  8
0-2
6
CONTINUOUS
62
3
100
AcDb2dPolyline
66
1
10
0
20
0
70
1
40
0.800
41
0.800
0
VERTEX
5
bba
100
AcDbEntity
  8
0-2
6
CONTINUOUS
62
3
100
AcDbVertex
100
AcDb2dVertex
10
1011.543
20
390.845
30
0.0
42
1.000
0
VERTEX
5
bbb
100
AcDbEntity
  8
0-2
6
CONTINUOUS
62
3
100
AcDbVertex
100
AcDb2dVertex
10
1012.343
20
390.845
30
0.0
42
1.000
0
SEQEND
5
bbc
100
AcDbEntity
  8
0-2
0
POLYLINE
5
bbd
100
AcDbEntity
  8
0-1
6
CONTINUOUS
62
3
100
AcDb2dPolyline
66
1
10
0
20
0
70
1
40
0.800
41
0.800
0
VERTEX
5
bbe
100
AcDbEntity
  8
0-1
6
CONTINUOUS
62
3
100
AcDbVertex
100
AcDb2dVertex
10
321.009
20
405.152
30
0.0
42
1.000
0
VERTEX
5
bbf
100
AcDbEntity
  8
0-1
6
CONTINUOUS
62
3
100
AcDbVertex
100
AcDb2dVertex
10
321.809
20
405.152
30
0.0
42
1.000
0
SEQEND
5
bc0
100
AcDbEntity
  8
0-1
0
ENDSEC
 0
SECTION
  2
OBJECTS
 0
DICTIONARY
  5
C
100
AcDbDictionary
  3
ACAD_GROUP
350
D
  3
ACAD_MLINESTYLE
350
E
 0
DICTIONARY
  5
D
102
{ACAD_REACTORS
102
}
100
AcDbDictionary
 0
DICTIONARY
  5
E
102
{ACAD_REACTORS
102
}
100
AcDbDictionary
  3
STANDARD
350
13
0
MLINESTYLE
  5
13
102
{ACAD_REACTORS
102
}
100
AcDbMlineStyle
  2
STANDARD
 70
    0
3

62
256
51
90.0
52
90.0
71
0
0
ACDBPLACEHOLDER
  5
14
102
{ACAD_REACTORS
102
}
0
ENDSEC
0
EOF
