0
SECTION
2
HEADER
9
$ACADVER
1
AC1015
9
$ACADMAINTVER
 70
6
9
$DWGCODEPAGE
3
ANSI_932
9
$EXTMIN
10
0.000
20
0.000
30
0.0
9
$EXTMAX
10
1682.000
20
1188.000
30
0.0
9
$LIMMIN
10
0.000
20
0.000
9
$LIMMAX
10
1682.000
20
1188.000
9
$DIMSCALE
40
2.000000
9
$LTSCALE
40
2.000
9
$PDMODE
70
0
9
$PDSIZE
40
40.0
9
$HANDSEED
5
62191
9
$UNITMODE
70
0
9
$VISRETAIN
70
0
9
$PLINEGEN
70
0
9
$PSLTSCALE
70
1
9
$TREEDEPTH
70
3020
9
$CMLSTYLE
2
STANDARD
9
$CMLJUST
70
0
9
$CMLSCALE
40
1.0
9
$PROXYGRAPHICS
70
1
9
$MEASUREMENT
70
0
9
$CELWEIGHT
370
-1
9
$ENDCAPS
280
0
9
$JOINSTYLE
280
0
9
$LWDISPLAY
290
0
9
$INSUNITS
70
0
9
$HYPERLINKBASE
1

9
$STYLESHEET
1

9
$XEDIT
290
1
9
$CEPSNTYPE
380
0
9
$PSTYLEMODE
290
1
9
$FINGERPRINTGUID
2
{5F082321-0195-11D3-BDFB-0060B0CD5109}
9
$VERSIONGUID
2
{12943756-294D-11D3-98C2-0060B087942D}
9
$EXTNAMES
290
1
9
$PSVPSCALE
40
0.0
9
$OLESTARTUP
290
0
0
ENDSEC
0
SECTION
  2
CLASSES
0
ENDSEC
0
SECTION
2
TABLES
0
TABLE
2
VPORT
5
190
100
AcDbSymbolTable
70
2
0
VPORT
5
191
100
AcDbSymbolTableRecord
100
AcDbViewportTableRecord
2
*ACTIVE
70
0
10
0.0
20
0.0
11
1.0
21
1.0
12
841.000
22
594.000
13
0.0
23
0.0
14
1.0
24
1.0
15
0.0
25
0.0
16
0.0
26
0.0
36
1.0
17
0.0
27
0.0
37
0.0
40
1218.841
41
2.0
42
50.0
43
0.0
44
0.0
50
0.0
51
0.0
71
0
72
1000
73
1
74
1
75
0
76
0
77
0
78
0
0
ENDTAB
0
TABLE
2
LTYPE
5
1f4
100
AcDbSymbolTable
70
9
0
LTYPE
5
1f5
100
AcDbSymbolTableRecord
100
AcDbLinetypeTableRecord
2
BYBLOCK
70
 64
3

72
 65
73
  0
40
0.0
0
LTYPE
5
1f6
100
AcDbSymbolTableRecord
100
AcDbLinetypeTableRecord
2
BYLAYER
70
 64
3

72
 65
73
  0
40
0.0
0
LTYPE
5
1f7
100
AcDbSymbolTableRecord
100
AcDbLinetypeTableRecord
2
CONTINUOUS
70
64
3
SolidLine
72
65
73
0
40
0.0
0
LTYPE
5
1f8
100
AcDbSymbolTableRecord
100
AcDbLinetypeTableRecord
2
DOT
70
64
3
--  --  --  --  --  --  --  --     
72
65
73
2
40
3.000
49
1.000
74
0
49
-2.000
74
0
0
LTYPE
5
1f9
100
AcDbSymbolTableRecord
100
AcDbLinetypeTableRecord
2
DASHED
70
64
3
----    ----    ----    ----    
72
65
73
2
40
5.000
49
2.000
74
0
49
-3.000
74
0
0
LTYPE
5
1fa
100
AcDbSymbolTableRecord
100
AcDbLinetypeTableRecord
2
DASHED2
70
64
3
------  ------  ------  ------ 
72
65
73
2
40
10.000
49
4.000
74
0
49
-6.000
74
0
0
LTYPE
5
1fb
100
AcDbSymbolTableRecord
100
AcDbLinetypeTableRecord
2
CENTER
70
64
3
----- - ----- - ----- - ----- - 
72
65
73
4
40
10.000
49
6.000
74
0
49
-3.000
74
0
49
1.000
74
0
49
-3.000
74
0
0
LTYPE
5
1fc
100
AcDbSymbolTableRecord
100
AcDbLinetypeTableRecord
2
CENTER2
70
64
3
----------  --  ----------  -- 
72
65
73
4
40
17.000
49
12.000
74
0
49
-5.000
74
0
49
2.000
74
0
49
-5.000
74
0
0
LTYPE
5
1fd
100
AcDbSymbolTableRecord
100
AcDbLinetypeTableRecord
2
PHANTOM
70
64
3
--- - - --- - - --- - - --- - -
72
65
73
6
40
13.000
49
5.000
74
0
49
-3.000
74
0
49
1.000
74
0
49
-3.000
74
0
49
1.000
74
0
49
-3.000
74
0
0
LTYPE
5
1fe
100
AcDbSymbolTableRecord
100
AcDbLinetypeTableRecord
2
PHANTOM2
70
64
3
--------  -  -  --------  -  -
72
65
73
6
40
20.000
49
6.000
74
0
49
-5.000
74
0
49
2.000
74
0
49
-5.000
74
0
49
2.000
74
0
49
-5.000
74
0
0
LTYPE
5
1ff
100
AcDbSymbolTableRecord
100
AcDbLinetypeTableRecord
2
HIDDEN
70
64
3
-   -   -   -   -   -   -   -   
72
65
73
2
40
3.000
49
0.500
74
0
49
-2.500
74
0
0
ENDTAB
0
TABLE
2
STYLE
5
200
100
AcDbSymbolTable
70
1
0
STYLE
5
201
100
AcDbSymbolTableRecord
100
AcDbTextStyleTableRecord
2
STANDARD
70
0
40
0.0
41
1.0
50
0.0
71
0
42
0.0
3
txt.shx
4
extfont.shx
0
STYLE
5
202
100
AcDbSymbolTableRecord
100
AcDbTextStyleTableRecord
2
TATEGAKI
70
4
40
0.0
41
1.0
50
0.0
71
0
42
0.0
3
txt.shx
4
extfont.shx
0
STYLE
5
203
100
AcDbSymbolTableRecord
100
AcDbTextStyleTableRecord
2
DIM
70
0
40
0.0
41
0.75
50
0.0
71
0
42
0.0
3
txt.shx
4
extfont.shx
0
STYLE
5
204
100
AcDbSymbolTableRecord
100
AcDbTextStyleTableRecord
2
_Gothic_
70
0
40
1.0
41
1.0
50
0.0
71
0
42
10.0
3

4

1001
ACAD
1000
MS Gothic
1071
32817
0
STYLE
5
205
100
AcDbSymbolTableRecord
100
AcDbTextStyleTableRecord
2
_TateGothic_
70
4
40
0.0
41
1.0
50
0.0
71
0
42
0.0
3
@MS Gothic
4

0
ENDTAB
0
TABLE
2
VIEW
5
206
100
AcDbSymbolTable
70
0
0
ENDTAB
0
TABLE
2
UCS
5
207
100
AcDbSymbolTable
70
0
0
ENDTAB
0
TABLE
2
APPID
5
208
100
AcDbSymbolTable
70
1
0
APPID
5
209
100
AcDbSymbolTableRecord
100
AcDbRegAppTableRecord
2
ACAD
70
0
0
ENDTAB
0
TABLE
2
DIMSTYLE
5
403
330
0
100
AcDbSymbolTable
70
1
100
AcDbDimStyleTable
71
0
0
DIMSTYLE
105
404
330
402
100
AcDbSymbolTableRecord
100
AcDbDimStyleTableRecord
2
JAC_DIM
70
0
41
4.000
42
0.000
44
0.0
73
0
74
0
77
1
78
8
79
2
140
0.000
170
0
171
2
172
0
173
0
174
0
175
0
176
0
177
0
178
0
270
2
271
0
272
0
273
2
274
2
340
201
275
0
280
0
281
0
282
0
283
0
284
0
285
0
286
0
287
3
288
0
0
ENDTAB
0
TABLE
2
BLOCK_RECORD
5
405
100
AcDbSymbolTable
70
0
0
BLOCK_RECORD
5
406
100
AcDbSymbolTableRecord
100
AcDbBlockTableRecord
2
*MODEL_SPACE
0
BLOCK_RECORD
5
407
100
AcDbSymbolTableRecord
100
AcDbBlockTableRecord
2
*PAPER_SPACE
0
BLOCK_RECORD
5
408
100
AcDbSymbolTableRecord
100
AcDbBlockTableRecord
2
_JACCONVERT_
0
ENDTAB
0
TABLE
2
LAYER
5
409
100
AcDbSymbolTable
70
10
0
LAYER
5
40a
100
AcDbSymbolTableRecord
100
AcDbLayerTableRecord
2
0
70
0
62
7
6
CONTINUOUS
370
-3
390
14
0
LAYER
5
40b
100
AcDbSymbolTableRecord
100
AcDbLayerTableRecord
2
0-00
70
0
62
7
6
CONTINUOUS
370
-3
390
14
0
LAYER
5
40c
100
AcDbSymbolTableRecord
100
AcDbLayerTableRecord
2
0-1_2_0
70
0
62
7
6
CONTINUOUS
370
-3
390
14
0
LAYER
5
40d
100
AcDbSymbolTableRecord
100
AcDbLayerTableRecord
2
0-2_2_1
70
0
62
7
6
CONTINUOUS
370
-3
390
14
0
LAYER
5
40e
100
AcDbSymbolTableRecord
100
AcDbLayerTableRecord
2
0-4_2_3
70
0
62
7
6
CONTINUOUS
370
-3
390
14
0
LAYER
5
40f
100
AcDbSymbolTableRecord
100
AcDbLayerTableRecord
2
0-5_2_4
70
0
62
7
6
CONTINUOUS
370
-3
390
14
0
LAYER
5
410
100
AcDbSymbolTableRecord
100
AcDbLayerTableRecord
2
0-6_2_5
70
0
62
7
6
CONTINUOUS
370
-3
390
14
0
LAYER
5
411
100
AcDbSymbolTableRecord
100
AcDbLayerTableRecord
2
F-E_J_ADD
70
0
62
-7
6
CONTINUOUS
290
0
370
-3
390
14
0
LAYER
5
412
100
AcDbSymbolTableRecord
100
AcDbLayerTableRecord
2
F-F
70
0
62
7
6
CONTINUOUS
370
-3
390
14
0
ENDTAB
0
ENDSEC
0
SECTION
2
BLOCKS
0
BLOCK
5
413
100
AcDbEntity
67
1
8
0
100
AcDbBlockBegin
2
*MODEL_SPACE
70
0
10
0.0
20
0.0
30
0.0
3
*MODEL_SPACE
1

0
ENDBLK
5
414
100
AcDbEntity
8
0
100
AcDbBlockEnd
0
BLOCK
5
415
100
AcDbEntity
67
1
8
0
100
AcDbBlockBegin
2
*PAPER_SPACE
70
0
10
0.0
20
0.0
30
0.0
3
*PAPER_SPACE
1

0
ENDBLK
5
416
100
AcDbEntity
67
1
8
0
100
AcDbBlockEnd
0
BLOCK
5
417
100
AcDbEntity
8
0
100
AcDbBlockBegin
2
_JACCONVERT_
70
2
10
0.0
20
0.0
30
0.0
3
_JACCONVERT_
1
_JACCONVERT_
0
ATTDEF
5
418
100
AcDbEntity
8
0
62
0
100
AcDbText
10
0.0
20
0.0
30
0.0
40
1.0
1
User:460950EB0890EC0964308A
100
AcDbAttributeDefinition
3

2
USER
70
8
0
ATTDEF
5
419
100
AcDbEntity
8
0
62
0
100
AcDbText
10
0.0
20
2.0
30
0.0
40
1.0
1
Date:15/06/12 13:45
100
AcDbAttributeDefinition
3

2
REVDATE
70
8
0
ATTDEF
5
41a
100
AcDbEntity
8
0
62
0
100
AcDbText
10
0.0
20
4.0
30
0.0
40
1.0
1
File:ｅルーフ横葺２２０　納め図２.dxf
100
AcDbAttributeDefinition
3

2
FNAME
70
8
0
ATTDEF
5
41b
100
AcDbEntity
8
0
62
0
100
AcDbText
10
0.0
20
6.0
30
0.0
40
1.0
1
JacConvert Version3.09 copyright (c) 2001-2013 K.Nakahara
100
AcDbAttributeDefinition
3

2
VER
70
8
0
ENDBLK
5
41c
100
AcDbEntity
67
1
8
0
100
AcDbBlockEnd
0
ENDSEC
0
SECTION
2
ENTITIES
0
LINE
5
41d
100
AcDbEntity
8
0-5_2_4
6
CONTINUOUS
62
4
100
AcDbLine
10
813.620000000000
20
248.610000000000
30
0.0
11
838.620000000000
21
273.610000000000
31
0.0
0
LINE
5
41e
100
AcDbEntity
8
0-5_2_4
6
CONTINUOUS
62
4
100
AcDbLine
10
785.340000000000
20
248.610000000000
30
0.0
11
810.340000000000
21
273.610000000000
31
0.0
0
LINE
5
41f
100
AcDbEntity
8
0-5_2_4
6
CONTINUOUS
62
4
100
AcDbLine
10
757.050000000000
20
248.610000000000
30
0.0
11
782.050000000000
21
273.610000000000
31
0.0
0
LINE
5
420
100
AcDbEntity
8
0-5_2_4
6
CONTINUOUS
62
4
100
AcDbLine
10
728.770000000000
20
248.610000000000
30
0.0
11
753.770000000000
21
273.610000000000
31
0.0
0
LINE
5
421
100
AcDbEntity
8
0-5_2_4
6
CONTINUOUS
62
4
100
AcDbLine
10
700.490000000000
20
248.610000000000
30
0.0
11
725.490000000000
21
273.610000000000
31
0.0
0
LINE
5
422
100
AcDbEntity
8
0-5_2_4
6
CONTINUOUS
62
4
100
AcDbLine
10
672.200000000000
20
248.610000000000
30
0.0
11
697.200000000000
21
273.610000000000
31
0.0
0
LINE
5
423
100
AcDbEntity
8
0-5_2_4
6
CONTINUOUS
62
4
100
AcDbLine
10
653.090000000000
20
257.790000000000
30
0.0
11
668.920000000000
21
273.610000000000
31
0.0
0
LINE
5
424
100
AcDbEntity
8
0-5_2_4
6
CONTINUOUS
62
4
100
AcDbLine
10
656.190000000000
20
273.610000000000
30
0.0
11
681.190000000000
21
248.610000000000
31
0.0
0
LINE
5
425
100
AcDbEntity
8
0-5_2_4
6
CONTINUOUS
62
4
100
AcDbLine
10
684.470000000000
20
273.610000000000
30
0.0
11
709.470000000000
21
248.610000000000
31
0.0
0
LINE
5
426
100
AcDbEntity
8
0-5_2_4
6
CONTINUOUS
62
4
100
AcDbLine
10
712.760000000000
20
273.610000000000
30
0.0
11
737.760000000000
21
248.610000000000
31
0.0
0
LINE
5
427
100
AcDbEntity
8
0-5_2_4
6
CONTINUOUS
62
4
100
AcDbLine
10
741.040000000000
20
273.610000000000
30
0.0
11
766.040000000000
21
248.610000000000
31
0.0
0
LINE
5
428
100
AcDbEntity
8
0-5_2_4
6
CONTINUOUS
62
4
100
AcDbLine
10
769.320000000000
20
273.610000000000
30
0.0
11
794.320000000000
21
248.610000000000
31
0.0
0
LINE
5
429
100
AcDbEntity
8
0-5_2_4
6
CONTINUOUS
62
4
100
AcDbLine
10
797.610000000000
20
273.610000000000
30
0.0
11
822.610000000000
21
248.610000000000
31
0.0
0
LINE
5
42a
100
AcDbEntity
8
0-5_2_4
6
CONTINUOUS
62
7
100
AcDbLine
10
927.710000000000
20
315.610000000000
30
0.0
11
867.710000000000
21
315.610000000000
31
0.0
0
LINE
5
42b
100
AcDbEntity
8
0-5_2_4
6
CONTINUOUS
62
3
100
AcDbLine
10
932.010000000000
20
417.310000000000
30
0.0
11
932.010000000000
21
371.910000000000
31
0.0
0
LINE
5
42c
100
AcDbEntity
8
0-5_2_4
6
CONTINUOUS
62
3
100
AcDbLine
10
1027.410000000000
20
369.610000000000
30
0.0
11
932.010000000000
21
369.610000000000
31
0.0
0
LINE
5
42d
100
AcDbEntity
8
0-5_2_4
6
CONTINUOUS
62
3
100
AcDbLine
10
932.010000000000
20
371.910000000000
30
0.0
11
1027.410000000000
21
371.910000000000
31
0.0
0
LINE
5
42e
100
AcDbEntity
8
0-5_2_4
6
CONTINUOUS
62
3
100
AcDbLine
10
1029.710000000000
20
417.310000000000
30
0.0
11
1029.710000000000
21
371.910000000000
31
0.0
0
LINE
5
42f
100
AcDbEntity
8
0-5_2_4
6
CONTINUOUS
62
3
100
AcDbLine
10
1027.410000000000
20
371.910000000000
30
0.0
11
1027.410000000000
21
417.310000000000
31
0.0
0
LINE
5
430
100
AcDbEntity
8
0-5_2_4
6
CONTINUOUS
62
3
100
AcDbLine
10
1009.710000000000
20
419.610000000000
30
0.0
11
1027.410000000000
21
419.610000000000
31
0.0
0
POLYLINE
5
431
100
AcDbEntity
8
0-5_2_4
6
CONTINUOUS
62
  3
100
AcDb2dPolyline
66
1
10
0.0
20
0.0
30
0.0
70
0
0
VERTEX
5
432
100
AcDbEntity
8
0-5_2_4
6
CONTINUOUS
62
  3
100
AcDbVertex
100
AcDb2dVertex
10
1027.410000000000
20
417.310000000000
30
0.0
0
VERTEX
5
433
100
AcDbEntity
8
0-5_2_4
6
CONTINUOUS
62
  3
100
AcDbVertex
100
AcDb2dVertex
10
1009.710000000000
20
417.310000000000
30
0.0
0
VERTEX
5
434
100
AcDbEntity
8
0-5_2_4
6
CONTINUOUS
62
  3
100
AcDbVertex
100
AcDb2dVertex
10
1009.710000000000
20
419.610000000000
30
0.0
0
SEQEND
5
435
100
AcDbEntity
8
0-5_2_4
0
LINE
5
436
100
AcDbEntity
8
0-5_2_4
6
CONTINUOUS
62
3
100
AcDbLine
10
949.710000000000
20
417.310000000000
30
0.0
11
932.010000000000
21
417.310000000000
31
0.0
0
POLYLINE
5
437
100
AcDbEntity
8
0-5_2_4
6
CONTINUOUS
62
  3
100
AcDb2dPolyline
66
1
10
0.0
20
0.0
30
0.0
70
0
0
VERTEX
5
438
100
AcDbEntity
8
0-5_2_4
6
CONTINUOUS
62
  3
100
AcDbVertex
100
AcDb2dVertex
10
932.010000000000
20
419.610000000000
30
0.0
0
VERTEX
5
439
100
AcDbEntity
8
0-5_2_4
6
CONTINUOUS
62
  3
100
AcDbVertex
100
AcDb2dVertex
10
949.710000000000
20
419.610000000000
30
0.0
0
VERTEX
5
43a
100
AcDbEntity
8
0-5_2_4
6
CONTINUOUS
62
  3
100
AcDbVertex
100
AcDb2dVertex
10
949.710000000000
20
417.310000000000
30
0.0
0
SEQEND
5
43b
100
AcDbEntity
8
0-5_2_4
0
LINE
5
43c
100
AcDbEntity
8
0-5_2_4
6
CONTINUOUS
62
3
100
AcDbLine
10
929.710000000000
20
371.910000000000
30
0.0
11
929.710000000000
21
417.310000000000
31
0.0
0
LINE
5
43d
100
AcDbEntity
8
0-5_2_4
6
CONTINUOUS
62
7
100
AcDbLine
10
909.710000000000
20
324.610000000000
30
0.0
11
924.710000000000
21
324.610000000000
31
0.0
0
LINE
5
43e
100
AcDbEntity
8
0-5_2_4
6
CONTINUOUS
62
4
100
AcDbLine
10
918.970000000000
20
324.610000000000
30
0.0
11
924.710000000000
21
330.350000000000
31
0.0
0
LINE
5
43f
100
AcDbEntity
8
0-5_2_4
6
CONTINUOUS
62
4
100
AcDbLine
10
916.140000000000
20
324.610000000000
30
0.0
11
924.710000000000
21
333.180000000000
31
0.0
0
LINE
5
440
100
AcDbEntity
8
0-5_2_4
6
CONTINUOUS
62
4
100
AcDbLine
10
909.710000000000
20
343.640000000000
30
0.0
11
924.710000000000
21
358.640000000000
31
0.0
0
LINE
5
441
100
AcDbEntity
8
0-5_2_4
6
CONTINUOUS
62
4
100
AcDbLine
10
909.710000000000
20
346.470000000000
30
0.0
11
924.710000000000
21
361.470000000000
31
0.0
0
LINE
5
442
100
AcDbEntity
8
0-5_2_4
6
CONTINUOUS
62
4
100
AcDbLine
10
909.710000000000
20
371.920000000000
30
0.0
11
924.710000000000
21
386.920000000000
31
0.0
0
LINE
5
443
100
AcDbEntity
8
0-5_2_4
6
CONTINUOUS
62
4
100
AcDbLine
10
909.710000000000
20
374.750000000000
30
0.0
11
924.710000000000
21
389.750000000000
31
0.0
0
LINE
5
444
100
AcDbEntity
8
0-5_2_4
6
CONTINUOUS
62
4
100
AcDbLine
10
909.710000000000
20
400.210000000000
30
0.0
11
924.710000000000
21
415.210000000000
31
0.0
0
LINE
5
445
100
AcDbEntity
8
0-5_2_4
6
CONTINUOUS
62
4
100
AcDbLine
10
909.710000000000
20
403.030000000000
30
0.0
11
924.710000000000
21
418.030000000000
31
0.0
0
LINE
5
446
100
AcDbEntity
8
0-5_2_4
6
CONTINUOUS
62
4
100
AcDbLine
10
909.710000000000
20
428.490000000000
30
0.0
11
924.710000000000
21
443.490000000000
31
0.0
0
LINE
5
447
100
AcDbEntity
8
0-5_2_4
6
CONTINUOUS
62
4
100
AcDbLine
10
909.710000000000
20
431.320000000000
30
0.0
11
924.710000000000
21
446.320000000000
31
0.0
0
LINE
5
448
100
AcDbEntity
8
0-5_2_4
6
CONTINUOUS
62
3
100
AcDbLine
10
929.710000000000
20
273.610000000000
30
0.0
11
653.090000000000
21
273.610000000000
31
0.0
0
POLYLINE
5
449
100
AcDbEntity
8
0-5_2_4
6
CONTINUOUS
62
  3
100
AcDb2dPolyline
66
1
10
0.0
20
0.0
30
0.0
70
0
0
VERTEX
5
44a
100
AcDbEntity
8
0-5_2_4
6
CONTINUOUS
62
  3
100
AcDbVertex
100
AcDb2dVertex
10
929.710000000000
20
273.610000000000
30
0.0
0
VERTEX
5
44b
100
AcDbEntity
8
0-5_2_4
6
CONTINUOUS
62
  3
100
AcDbVertex
100
AcDb2dVertex
10
929.710000000000
20
248.610000000000
30
0.0
0
VERTEX
5
44c
100
AcDbEntity
8
0-5_2_4
6
CONTINUOUS
62
  3
100
AcDbVertex
100
AcDb2dVertex
10
653.090000000000
20
248.610000000000
30
0.0
0
SEQEND
5
44d
100
AcDbEntity
8
0-5_2_4
0
LINE
5
44e
100
AcDbEntity
8
0-5_2_4
6
CONTINUOUS
62
4
100
AcDbLine
10
841.910000000000
20
248.610000000000
30
0.0
11
866.910000000000
21
273.610000000000
31
0.0
0
LINE
5
44f
100
AcDbEntity
8
0-5_2_4
6
CONTINUOUS
62
4
100
AcDbLine
10
825.890000000000
20
273.610000000000
30
0.0
11
850.890000000000
21
248.610000000000
31
0.0
0
LINE
5
450
100
AcDbEntity
8
0-5_2_4
6
CONTINUOUS
62
4
100
AcDbLine
10
870.190000000000
20
248.610000000000
30
0.0
11
895.190000000000
21
273.610000000000
31
0.0
0
LINE
5
451
100
AcDbEntity
8
0-5_2_4
6
CONTINUOUS
62
4
100
AcDbLine
10
898.480000000000
20
248.610000000000
30
0.0
11
923.480000000000
21
273.610000000000
31
0.0
0
LINE
5
452
100
AcDbEntity
8
0-5_2_4
6
CONTINUOUS
62
4
100
AcDbLine
10
854.180000000000
20
273.610000000000
30
0.0
11
879.180000000000
21
248.610000000000
31
0.0
0
LINE
5
453
100
AcDbEntity
8
0-5_2_4
6
CONTINUOUS
62
4
100
AcDbLine
10
882.460000000000
20
273.610000000000
30
0.0
11
907.460000000000
21
248.610000000000
31
0.0
0
LINE
5
454
100
AcDbEntity
8
0-5_2_4
6
CONTINUOUS
62
4
100
AcDbLine
10
910.740000000000
20
273.610000000000
30
0.0
11
929.710000000000
21
254.650000000000
31
0.0
0
LINE
5
455
100
AcDbEntity
8
0-5_2_4
6
CONTINUOUS
62
4
100
AcDbLine
10
926.760000000000
20
248.610000000000
30
0.0
11
929.710000000000
21
251.560000000000
31
0.0
0
POLYLINE
5
456
100
AcDbEntity
8
0-5_2_4
6
CONTINUOUS
62
  3
100
AcDb2dPolyline
66
1
10
0.0
20
0.0
30
0.0
70
0
0
VERTEX
5
457
100
AcDbEntity
8
0-5_2_4
6
CONTINUOUS
62
  3
100
AcDbVertex
100
AcDb2dVertex
10
882.010000000000
20
150.910000000000
30
0.0
0
VERTEX
5
458
100
AcDbEntity
8
0-5_2_4
6
CONTINUOUS
62
  3
100
AcDbVertex
100
AcDb2dVertex
10
927.410000000000
20
150.910000000000
30
0.0
0
VERTEX
5
459
100
AcDbEntity
8
0-5_2_4
6
CONTINUOUS
62
  3
100
AcDbVertex
100
AcDb2dVertex
10
927.410000000000
20
246.310000000000
30
0.0
0
VERTEX
5
45a
100
AcDbEntity
8
0-5_2_4
6
CONTINUOUS
62
  3
100
AcDbVertex
100
AcDb2dVertex
10
882.010000000000
20
246.310000000000
30
0.0
0
SEQEND
5
45b
100
AcDbEntity
8
0-5_2_4
0
LINE
5
45c
100
AcDbEntity
8
0-5_2_4
6
CONTINUOUS
62
3
100
AcDbLine
10
879.710000000000
20
228.610000000000
30
0.0
11
879.710000000000
21
246.310000000000
31
0.0
0
POLYLINE
5
45d
100
AcDbEntity
8
0-5_2_4
6
CONTINUOUS
62
  3
100
AcDb2dPolyline
66
1
10
0.0
20
0.0
30
0.0
70
0
0
VERTEX
5
45e
100
AcDbEntity
8
0-5_2_4
6
CONTINUOUS
62
  3
100
AcDbVertex
100
AcDb2dVertex
10
882.010000000000
20
246.310000000000
30
0.0
0
VERTEX
5
45f
100
AcDbEntity
8
0-5_2_4
6
CONTINUOUS
62
  3
100
AcDbVertex
100
AcDb2dVertex
10
882.010000000000
20
228.610000000000
30
0.0
0
VERTEX
5
460
100
AcDbEntity
8
0-5_2_4
6
CONTINUOUS
62
  3
100
AcDbVertex
100
AcDb2dVertex
10
879.710000000000
20
228.610000000000
30
0.0
0
SEQEND
5
461
100
AcDbEntity
8
0-5_2_4
0
LINE
5
462
100
AcDbEntity
8
0-5_2_4
6
CONTINUOUS
62
3
100
AcDbLine
10
882.010000000000
20
168.610000000000
30
0.0
11
882.010000000000
21
150.910000000000
31
0.0
0
POLYLINE
5
463
100
AcDbEntity
8
0-5_2_4
6
CONTINUOUS
62
  3
100
AcDb2dPolyline
66
1
10
0.0
20
0.0
30
0.0
70
0
0
VERTEX
5
464
100
AcDbEntity
8
0-5_2_4
6
CONTINUOUS
62
  3
100
AcDbVertex
100
AcDb2dVertex
10
879.710000000000
20
150.910000000000
30
0.0
0
VERTEX
5
465
100
AcDbEntity
8
0-5_2_4
6
CONTINUOUS
62
  3
100
AcDbVertex
100
AcDb2dVertex
10
879.710000000000
20
168.610000000000
30
0.0
0
VERTEX
5
466
100
AcDbEntity
8
0-5_2_4
6
CONTINUOUS
62
  3
100
AcDbVertex
100
AcDb2dVertex
10
882.010000000000
20
168.610000000000
30
0.0
0
SEQEND
5
467
100
AcDbEntity
8
0-5_2_4
0
LINE
5
468
100
AcDbEntity
8
0-5_2_4
6
CONTINUOUS
62
3
100
AcDbLine
10
927.410000000000
20
148.610000000000
30
0.0
11
882.010000000000
21
148.610000000000
31
0.0
0
LINE
5
469
100
AcDbEntity
8
0-5_2_4
6
CONTINUOUS
62
3
100
AcDbLine
10
882.010000000000
20
248.610000000000
30
0.0
11
929.710000000000
21
248.610000000000
31
0.0
0
LINE
5
46a
100
AcDbEntity
8
0-5_2_4
6
CONTINUOUS
62
3
100
AcDbLine
10
874.710000000000
20
148.610000000000
30
0.0
11
874.710000000000
21
248.610000000000
31
0.0
0
LINE
5
46b
100
AcDbEntity
8
0-5_2_4
6
CONTINUOUS
62
3
100
AcDbLine
10
653.090000000000
20
228.610000000000
30
0.0
11
874.710000000000
21
228.610000000000
31
0.0
0
LINE
5
46c
100
AcDbEntity
8
0-5_2_4
6
CONTINUOUS
62
3
100
AcDbLine
10
653.090000000000
20
168.610000000000
30
0.0
11
874.710000000000
21
168.610000000000
31
0.0
0
LINE
5
46d
100
AcDbEntity
8
0-5_2_4
6
CONTINUOUS
62
3
100
AcDbLine
10
653.090000000000
20
148.610000000000
30
0.0
11
874.710000000000
21
148.610000000000
31
0.0
0
LINE
5
46e
100
AcDbEntity
8
0-5_2_4
6
CONTINUOUS
62
7
100
AcDbLine
10
698.220000000000
20
274.620000000000
30
0.0
11
699.290000000000
21
270.620000000000
31
0.0
0
LINE
5
46f
100
AcDbEntity
8
0-5_2_4
6
CONTINUOUS
62
7
100
AcDbLine
10
698.220000000000
20
274.620000000000
30
0.0
11
701.150000000000
21
271.690000000000
31
0.0
0
LINE
5
470
100
AcDbEntity
8
0-5_2_4
6
CONTINUOUS
62
7
100
AcDbLine
10
698.220000000000
20
274.620000000000
30
0.0
11
730.440000000000
21
218.810000000000
31
0.0
0
LINE
5
471
100
AcDbEntity
8
0-5_2_4
6
CONTINUOUS
62
7
100
AcDbLine
10
799.470000000000
20
258.060000000000
30
0.0
11
800.540000000000
21
254.060000000000
31
0.0
0
LINE
5
472
100
AcDbEntity
8
0-5_2_4
6
CONTINUOUS
62
7
100
AcDbLine
10
799.470000000000
20
258.060000000000
30
0.0
11
802.400000000000
21
255.130000000000
31
0.0
0
LINE
5
473
100
AcDbEntity
8
0-5_2_4
6
CONTINUOUS
62
7
100
AcDbLine
10
799.470000000000
20
258.060000000000
30
0.0
11
811.020000000000
21
238.060000000000
31
0.0
0
LINE
5
474
100
AcDbEntity
8
F-F
6
CONTINUOUS
62
3
100
AcDbLine
10
580.390000000000
20
82.890000000000
30
0.0
11
580.390000000000
21
1143.640000000000
31
0.0
0
LINE
5
475
100
AcDbEntity
8
F-F
6
CONTINUOUS
62
3
100
AcDbLine
10
1106.020000000000
20
82.890000000000
30
0.0
11
1106.020000000000
21
1143.640000000000
31
0.0
0
LINE
5
476
100
AcDbEntity
8
F-F
6
CONTINUOUS
62
3
100
AcDbLine
10
54.760000000000
20
613.270000000000
30
0.0
11
1631.650000000000
21
613.270000000000
31
0.0
0
LINE
5
477
100
AcDbEntity
8
F-F
6
CONTINUOUS
62
3
100
AcDbLine
10
54.760000000000
20
1103.640000000000
30
0.0
11
1631.650000000000
21
1103.640000000000
31
0.0
0
LINE
5
478
100
AcDbEntity
8
F-F
6
CONTINUOUS
62
3
100
AcDbLine
10
54.760000000000
20
573.270000000000
30
0.0
11
1631.650000000000
21
573.270000000000
31
0.0
0
LINE
5
479
100
AcDbEntity
8
F-F
6
CONTINUOUS
62
2
100
AcDbLine
10
54.760000000000
20
23.630000000000
30
0.0
11
54.760000000000
21
1143.640000000000
31
0.0
0
LINE
5
47a
100
AcDbEntity
8
F-F
6
CONTINUOUS
62
2
100
AcDbLine
10
1284.760000000000
20
82.890000000000
30
0.0
11
1284.760000000000
21
23.630000000000
31
0.0
0
LINE
5
47b
100
AcDbEntity
8
F-F
6
CONTINUOUS
62
2
100
AcDbLine
10
1214.540000000000
20
82.890000000000
30
0.0
11
1214.540000000000
21
23.630000000000
31
0.0
0
LINE
5
47c
100
AcDbEntity
8
F-F
6
CONTINUOUS
62
2
100
AcDbLine
10
1537.120000000000
20
23.630000000000
30
0.0
11
1537.120000000000
21
82.890000000000
31
0.0
0
LINE
5
47d
100
AcDbEntity
8
F-F
6
CONTINUOUS
62
2
100
AcDbLine
10
806.890000000000
20
82.890000000000
30
0.0
11
806.890000000000
21
23.630000000000
31
0.0
0
LINE
5
47e
100
AcDbEntity
8
F-F
6
CONTINUOUS
62
2
100
AcDbLine
10
1009.740000000000
20
82.890000000000
30
0.0
11
1009.740000000000
21
23.630000000000
31
0.0
0
LINE
5
47f
100
AcDbEntity
8
F-F
6
CONTINUOUS
62
2
100
AcDbLine
10
806.890000000000
20
63.140000000000
30
0.0
11
369.760000000000
21
63.140000000000
31
0.0
0
LINE
5
480
100
AcDbEntity
8
F-F
6
CONTINUOUS
62
2
100
AcDbLine
10
806.890000000000
20
43.390000000000
30
0.0
11
369.760000000000
21
43.390000000000
31
0.0
0
LINE
5
481
100
AcDbEntity
8
F-F
6
CONTINUOUS
62
2
100
AcDbLine
10
806.890000000000
20
33.510000000000
30
0.0
11
369.760000000000
21
33.510000000000
31
0.0
0
LINE
5
482
100
AcDbEntity
8
F-F
6
CONTINUOUS
62
2
100
AcDbLine
10
806.890000000000
20
73.020000000000
30
0.0
11
369.760000000000
21
73.020000000000
31
0.0
0
LINE
5
483
100
AcDbEntity
8
F-F
6
CONTINUOUS
62
2
100
AcDbLine
10
422.420000000000
20
82.890000000000
30
0.0
11
422.420000000000
21
23.630000000000
31
0.0
0
LINE
5
484
100
AcDbEntity
8
F-F
6
CONTINUOUS
62
2
100
AcDbLine
10
369.760000000000
20
82.890000000000
30
0.0
11
369.760000000000
21
23.630000000000
31
0.0
0
LINE
5
485
100
AcDbEntity
8
F-F
6
CONTINUOUS
62
2
100
AcDbLine
10
1631.650000000000
20
23.630000000000
30
0.0
11
1631.650000000000
21
1143.640000000000
31
0.0
0
LINE
5
486
100
AcDbEntity
8
F-F
6
CONTINUOUS
62
2
100
AcDbLine
10
54.760000000000
20
1143.640000000000
30
0.0
11
1631.650000000000
21
1143.640000000000
31
0.0
0
LINE
5
487
100
AcDbEntity
8
F-F
6
CONTINUOUS
62
2
100
AcDbLine
10
54.760000000000
20
23.630000000000
30
0.0
11
1631.650000000000
21
23.630000000000
31
0.0
0
LINE
5
488
100
AcDbEntity
8
F-F
6
CONTINUOUS
62
2
100
AcDbLine
10
1631.650000000000
20
82.890000000000
30
0.0
11
54.760000000000
21
82.890000000000
31
0.0
0
LINE
5
489
100
AcDbEntity
8
F-F
6
CONTINUOUS
62
2
100
AcDbLine
10
369.760000000000
20
53.260000000000
30
0.0
11
1631.650000000000
21
53.260000000000
31
0.0
0
POLYLINE
5
48a
100
AcDbEntity
8
0-5_2_4
6
CONTINUOUS
62
  3
100
AcDb2dPolyline
66
1
10
0.0
20
0.0
30
0.0
70
0
0
VERTEX
5
48b
100
AcDbEntity
8
0-5_2_4
6
CONTINUOUS
62
  3
100
AcDbVertex
100
AcDb2dVertex
10
929.710000000000
20
248.610000000000
30
0.0
0
VERTEX
5
48c
100
AcDbEntity
8
0-5_2_4
6
CONTINUOUS
62
  3
100
AcDbVertex
100
AcDb2dVertex
10
929.710000000000
20
246.310000000000
30
0.0
0
VERTEX
5
48d
100
AcDbEntity
8
0-5_2_4
6
CONTINUOUS
62
  3
100
AcDbVertex
100
AcDb2dVertex
10
929.710000000000
20
150.910000000000
30
0.0
0
SEQEND
5
48e
100
AcDbEntity
8
0-5_2_4
0
LINE
5
48f
100
AcDbEntity
8
0-5_2_4
6
CONTINUOUS
62
7
100
AcDbLine
10
867.710000000000
20
315.610000000000
30
0.0
11
867.710000000000
21
275.610000000000
31
0.0
0
LINE
5
490
100
AcDbEntity
8
0-5_2_4
6
CONTINUOUS
62
7
100
AcDbLine
10
927.710000000000
20
275.610000000000
30
0.0
11
867.710000000000
21
275.610000000000
31
0.0
0
LINE
5
491
100
AcDbEntity
8
0-5_2_4
6
CONTINUOUS
62
7
100
AcDbLine
10
927.710000000000
20
315.610000000000
30
0.0
11
927.710000000000
21
275.610000000000
31
0.0
0
LINE
5
492
100
AcDbEntity
8
0-5_2_4
6
CONTINUOUS
62
3
100
AcDbLine
10
929.710000000000
20
273.610000000000
30
0.0
11
929.710000000000
21
371.910000000000
31
0.0
0
LINE
5
493
100
AcDbEntity
8
0-5_2_4
6
DASHED
62
7
100
AcDbLine
10
929.040000000000
20
318.610000000000
30
0.0
11
929.040000000000
21
276.610000000000
31
0.0
0
LINE
5
494
100
AcDbEntity
8
0-5_2_4
6
CONTINUOUS
62
4
100
AcDbLine
10
935.860000000000
20
248.610000000000
30
0.0
11
977.800000000000
21
248.610000000000
31
0.0
0
LINE
5
495
100
AcDbEntity
8
0-5_2_4
6
CONTINUOUS
62
4
100
AcDbLine
10
977.800000000000
20
369.610000000000
30
0.0
11
977.800000000000
21
248.610000000000
31
0.0
0
LINE
5
496
100
AcDbEntity
8
0-5_2_4
6
CONTINUOUS
62
7
100
AcDbLine
10
795.510000000000
20
276.010000000000
30
0.0
11
785.510000000000
21
276.010000000000
31
0.0
0
LINE
5
497
100
AcDbEntity
8
0-5_2_4
6
CONTINUOUS
62
7
100
AcDbLine
10
795.510000000000
20
275.410000000000
30
0.0
11
785.510000000000
21
275.410000000000
31
0.0
0
LINE
5
498
100
AcDbEntity
8
0-5_2_4
6
DASHED
62
7
100
AcDbLine
10
779.810000000000
20
274.610000000000
30
0.0
11
653.090000000000
21
274.610000000000
31
0.0
0
LINE
5
499
100
AcDbEntity
8
0-5_2_4
6
DASHED
62
7
100
AcDbLine
10
779.810000000000
20
274.610000000000
30
0.0
11
785.510000000000
21
276.010000000000
31
0.0
0
LINE
5
49a
100
AcDbEntity
8
0-5_2_4
6
CONTINUOUS
62
7
100
AcDbLine
10
795.510000000000
20
275.410000000000
30
0.0
11
795.510000000000
21
276.010000000000
31
0.0
0
LINE
5
49b
100
AcDbEntity
8
0-5_2_4
6
DASHED
62
7
100
AcDbLine
10
795.510000000000
20
276.010000000000
30
0.0
11
799.420000000000
21
275.410000000000
31
0.0
0
LINE
5
49c
100
AcDbEntity
8
0-5_2_4
6
DASHED
62
7
100
AcDbLine
10
865.510000000000
20
275.410000000000
30
0.0
11
799.420000000000
21
275.410000000000
31
0.0
0
LINE
5
49d
100
AcDbEntity
8
0-5_2_4
6
CONTINUOUS
62
7
100
AcDbLine
10
835.510000000000
20
294.810000000000
30
0.0
11
835.510000000000
21
295.410000000000
31
0.0
0
LINE
5
49e
100
AcDbEntity
8
0-5_2_4
6
CONTINUOUS
62
7
100
AcDbLine
10
849.020000000000
20
294.210000000000
30
0.0
11
849.020000000000
21
293.610000000000
31
0.0
0
LINE
5
49f
100
AcDbEntity
8
0-5_2_4
6
CONTINUOUS
62
7
100
AcDbLine
10
835.510000000000
20
294.210000000000
30
0.0
11
849.020000000000
21
294.210000000000
31
0.0
0
LINE
5
4a0
100
AcDbEntity
8
0-5_2_4
6
CONTINUOUS
62
7
100
AcDbLine
10
835.510000000000
20
293.610000000000
30
0.0
11
849.020000000000
21
293.610000000000
31
0.0
0
LINE
5
4a1
100
AcDbEntity
8
0-5_2_4
6
CONTINUOUS
62
7
100
AcDbLine
10
864.910000000000
20
296.610000000000
30
0.0
11
835.510000000000
21
296.610000000000
31
0.0
0
LINE
5
4a2
100
AcDbEntity
8
0-5_2_4
6
CONTINUOUS
62
7
100
AcDbLine
10
835.510000000000
20
296.010000000000
30
0.0
11
864.910000000000
21
296.010000000000
31
0.0
0
LINE
5
4a3
100
AcDbEntity
8
0-5_2_4
6
CONTINUOUS
62
7
100
AcDbLine
10
864.910000000000
20
294.810000000000
30
0.0
11
835.510000000000
21
294.810000000000
31
0.0
0
LINE
5
4a4
100
AcDbEntity
8
0-5_2_4
6
CONTINUOUS
62
7
100
AcDbLine
10
835.510000000000
20
295.410000000000
30
0.0
11
864.910000000000
21
295.410000000000
31
0.0
0
LINE
5
4a5
100
AcDbEntity
8
0-5_2_4
6
CONTINUOUS
62
7
100
AcDbLine
10
864.910000000000
20
274.810000000000
30
0.0
11
785.510000000000
21
274.810000000000
31
0.0
0
LINE
5
4a6
100
AcDbEntity
8
0-5_2_4
6
CONTINUOUS
62
7
100
AcDbLine
10
864.910000000000
20
274.210000000000
30
0.0
11
785.510000000000
21
274.210000000000
31
0.0
0
LINE
5
4a7
100
AcDbEntity
8
0-5_2_4
6
CONTINUOUS
62
7
100
AcDbLine
10
867.710000000000
20
275.610000000000
30
0.0
11
927.710000000000
21
315.610000000000
31
0.0
0
LINE
5
4a8
100
AcDbEntity
8
0-5_2_4
6
CONTINUOUS
62
7
100
AcDbLine
10
849.020000000000
20
294.810000000000
30
0.0
11
849.020000000000
21
274.010000000000
31
0.0
0
LINE
5
4a9
100
AcDbEntity
8
0-5_2_4
6
CONTINUOUS
62
7
100
AcDbLine
10
858.490000000000
20
274.010000000000
30
0.0
11
865.510000000000
21
281.030000000000
31
0.0
0
LINE
5
4aa
100
AcDbEntity
8
0-5_2_4
6
CONTINUOUS
62
7
100
AcDbLine
10
851.420000000000
20
274.010000000000
30
0.0
11
865.510000000000
21
288.100000000000
31
0.0
0
LINE
5
4ab
100
AcDbEntity
8
0-5_2_4
6
CONTINUOUS
62
7
100
AcDbLine
10
854.490000000000
20
294.810000000000
30
0.0
11
865.510000000000
21
283.800000000000
31
0.0
0
LINE
5
4ac
100
AcDbEntity
8
0-5_2_4
6
CONTINUOUS
62
7
100
AcDbLine
10
861.570000000000
20
294.810000000000
30
0.0
11
865.510000000000
21
290.870000000000
31
0.0
0
LINE
5
4ad
100
AcDbEntity
8
0-5_2_4
6
CONTINUOUS
62
7
100
AcDbLine
10
839.690000000000
20
275.090000000000
30
0.0
11
840.770000000000
21
274.010000000000
31
0.0
0
LINE
5
4ae
100
AcDbEntity
8
0-5_2_4
6
CONTINUOUS
62
7
100
AcDbLine
10
840.630000000000
20
276.980000000000
30
0.0
11
843.600000000000
21
274.010000000000
31
0.0
0
LINE
5
4af
100
AcDbEntity
8
0-5_2_4
6
CONTINUOUS
62
7
100
AcDbLine
10
841.360000000000
20
279.070000000000
30
0.0
11
846.430000000000
21
274.010000000000
31
0.0
0
LINE
5
4b0
100
AcDbEntity
8
0-5_2_4
6
CONTINUOUS
62
7
100
AcDbLine
10
841.850000000000
20
281.410000000000
30
0.0
11
849.020000000000
21
274.250000000000
31
0.0
0
LINE
5
4b1
100
AcDbEntity
8
0-5_2_4
6
CONTINUOUS
62
7
100
AcDbLine
10
842.010000000000
20
284.080000000000
30
0.0
11
849.020000000000
21
277.080000000000
31
0.0
0
LINE
5
4b2
100
AcDbEntity
8
0-5_2_4
6
CONTINUOUS
62
7
100
AcDbLine
10
841.680000000000
20
287.250000000000
30
0.0
11
849.020000000000
21
279.910000000000
31
0.0
0
LINE
5
4b3
100
AcDbEntity
8
0-5_2_4
6
CONTINUOUS
62
7
100
AcDbLine
10
840.230000000000
20
291.530000000000
30
0.0
11
849.020000000000
21
282.730000000000
31
0.0
0
LINE
5
4b4
100
AcDbEntity
8
0-5_2_4
6
CONTINUOUS
62
7
100
AcDbLine
10
840.970000000000
20
293.610000000000
30
0.0
11
849.020000000000
21
285.560000000000
31
0.0
0
LINE
5
4b5
100
AcDbEntity
8
0-5_2_4
6
CONTINUOUS
62
7
100
AcDbLine
10
843.800000000000
20
293.610000000000
30
0.0
11
849.020000000000
21
288.390000000000
31
0.0
0
LINE
5
4b6
100
AcDbEntity
8
0-5_2_4
6
CONTINUOUS
62
7
100
AcDbLine
10
846.620000000000
20
293.610000000000
30
0.0
11
849.020000000000
21
291.220000000000
31
0.0
0
LINE
5
4b7
100
AcDbEntity
8
0-5_2_4
6
CONTINUOUS
62
7
100
AcDbLine
10
848.010000000000
20
274.010000000000
30
0.0
11
849.020000000000
21
275.020000000000
31
0.0
0
LINE
5
4b8
100
AcDbEntity
8
0-5_2_4
6
CONTINUOUS
62
7
100
AcDbLine
10
845.180000000000
20
274.010000000000
30
0.0
11
849.020000000000
21
277.850000000000
31
0.0
0
LINE
5
4b9
100
AcDbEntity
8
0-5_2_4
6
CONTINUOUS
62
7
100
AcDbLine
10
842.350000000000
20
274.010000000000
30
0.0
11
849.020000000000
21
280.680000000000
31
0.0
0
LINE
5
4ba
100
AcDbEntity
8
0-5_2_4
6
CONTINUOUS
62
7
100
AcDbLine
10
839.520000000000
20
274.010000000000
30
0.0
11
849.020000000000
21
283.510000000000
31
0.0
0
LINE
5
4bb
100
AcDbEntity
8
0-5_2_4
6
CONTINUOUS
62
7
100
AcDbLine
10
841.190000000000
20
278.510000000000
30
0.0
11
849.020000000000
21
286.330000000000
31
0.0
0
LINE
5
4bc
100
AcDbEntity
8
0-5_2_4
6
CONTINUOUS
62
7
100
AcDbLine
10
841.930000000000
20
282.080000000000
30
0.0
11
849.020000000000
21
289.160000000000
31
0.0
0
LINE
5
4bd
100
AcDbEntity
8
0-5_2_4
6
CONTINUOUS
62
7
100
AcDbLine
10
841.980000000000
20
284.950000000000
30
0.0
11
849.020000000000
21
291.990000000000
31
0.0
0
LINE
5
4be
100
AcDbEntity
8
0-5_2_4
6
CONTINUOUS
62
7
100
AcDbLine
10
841.640000000000
20
287.440000000000
30
0.0
11
847.810000000000
21
293.610000000000
31
0.0
0
LINE
5
4bf
100
AcDbEntity
8
0-5_2_4
6
CONTINUOUS
62
7
100
AcDbLine
10
841.020000000000
20
289.650000000000
30
0.0
11
844.980000000000
21
293.610000000000
31
0.0
0
LINE
5
4c0
100
AcDbEntity
8
0-5_2_4
6
CONTINUOUS
62
7
100
AcDbLine
10
840.170000000000
20
291.630000000000
30
0.0
11
842.150000000000
21
293.610000000000
31
0.0
0
LINE
5
4c1
100
AcDbEntity
8
0-5_2_4
6
CONTINUOUS
62
7
100
AcDbLine
10
839.140000000000
20
293.430000000000
30
0.0
11
839.320000000000
21
293.610000000000
31
0.0
0
LINE
5
4c2
100
AcDbEntity
8
0-5_2_4
6
CONTINUOUS
62
7
100
AcDbLine
10
849.020000000000
20
279.080000000000
30
0.0
11
854.080000000000
21
274.010000000000
31
0.0
0
LINE
5
4c3
100
AcDbEntity
8
0-5_2_4
6
CONTINUOUS
62
7
100
AcDbLine
10
849.020000000000
20
278.680000000000
30
0.0
11
865.120000000000
21
294.780000000000
31
0.0
0
LINE
5
4c4
100
AcDbEntity
8
0-5_2_4
6
CONTINUOUS
62
7
100
AcDbLine
10
849.020000000000
20
286.150000000000
30
0.0
11
861.150000000000
21
274.010000000000
31
0.0
0
LINE
5
4c5
100
AcDbEntity
8
0-5_2_4
6
CONTINUOUS
62
7
100
AcDbLine
10
849.020000000000
20
285.750000000000
30
0.0
11
858.080000000000
21
294.810000000000
31
0.0
0
LINE
5
4c6
100
AcDbEntity
8
0-5_2_4
6
CONTINUOUS
62
7
100
AcDbLine
10
849.020000000000
20
293.220000000000
30
0.0
11
865.510000000000
21
276.730000000000
31
0.0
0
LINE
5
4c7
100
AcDbEntity
8
0-5_2_4
6
CONTINUOUS
62
7
100
AcDbLine
10
909.710000000000
20
428.490000000000
30
0.0
11
903.920000000000
21
426.940000000000
31
0.0
0
LINE
5
4c8
100
AcDbEntity
8
0-5_2_4
6
CONTINUOUS
62
7
100
AcDbLine
10
909.710000000000
20
428.490000000000
30
0.0
11
903.920000000000
21
430.040000000000
31
0.0
0
LINE
5
4c9
100
AcDbEntity
8
0-5_2_4
6
CONTINUOUS
62
7
100
AcDbLine
10
889.660000000000
20
428.490000000000
30
0.0
11
884.860000000000
21
442.700000000000
31
0.0
0
LINE
5
4ca
100
AcDbEntity
8
0-5_2_4
6
CONTINUOUS
62
7
100
AcDbLine
10
889.660000000000
20
428.490000000000
30
0.0
11
909.710000000000
21
428.490000000000
31
0.0
0
LINE
5
4cb
100
AcDbEntity
8
0-5_2_4
6
CONTINUOUS
62
7
100
AcDbLine
10
895.900000000000
20
318.200000000000
30
0.0
11
895.640000000000
21
322.330000000000
31
0.0
0
LINE
5
4cc
100
AcDbEntity
8
0-5_2_4
6
CONTINUOUS
62
7
100
AcDbLine
10
895.900000000000
20
318.200000000000
30
0.0
11
893.610000000000
21
321.650000000000
31
0.0
0
LINE
5
4cd
100
AcDbEntity
8
0-5_2_4
6
CONTINUOUS
62
7
100
AcDbLine
10
895.900000000000
20
318.200000000000
30
0.0
11
873.840000000000
21
383.430000000000
31
0.0
0
LINE
5
4ce
100
AcDbEntity
8
0-5_2_4
6
CONTINUOUS
62
7
100
AcDbLine
10
875.840000000000
20
301.850000000000
30
0.0
11
875.580000000000
21
305.980000000000
31
0.0
0
LINE
5
4cf
100
AcDbEntity
8
0-5_2_4
6
CONTINUOUS
62
7
100
AcDbLine
10
875.840000000000
20
301.850000000000
30
0.0
11
873.550000000000
21
305.300000000000
31
0.0
0
LINE
5
4d0
100
AcDbEntity
8
0-5_2_4
6
CONTINUOUS
62
7
100
AcDbLine
10
875.840000000000
20
301.850000000000
30
0.0
11
854.800000000000
21
364.040000000000
31
0.0
0
LINE
5
4d1
100
AcDbEntity
8
0-5_2_4
6
CONTINUOUS
62
7
100
AcDbLine
10
800.420000000000
20
274.810000000000
30
0.0
11
800.150000000000
21
278.940000000000
31
0.0
0
LINE
5
4d2
100
AcDbEntity
8
0-5_2_4
6
CONTINUOUS
62
7
100
AcDbLine
10
800.420000000000
20
274.810000000000
30
0.0
11
798.120000000000
21
278.260000000000
31
0.0
0
LINE
5
4d3
100
AcDbEntity
8
0-5_2_4
6
CONTINUOUS
62
7
100
AcDbLine
10
841.930000000000
20
282.080000000000
30
0.0
11
836.130000000000
21
280.520000000000
31
0.0
0
LINE
5
4d4
100
AcDbEntity
8
0-5_2_4
6
CONTINUOUS
62
7
100
AcDbLine
10
841.930000000000
20
282.080000000000
30
0.0
11
836.130000000000
21
283.630000000000
31
0.0
0
LINE
5
4d5
100
AcDbEntity
8
0-5_2_4
6
CONTINUOUS
62
7
100
AcDbLine
10
821.880000000000
20
282.080000000000
30
0.0
11
841.930000000000
21
282.080000000000
31
0.0
0
LINE
5
4d6
100
AcDbEntity
8
0-5_2_4
6
CONTINUOUS
62
7
100
AcDbLine
10
821.880000000000
20
282.080000000000
30
0.0
11
808.550000000000
21
321.490000000000
31
0.0
0
LINE
5
4d7
100
AcDbEntity
8
0-5_2_4
6
CONTINUOUS
62
7
100
AcDbLine
10
857.030000000000
20
287.690000000000
30
0.0
11
856.760000000000
21
291.830000000000
31
0.0
0
LINE
5
4d8
100
AcDbEntity
8
0-5_2_4
6
CONTINUOUS
62
7
100
AcDbLine
10
857.030000000000
20
287.690000000000
30
0.0
11
854.730000000000
21
291.140000000000
31
0.0
0
LINE
5
4d9
100
AcDbEntity
8
0-5_2_4
6
CONTINUOUS
62
7
100
AcDbLine
10
857.030000000000
20
287.690000000000
30
0.0
11
839.330000000000
21
340.010000000000
31
0.0
0
LINE
5
4da
100
AcDbEntity
8
0-5_2_4
6
CONTINUOUS
62
7
100
AcDbLine
10
701.890000000000
20
293.010000000000
30
0.0
11
701.620000000000
21
297.140000000000
31
0.0
0
LINE
5
4db
100
AcDbEntity
8
0-5_2_4
6
CONTINUOUS
62
7
100
AcDbLine
10
701.890000000000
20
293.010000000000
30
0.0
11
699.590000000000
21
296.460000000000
31
0.0
0
LINE
5
4dc
100
AcDbEntity
8
0-5_2_4
6
CONTINUOUS
62
7
100
AcDbLine
10
925.110000000000
20
318.210000000000
30
0.0
11
851.510000000000
21
318.210000000000
31
0.0
0
LINE
5
4dd
100
AcDbEntity
8
0-5_2_4
6
CONTINUOUS
62
7
100
AcDbLine
10
851.510000000000
20
317.610000000000
30
0.0
11
925.110000000000
21
317.610000000000
31
0.0
0
LINE
5
4de
100
AcDbEntity
8
0-5_2_4
6
CONTINUOUS
62
7
100
AcDbLine
10
851.510000000000
20
316.010000000000
30
0.0
11
851.510000000000
21
316.610000000000
31
0.0
0
LINE
5
4df
100
AcDbEntity
8
0-5_2_4
6
CONTINUOUS
62
7
100
AcDbLine
10
851.510000000000
20
315.010000000000
30
0.0
11
864.510000000000
21
315.010000000000
31
0.0
0
LINE
5
4e0
100
AcDbEntity
8
0-5_2_4
6
CONTINUOUS
62
7
100
AcDbLine
10
851.510000000000
20
314.410000000000
30
0.0
11
864.510000000000
21
314.410000000000
31
0.0
0
LINE
5
4e1
100
AcDbEntity
8
0-5_2_4
6
CONTINUOUS
62
7
100
AcDbLine
10
864.910000000000
20
316.010000000000
30
0.0
11
851.510000000000
21
316.010000000000
31
0.0
0
LINE
5
4e2
100
AcDbEntity
8
0-5_2_4
6
CONTINUOUS
62
7
100
AcDbLine
10
851.510000000000
20
316.610000000000
30
0.0
11
864.910000000000
21
316.610000000000
31
0.0
0
LINE
5
4e3
100
AcDbEntity
8
0-5_2_4
6
DASHED
62
7
100
AcDbLine
10
926.710000000000
20
274.610000000000
30
0.0
11
865.810000000000
21
274.610000000000
31
0.0
0
LINE
5
4e4
100
AcDbEntity
8
0-5_2_4
6
DASHED
62
7
100
AcDbLine
10
866.710000000000
20
314.610000000000
30
0.0
11
866.710000000000
21
274.610000000000
31
0.0
0
LINE
5
4e5
100
AcDbEntity
8
0-5_2_4
6
CONTINUOUS
62
7
100
AcDbLine
10
864.510000000000
20
314.410000000000
30
0.0
11
864.510000000000
21
315.010000000000
31
0.0
0
LINE
5
4e6
100
AcDbEntity
8
0-2_2_1
6
CONTINUOUS
62
3
100
AcDbLine
10
1368.830000000000
20
861.960000000000
30
0.0
11
1362.770000000000
21
886.220000000000
31
0.0
0
LINE
5
4e7
100
AcDbEntity
8
0-2_2_1
6
CONTINUOUS
62
4
100
AcDbLine
10
1335.390000000000
20
853.600000000000
30
0.0
11
1353.580000000000
21
883.920000000000
31
0.0
0
LINE
5
4e8
100
AcDbEntity
8
0-2_2_1
6
CONTINUOUS
62
4
100
AcDbLine
10
1307.950000000000
20
846.740000000000
30
0.0
11
1326.140000000000
21
877.060000000000
31
0.0
0
LINE
5
4e9
100
AcDbEntity
8
0-2_2_1
6
CONTINUOUS
62
4
100
AcDbLine
10
1280.510000000000
20
839.880000000000
30
0.0
11
1298.700000000000
21
870.200000000000
31
0.0
0
LINE
5
4ea
100
AcDbEntity
8
0-2_2_1
6
CONTINUOUS
62
4
100
AcDbLine
10
1253.070000000000
20
833.020000000000
30
0.0
11
1271.260000000000
21
863.340000000000
31
0.0
0
LINE
5
4eb
100
AcDbEntity
8
0-2_2_1
6
CONTINUOUS
62
4
100
AcDbLine
10
1225.630000000000
20
826.160000000000
30
0.0
11
1243.820000000000
21
856.480000000000
31
0.0
0
LINE
5
4ec
100
AcDbEntity
8
0-2_2_1
6
CONTINUOUS
62
4
100
AcDbLine
10
1198.190000000000
20
819.300000000000
30
0.0
11
1216.380000000000
21
849.620000000000
31
0.0
0
LINE
5
4ed
100
AcDbEntity
8
0-2_2_1
6
CONTINUOUS
62
4
100
AcDbLine
10
1176.590000000000
20
839.670000000000
30
0.0
11
1206.910000000000
21
821.480000000000
31
0.0
0
LINE
5
4ee
100
AcDbEntity
8
0-2_2_1
6
CONTINUOUS
62
4
100
AcDbLine
10
1204.030000000000
20
846.530000000000
30
0.0
11
1234.350000000000
21
828.340000000000
31
0.0
0
LINE
5
4ef
100
AcDbEntity
8
0-2_2_1
6
CONTINUOUS
62
4
100
AcDbLine
10
1231.470000000000
20
853.390000000000
30
0.0
11
1261.790000000000
21
835.200000000000
31
0.0
0
LINE
5
4f0
100
AcDbEntity
8
0-2_2_1
6
CONTINUOUS
62
4
100
AcDbLine
10
1258.910000000000
20
860.250000000000
30
0.0
11
1289.230000000000
21
842.060000000000
31
0.0
0
LINE
5
4f1
100
AcDbEntity
8
0-2_2_1
6
CONTINUOUS
62
4
100
AcDbLine
10
1286.350000000000
20
867.110000000000
30
0.0
11
1316.670000000000
21
848.920000000000
31
0.0
0
LINE
5
4f2
100
AcDbEntity
8
0-2_2_1
6
CONTINUOUS
62
4
100
AcDbLine
10
1313.790000000000
20
873.970000000000
30
0.0
11
1344.110000000000
21
855.780000000000
31
0.0
0
LINE
5
4f3
100
AcDbEntity
8
0-2_2_1
6
CONTINUOUS
62
4
100
AcDbLine
10
1362.830000000000
20
860.460000000000
30
0.0
11
1367.330000000000
21
867.960000000000
31
0.0
0
LINE
5
4f4
100
AcDbEntity
8
0-2_2_1
6
CONTINUOUS
62
4
100
AcDbLine
10
1341.230000000000
20
880.830000000000
30
0.0
11
1368.150000000000
21
864.680000000000
31
0.0
0
LINE
5
4f5
100
AcDbEntity
8
0-2_2_1
6
CONTINUOUS
62
2
100
AcDbLine
10
1318.830000000000
20
847.810000000000
30
0.0
11
1318.440000000000
21
849.360000000000
31
0.0
0
LINE
5
4f6
100
AcDbEntity
8
0-2_2_1
6
CONTINUOUS
62
2
100
AcDbLine
10
1270.320000000000
20
835.690000000000
30
0.0
11
1269.940000000000
21
837.240000000000
31
0.0
0
LINE
5
4f7
100
AcDbEntity
8
0-2_2_1
6
CONTINUOUS
62
2
100
AcDbLine
10
1318.830000000000
20
847.810000000000
30
0.0
11
1270.320000000000
21
835.690000000000
31
0.0
0
LINE
5
4f8
100
AcDbEntity
8
0-2_2_1
6
CONTINUOUS
62
2
100
AcDbLine
10
1269.940000000000
20
837.240000000000
30
0.0
11
1318.440000000000
21
849.360000000000
31
0.0
0
LINE
5
4f9
100
AcDbEntity
8
0-2_2_1
6
CONTINUOUS
62
2
100
AcDbLine
10
1270.130000000000
20
836.460000000000
30
0.0
11
1318.640000000000
21
848.590000000000
31
0.0
0
LINE
5
4fa
100
AcDbEntity
8
0-6_2_5
6
CONTINUOUS
62
3
100
AcDbLine
10
1368.830000000000
20
324.570000000000
30
0.0
11
1362.770000000000
21
300.320000000000
31
0.0
0
LINE
5
4fb
100
AcDbEntity
8
0-6_2_5
6
CENTER2
62
4
100
AcDbLine
10
1368.830000000000
20
416.510000000000
30
0.0
11
1368.830000000000
21
190.380000000000
31
0.0
0
LINE
5
4fc
100
AcDbEntity
8
0-6_2_5
6
CONTINUOUS
62
4
100
AcDbLine
10
1335.390000000000
20
332.930000000000
30
0.0
11
1353.580000000000
21
302.620000000000
31
0.0
0
LINE
5
4fd
100
AcDbEntity
8
0-6_2_5
6
CONTINUOUS
62
4
100
AcDbLine
10
1307.950000000000
20
339.790000000000
30
0.0
11
1326.140000000000
21
309.480000000000
31
0.0
0
LINE
5
4fe
100
AcDbEntity
8
0-6_2_5
6
CONTINUOUS
62
4
100
AcDbLine
10
1280.510000000000
20
346.650000000000
30
0.0
11
1298.700000000000
21
316.340000000000
31
0.0
0
LINE
5
4ff
100
AcDbEntity
8
0-6_2_5
6
CONTINUOUS
62
4
100
AcDbLine
10
1253.070000000000
20
353.510000000000
30
0.0
11
1271.260000000000
21
323.200000000000
31
0.0
0
LINE
5
500
100
AcDbEntity
8
0-6_2_5
6
CONTINUOUS
62
4
100
AcDbLine
10
1225.630000000000
20
360.370000000000
30
0.0
11
1243.820000000000
21
330.060000000000
31
0.0
0
LINE
5
501
100
AcDbEntity
8
0-6_2_5
6
CONTINUOUS
62
4
100
AcDbLine
10
1198.190000000000
20
367.230000000000
30
0.0
11
1216.380000000000
21
336.920000000000
31
0.0
0
LINE
5
502
100
AcDbEntity
8
0-6_2_5
6
CONTINUOUS
62
4
100
AcDbLine
10
1176.590000000000
20
346.860000000000
30
0.0
11
1206.910000000000
21
365.050000000000
31
0.0
0
LINE
5
503
100
AcDbEntity
8
0-6_2_5
6
CONTINUOUS
62
4
100
AcDbLine
10
1204.030000000000
20
340.000000000000
30
0.0
11
1234.350000000000
21
358.190000000000
31
0.0
0
LINE
5
504
100
AcDbEntity
8
0-6_2_5
6
CONTINUOUS
62
4
100
AcDbLine
10
1231.470000000000
20
333.140000000000
30
0.0
11
1261.790000000000
21
351.330000000000
31
0.0
0
LINE
5
505
100
AcDbEntity
8
0-6_2_5
6
CONTINUOUS
62
4
100
AcDbLine
10
1258.910000000000
20
326.280000000000
30
0.0
11
1289.230000000000
21
344.470000000000
31
0.0
0
LINE
5
506
100
AcDbEntity
8
0-6_2_5
6
CONTINUOUS
62
4
100
AcDbLine
10
1286.350000000000
20
319.420000000000
30
0.0
11
1316.670000000000
21
337.610000000000
31
0.0
0
LINE
5
507
100
AcDbEntity
8
0-6_2_5
6
CONTINUOUS
62
4
100
AcDbLine
10
1313.790000000000
20
312.560000000000
30
0.0
11
1344.110000000000
21
330.750000000000
31
0.0
0
LINE
5
508
100
AcDbEntity
8
0-6_2_5
6
CONTINUOUS
62
4
100
AcDbLine
10
1362.830000000000
20
326.070000000000
30
0.0
11
1367.330000000000
21
318.570000000000
31
0.0
0
LINE
5
509
100
AcDbEntity
8
0-6_2_5
6
CONTINUOUS
62
4
100
AcDbLine
10
1341.230000000000
20
305.700000000000
30
0.0
11
1368.150000000000
21
321.860000000000
31
0.0
0
LINE
5
50a
100
AcDbEntity
8
0-6_2_5
6
CONTINUOUS
62
2
100
AcDbLine
10
1318.830000000000
20
311.300000000000
30
0.0
11
1318.440000000000
21
309.750000000000
31
0.0
0
LINE
5
50b
100
AcDbEntity
8
0-6_2_5
6
CONTINUOUS
62
2
100
AcDbLine
10
1270.320000000000
20
323.430000000000
30
0.0
11
1269.940000000000
21
321.880000000000
31
0.0
0
LINE
5
50c
100
AcDbEntity
8
0-6_2_5
6
CONTINUOUS
62
2
100
AcDbLine
10
1318.830000000000
20
311.300000000000
30
0.0
11
1270.320000000000
21
323.430000000000
31
0.0
0
LINE
5
50d
100
AcDbEntity
8
0-6_2_5
6
CONTINUOUS
62
2
100
AcDbLine
10
1269.940000000000
20
321.880000000000
30
0.0
11
1318.440000000000
21
309.750000000000
31
0.0
0
LINE
5
50e
100
AcDbEntity
8
0-6_2_5
6
CONTINUOUS
62
2
100
AcDbLine
10
1270.130000000000
20
322.650000000000
30
0.0
11
1318.640000000000
21
310.530000000000
31
0.0
0
LINE
5
50f
100
AcDbEntity
8
0-6_2_5
6
CONTINUOUS
62
4
100
AcDbLine
10
1170.750000000000
20
374.090000000000
30
0.0
11
1188.940000000000
21
343.780000000000
31
0.0
0
LINE
5
510
100
AcDbEntity
8
0-6_2_5
6
CONTINUOUS
62
4
100
AcDbLine
10
1143.310000000000
20
380.950000000000
30
0.0
11
1161.500000000000
21
350.640000000000
31
0.0
0
LINE
5
511
100
AcDbEntity
8
0-6_2_5
6
CONTINUOUS
62
3
100
AcDbLine
10
1368.830000000000
20
324.570000000000
30
0.0
11
1140.910000000000
21
381.550000000000
31
0.0
0
LINE
5
512
100
AcDbEntity
8
0-6_2_5
6
CONTINUOUS
62
4
100
AcDbLine
10
1138.140000000000
20
370.440000000000
30
0.0
11
1152.030000000000
21
378.770000000000
31
0.0
0
LINE
5
513
100
AcDbEntity
8
0-6_2_5
6
CONTINUOUS
62
4
100
AcDbLine
10
1149.150000000000
20
353.720000000000
30
0.0
11
1179.470000000000
21
371.910000000000
31
0.0
0
LINE
5
514
100
AcDbEntity
8
0-6_2_5
6
CONTINUOUS
62
3
100
AcDbLine
10
1362.770000000000
20
300.320000000000
30
0.0
11
1134.850000000000
21
357.300000000000
31
0.0
0
LINE
5
515
100
AcDbEntity
8
0-6_2_5
6
CONTINUOUS
62
7
100
AcDbLine
10
1268.690000000000
20
356.410000000000
30
0.0
11
1249.280000000000
21
361.260000000000
31
0.0
0
LINE
5
516
100
AcDbEntity
8
0-6_2_5
6
CONTINUOUS
62
7
100
AcDbLine
10
1268.830000000000
20
356.990000000000
30
0.0
11
1249.430000000000
21
361.850000000000
31
0.0
0
POLYLINE
5
517
100
AcDbEntity
8
0-6_2_5
6
CONTINUOUS
62
  7
100
AcDb2dPolyline
66
1
10
0.0
20
0.0
30
0.0
70
0
0
VERTEX
5
518
100
AcDbEntity
8
0-6_2_5
6
CONTINUOUS
62
  7
100
AcDbVertex
100
AcDb2dVertex
10
1183.380000000000
20
377.120000000000
30
0.0
0
VERTEX
5
519
100
AcDbEntity
8
0-6_2_5
6
CONTINUOUS
62
  7
100
AcDbVertex
100
AcDb2dVertex
10
1183.240000000000
20
376.540000000000
30
0.0
0
VERTEX
5
51a
100
AcDbEntity
8
0-6_2_5
6
CONTINUOUS
62
  7
100
AcDbVertex
100
AcDb2dVertex
10
1168.690000000000
20
380.180000000000
30
0.0
0
SEQEND
5
51b
100
AcDbEntity
8
0-6_2_5
0
LINE
5
51c
100
AcDbEntity
8
0-6_2_5
6
CONTINUOUS
62
7
100
AcDbLine
10
1183.380000000000
20
377.120000000000
30
0.0
11
1168.830000000000
21
380.760000000000
31
0.0
0
LINE
5
51d
100
AcDbEntity
8
0-6_2_5
6
CONTINUOUS
62
7
100
AcDbLine
10
1182.800000000000
20
374.790000000000
30
0.0
11
1168.250000000000
21
378.430000000000
31
0.0
0
LINE
5
51e
100
AcDbEntity
8
0-6_2_5
6
CONTINUOUS
62
7
100
AcDbLine
10
1182.660000000000
20
374.210000000000
30
0.0
11
1168.100000000000
21
377.850000000000
31
0.0
0
LINE
5
51f
100
AcDbEntity
8
0-6_2_5
6
CONTINUOUS
62
7
100
AcDbLine
10
1182.800000000000
20
374.790000000000
30
0.0
11
1249.430000000000
21
361.850000000000
31
0.0
0
LINE
5
520
100
AcDbEntity
8
0-6_2_5
6
CONTINUOUS
62
7
100
AcDbLine
10
1249.280000000000
20
361.260000000000
30
0.0
11
1182.660000000000
21
374.210000000000
31
0.0
0
LINE
5
521
100
AcDbEntity
8
0-6_2_5
6
CONTINUOUS
62
7
100
AcDbLine
10
1268.390000000000
20
355.250000000000
30
0.0
11
1248.990000000000
21
360.100000000000
31
0.0
0
LINE
5
522
100
AcDbEntity
8
0-6_2_5
6
CONTINUOUS
62
7
100
AcDbLine
10
1268.540000000000
20
355.830000000000
30
0.0
11
1249.140000000000
21
360.680000000000
31
0.0
0
LINE
5
523
100
AcDbEntity
8
0-6_2_5
6
CONTINUOUS
62
7
100
AcDbLine
10
1253.700000000000
20
358.300000000000
30
0.0
11
1253.550000000000
21
357.720000000000
31
0.0
0
LINE
5
524
100
AcDbEntity
8
0-6_2_5
6
CONTINUOUS
62
3
100
AcDbLine
10
1362.380000000000
20
298.770000000000
30
0.0
11
1134.460000000000
21
355.750000000000
31
0.0
0
LINE
5
525
100
AcDbEntity
8
0-6_2_5
6
CONTINUOUS
62
3
100
AcDbLine
10
1357.530000000000
20
279.360000000000
30
0.0
11
1129.610000000000
21
336.340000000000
31
0.0
0
LINE
5
526
100
AcDbEntity
8
0-6_2_5
6
CONTINUOUS
62
7
100
AcDbLine
10
1269.220000000000
20
354.420000000000
30
0.0
11
1253.700000000000
21
358.300000000000
31
0.0
0
LINE
5
527
100
AcDbEntity
8
0-6_2_5
6
CONTINUOUS
62
7
100
AcDbLine
10
1269.950000000000
20
354.860000000000
30
0.0
11
1270.820000000000
21
358.340000000000
31
0.0
0
LINE
5
528
100
AcDbEntity
8
0-6_2_5
6
CONTINUOUS
62
7
100
AcDbLine
10
1269.070000000000
20
353.840000000000
30
0.0
11
1253.550000000000
21
357.720000000000
31
0.0
0
LINE
5
529
100
AcDbEntity
8
0-6_2_5
6
CONTINUOUS
62
3
100
AcDbLine
10
1368.830000000000
20
324.570000000000
30
0.0
11
1374.890000000000
21
300.320000000000
31
0.0
0
LINE
5
52a
100
AcDbEntity
8
0-6_2_5
6
CONTINUOUS
62
4
100
AcDbLine
10
1402.270000000000
20
332.930000000000
30
0.0
11
1384.080000000000
21
302.620000000000
31
0.0
0
LINE
5
52b
100
AcDbEntity
8
0-6_2_5
6
CONTINUOUS
62
4
100
AcDbLine
10
1429.710000000000
20
339.790000000000
30
0.0
11
1411.520000000000
21
309.480000000000
31
0.0
0
LINE
5
52c
100
AcDbEntity
8
0-6_2_5
6
CONTINUOUS
62
4
100
AcDbLine
10
1457.150000000000
20
346.650000000000
30
0.0
11
1438.960000000000
21
316.340000000000
31
0.0
0
LINE
5
52d
100
AcDbEntity
8
0-6_2_5
6
CONTINUOUS
62
4
100
AcDbLine
10
1484.590000000000
20
353.510000000000
30
0.0
11
1466.400000000000
21
323.200000000000
31
0.0
0
LINE
5
52e
100
AcDbEntity
8
0-6_2_5
6
CONTINUOUS
62
4
100
AcDbLine
10
1512.030000000000
20
360.370000000000
30
0.0
11
1493.840000000000
21
330.060000000000
31
0.0
0
LINE
5
52f
100
AcDbEntity
8
0-6_2_5
6
CONTINUOUS
62
4
100
AcDbLine
10
1539.470000000000
20
367.230000000000
30
0.0
11
1521.280000000000
21
336.920000000000
31
0.0
0
LINE
5
530
100
AcDbEntity
8
0-6_2_5
6
CONTINUOUS
62
4
100
AcDbLine
10
1561.070000000000
20
346.860000000000
30
0.0
11
1530.750000000000
21
365.050000000000
31
0.0
0
LINE
5
531
100
AcDbEntity
8
0-6_2_5
6
CONTINUOUS
62
4
100
AcDbLine
10
1533.630000000000
20
340.000000000000
30
0.0
11
1503.310000000000
21
358.190000000000
31
0.0
0
LINE
5
532
100
AcDbEntity
8
0-6_2_5
6
CONTINUOUS
62
4
100
AcDbLine
10
1506.190000000000
20
333.140000000000
30
0.0
11
1475.870000000000
21
351.330000000000
31
0.0
0
LINE
5
533
100
AcDbEntity
8
0-6_2_5
6
CONTINUOUS
62
4
100
AcDbLine
10
1478.750000000000
20
326.280000000000
30
0.0
11
1448.430000000000
21
344.470000000000
31
0.0
0
LINE
5
534
100
AcDbEntity
8
0-6_2_5
6
CONTINUOUS
62
4
100
AcDbLine
10
1451.310000000000
20
319.420000000000
30
0.0
11
1420.990000000000
21
337.610000000000
31
0.0
0
LINE
5
535
100
AcDbEntity
8
0-6_2_5
6
CONTINUOUS
62
4
100
AcDbLine
10
1423.870000000000
20
312.560000000000
30
0.0
11
1393.550000000000
21
330.750000000000
31
0.0
0
LINE
5
536
100
AcDbEntity
8
0-6_2_5
6
CONTINUOUS
62
4
100
AcDbLine
10
1374.830000000000
20
326.070000000000
30
0.0
11
1370.330000000000
21
318.570000000000
31
0.0
0
LINE
5
537
100
AcDbEntity
8
0-6_2_5
6
CONTINUOUS
62
4
100
AcDbLine
10
1396.430000000000
20
305.700000000000
30
0.0
11
1369.510000000000
21
321.860000000000
31
0.0
0
LINE
5
538
100
AcDbEntity
8
0-6_2_5
6
CONTINUOUS
62
2
100
AcDbLine
10
1418.830000000000
20
311.300000000000
30
0.0
11
1419.220000000000
21
309.750000000000
31
0.0
0
LINE
5
539
100
AcDbEntity
8
0-6_2_5
6
CONTINUOUS
62
2
100
AcDbLine
10
1467.340000000000
20
323.430000000000
30
0.0
11
1467.730000000000
21
321.880000000000
31
0.0
0
LINE
5
53a
100
AcDbEntity
8
0-6_2_5
6
CONTINUOUS
62
2
100
AcDbLine
10
1418.830000000000
20
311.300000000000
30
0.0
11
1467.340000000000
21
323.430000000000
31
0.0
0
LINE
5
53b
100
AcDbEntity
8
0-6_2_5
6
CONTINUOUS
62
2
100
AcDbLine
10
1467.730000000000
20
321.880000000000
30
0.0
11
1419.220000000000
21
309.750000000000
31
0.0
0
LINE
5
53c
100
AcDbEntity
8
0-6_2_5
6
CONTINUOUS
62
2
100
AcDbLine
10
1467.530000000000
20
322.650000000000
30
0.0
11
1419.030000000000
21
310.530000000000
31
0.0
0
LINE
5
53d
100
AcDbEntity
8
0-6_2_5
6
CONTINUOUS
62
4
100
AcDbLine
10
1566.910000000000
20
374.090000000000
30
0.0
11
1548.720000000000
21
343.780000000000
31
0.0
0
LINE
5
53e
100
AcDbEntity
8
0-6_2_5
6
CONTINUOUS
62
4
100
AcDbLine
10
1594.350000000000
20
380.950000000000
30
0.0
11
1576.160000000000
21
350.640000000000
31
0.0
0
LINE
5
53f
100
AcDbEntity
8
0-6_2_5
6
CONTINUOUS
62
3
100
AcDbLine
10
1368.830000000000
20
324.570000000000
30
0.0
11
1596.750000000000
21
381.550000000000
31
0.0
0
LINE
5
540
100
AcDbEntity
8
0-6_2_5
6
CONTINUOUS
62
4
100
AcDbLine
10
1599.530000000000
20
370.440000000000
30
0.0
11
1585.630000000000
21
378.770000000000
31
0.0
0
LINE
5
541
100
AcDbEntity
8
0-6_2_5
6
CONTINUOUS
62
4
100
AcDbLine
10
1588.510000000000
20
353.720000000000
30
0.0
11
1558.190000000000
21
371.910000000000
31
0.0
0
LINE
5
542
100
AcDbEntity
8
0-6_2_5
6
CONTINUOUS
62
3
100
AcDbLine
10
1374.890000000000
20
300.320000000000
30
0.0
11
1602.810000000000
21
357.300000000000
31
0.0
0
LINE
5
543
100
AcDbEntity
8
0-6_2_5
6
CONTINUOUS
62
3
100
AcDbLine
10
1375.280000000000
20
298.770000000000
30
0.0
11
1603.200000000000
21
355.750000000000
31
0.0
0
LINE
5
544
100
AcDbEntity
8
0-6_2_5
6
CONTINUOUS
62
3
100
AcDbLine
10
1380.130000000000
20
279.360000000000
30
0.0
11
1608.050000000000
21
336.340000000000
31
0.0
0
LINE
5
545
100
AcDbEntity
8
0-6_2_5
6
CONTINUOUS
62
7
100
AcDbLine
10
1368.830000000000
20
328.280000000000
30
0.0
11
1248.560000000000
21
358.350000000000
31
0.0
0
LINE
5
546
100
AcDbEntity
8
0-6_2_5
6
CONTINUOUS
62
7
100
AcDbLine
10
1368.830000000000
20
328.280000000000
30
0.0
11
1489.110000000000
21
358.350000000000
31
0.0
0
LINE
5
547
100
AcDbEntity
8
0-6_2_5
6
CONTINUOUS
62
7
100
AcDbLine
10
1368.830000000000
20
327.670000000000
30
0.0
11
1248.410000000000
21
357.770000000000
31
0.0
0
LINE
5
548
100
AcDbEntity
8
0-6_2_5
6
CONTINUOUS
62
7
100
AcDbLine
10
1368.830000000000
20
327.670000000000
30
0.0
11
1489.250000000000
21
357.770000000000
31
0.0
0
LINE
5
549
100
AcDbEntity
8
0-6_2_5
6
DASHED
62
7
100
AcDbLine
10
1367.620000000000
20
326.940000000000
30
0.0
11
1141.400000000000
21
383.490000000000
31
0.0
0
LINE
5
54a
100
AcDbEntity
8
0-6_2_5
6
DASHED
62
7
100
AcDbLine
10
1370.040000000000
20
326.940000000000
30
0.0
11
1596.260000000000
21
383.490000000000
31
0.0
0
LINE
5
54b
100
AcDbEntity
8
0-6_2_5
6
DASHED
62
7
100
AcDbLine
10
1367.620000000000
20
325.910000000000
30
0.0
11
1141.160000000000
21
382.520000000000
31
0.0
0
LINE
5
54c
100
AcDbEntity
8
0-6_2_5
6
DASHED
62
7
100
AcDbLine
10
1370.040000000000
20
325.910000000000
30
0.0
11
1596.510000000000
21
382.520000000000
31
0.0
0
LINE
5
54d
100
AcDbEntity
8
0-2_2_1
6
CENTER2
62
4
100
AcDbLine
10
1368.830000000000
20
741.720000000000
30
0.0
11
1368.830000000000
21
996.160000000000
31
0.0
0
LINE
5
54e
100
AcDbEntity
8
0-2_2_1
6
CONTINUOUS
62
7
100
AcDbLine
10
1236.520000000000
20
877.950000000000
30
0.0
11
1360.000000000000
21
908.820000000000
31
0.0
0
LINE
5
54f
100
AcDbEntity
8
0-2_2_1
6
CONTINUOUS
62
7
100
AcDbLine
10
1154.900000000000
20
857.540000000000
30
0.0
11
1236.520000000000
21
877.950000000000
31
0.0
0
LINE
5
550
100
AcDbEntity
8
0-2_2_1
6
CONTINUOUS
62
7
100
AcDbLine
10
1236.670000000000
20
877.370000000000
30
0.0
11
1155.040000000000
21
856.960000000000
31
0.0
0
LINE
5
551
100
AcDbEntity
8
0-2_2_1
6
CONTINUOUS
62
7
100
AcDbLine
10
1360.150000000000
20
908.240000000000
30
0.0
11
1236.670000000000
21
877.370000000000
31
0.0
0
LINE
5
552
100
AcDbEntity
8
0-2_2_1
6
CONTINUOUS
62
7
100
AcDbLine
10
1271.960000000000
20
868.830000000000
30
0.0
11
1280.420000000000
21
871.400000000000
31
0.0
0
LINE
5
553
100
AcDbEntity
8
0-2_2_1
6
CONTINUOUS
62
7
100
AcDbLine
10
1280.600000000000
20
870.830000000000
30
0.0
11
1280.420000000000
21
871.400000000000
31
0.0
0
LINE
5
554
100
AcDbEntity
8
0-2_2_1
6
CONTINUOUS
62
7
100
AcDbLine
10
1272.140000000000
20
868.260000000000
30
0.0
11
1280.600000000000
21
870.830000000000
31
0.0
0
LINE
5
555
100
AcDbEntity
8
0-2_2_1
6
CONTINUOUS
62
7
100
AcDbLine
10
1297.600000000000
20
873.950000000000
30
0.0
11
1298.210000000000
21
873.580000000000
31
0.0
0
LINE
5
556
100
AcDbEntity
8
0-2_2_1
6
CONTINUOUS
62
7
100
AcDbLine
10
1295.880000000000
20
880.810000000000
30
0.0
11
1305.070000000000
21
875.300000000000
31
0.0
0
LINE
5
557
100
AcDbEntity
8
0-2_2_1
6
DASHED
62
7
100
AcDbLine
10
1368.830000000000
20
888.350000000000
30
0.0
11
1160.230000000000
21
836.200000000000
31
0.0
0
LINE
5
558
100
AcDbEntity
8
0-2_2_1
6
CONTINUOUS
62
3
100
AcDbLine
10
1362.770000000000
20
886.220000000000
30
0.0
11
1160.380000000000
21
835.620000000000
31
0.0
0
LINE
5
559
100
AcDbEntity
8
0-2_2_1
6
CONTINUOUS
62
3
100
AcDbLine
10
1368.830000000000
20
861.960000000000
30
0.0
11
1166.440000000000
21
811.360000000000
31
0.0
0
LINE
5
55a
100
AcDbEntity
8
0-2_2_1
6
CONTINUOUS
62
3
100
AcDbLine
10
1344.580000000000
20
854.250000000000
30
0.0
11
1166.830000000000
21
809.810000000000
31
0.0
0
LINE
5
55b
100
AcDbEntity
8
0-2_2_1
6
CONTINUOUS
62
3
100
AcDbLine
10
1349.430000000000
20
834.850000000000
30
0.0
11
1171.680000000000
21
790.410000000000
31
0.0
0
LINE
5
55c
100
AcDbEntity
8
0-2_2_1
6
CONTINUOUS
62
3
100
AcDbLine
10
1363.980000000000
20
776.640000000000
30
0.0
11
1186.230000000000
21
732.200000000000
31
0.0
0
LINE
5
55d
100
AcDbEntity
8
0-2_2_1
6
CONTINUOUS
62
3
100
AcDbLine
10
1368.830000000000
20
757.240000000000
30
0.0
11
1191.080000000000
21
712.800000000000
31
0.0
0
LINE
5
55e
100
AcDbEntity
8
0-2_2_1
6
CONTINUOUS
62
7
100
AcDbLine
10
1272.690000000000
20
867.200000000000
30
0.0
11
1368.830000000000
21
891.240000000000
31
0.0
0
LINE
5
55f
100
AcDbEntity
8
0-2_2_1
6
CONTINUOUS
62
7
100
AcDbLine
10
1272.840000000000
20
866.620000000000
30
0.0
11
1368.830000000000
21
890.620000000000
31
0.0
0
LINE
5
560
100
AcDbEntity
8
0-2_2_1
6
CONTINUOUS
62
4
100
AcDbLine
10
1364.900000000000
20
930.460000000000
30
0.0
11
1352.240000000000
21
981.080000000000
31
0.0
0
LINE
5
561
100
AcDbEntity
8
0-2_2_1
6
CONTINUOUS
62
4
100
AcDbLine
10
1264.060000000000
20
896.790000000000
30
0.0
11
1244.560000000000
21
974.780000000000
31
0.0
0
LINE
5
562
100
AcDbEntity
8
0-2_2_1
6
CONTINUOUS
62
3
100
AcDbLine
10
1368.830000000000
20
861.960000000000
30
0.0
11
1374.890000000000
21
886.220000000000
31
0.0
0
LINE
5
563
100
AcDbEntity
8
0-2_2_1
6
CONTINUOUS
62
4
100
AcDbLine
10
1402.270000000000
20
853.600000000000
30
0.0
11
1384.080000000000
21
883.920000000000
31
0.0
0
LINE
5
564
100
AcDbEntity
8
0-2_2_1
6
CONTINUOUS
62
4
100
AcDbLine
10
1429.710000000000
20
846.740000000000
30
0.0
11
1411.520000000000
21
877.060000000000
31
0.0
0
LINE
5
565
100
AcDbEntity
8
0-2_2_1
6
CONTINUOUS
62
4
100
AcDbLine
10
1457.150000000000
20
839.880000000000
30
0.0
11
1438.960000000000
21
870.200000000000
31
0.0
0
LINE
5
566
100
AcDbEntity
8
0-2_2_1
6
CONTINUOUS
62
4
100
AcDbLine
10
1484.590000000000
20
833.020000000000
30
0.0
11
1466.400000000000
21
863.340000000000
31
0.0
0
LINE
5
567
100
AcDbEntity
8
0-2_2_1
6
CONTINUOUS
62
4
100
AcDbLine
10
1512.030000000000
20
826.160000000000
30
0.0
11
1493.840000000000
21
856.480000000000
31
0.0
0
LINE
5
568
100
AcDbEntity
8
0-2_2_1
6
CONTINUOUS
62
4
100
AcDbLine
10
1539.470000000000
20
819.300000000000
30
0.0
11
1521.280000000000
21
849.620000000000
31
0.0
0
LINE
5
569
100
AcDbEntity
8
0-2_2_1
6
CONTINUOUS
62
4
100
AcDbLine
10
1560.230000000000
20
823.570000000000
30
0.0
11
1548.720000000000
21
842.760000000000
31
0.0
0
LINE
5
56a
100
AcDbEntity
8
0-2_2_1
6
CONTINUOUS
62
4
100
AcDbLine
10
1561.070000000000
20
839.670000000000
30
0.0
11
1530.750000000000
21
821.480000000000
31
0.0
0
LINE
5
56b
100
AcDbEntity
8
0-2_2_1
6
CONTINUOUS
62
4
100
AcDbLine
10
1533.630000000000
20
846.530000000000
30
0.0
11
1503.310000000000
21
828.340000000000
31
0.0
0
LINE
5
56c
100
AcDbEntity
8
0-2_2_1
6
CONTINUOUS
62
4
100
AcDbLine
10
1506.190000000000
20
853.390000000000
30
0.0
11
1475.870000000000
21
835.200000000000
31
0.0
0
LINE
5
56d
100
AcDbEntity
8
0-2_2_1
6
CONTINUOUS
62
4
100
AcDbLine
10
1478.750000000000
20
860.250000000000
30
0.0
11
1448.430000000000
21
842.060000000000
31
0.0
0
LINE
5
56e
100
AcDbEntity
8
0-2_2_1
6
CONTINUOUS
62
4
100
AcDbLine
10
1451.310000000000
20
867.110000000000
30
0.0
11
1420.990000000000
21
848.920000000000
31
0.0
0
LINE
5
56f
100
AcDbEntity
8
0-2_2_1
6
CONTINUOUS
62
4
100
AcDbLine
10
1423.870000000000
20
873.970000000000
30
0.0
11
1393.550000000000
21
855.780000000000
31
0.0
0
LINE
5
570
100
AcDbEntity
8
0-2_2_1
6
CONTINUOUS
62
4
100
AcDbLine
10
1374.830000000000
20
860.460000000000
30
0.0
11
1370.330000000000
21
867.960000000000
31
0.0
0
LINE
5
571
100
AcDbEntity
8
0-2_2_1
6
CONTINUOUS
62
4
100
AcDbLine
10
1396.430000000000
20
880.830000000000
30
0.0
11
1369.510000000000
21
864.680000000000
31
0.0
0
LINE
5
572
100
AcDbEntity
8
0-2_2_1
6
CONTINUOUS
62
2
100
AcDbLine
10
1418.830000000000
20
847.810000000000
30
0.0
11
1419.220000000000
21
849.360000000000
31
0.0
0
LINE
5
573
100
AcDbEntity
8
0-2_2_1
6
CONTINUOUS
62
2
100
AcDbLine
10
1467.340000000000
20
835.690000000000
30
0.0
11
1467.730000000000
21
837.240000000000
31
0.0
0
LINE
5
574
100
AcDbEntity
8
0-2_2_1
6
CONTINUOUS
62
2
100
AcDbLine
10
1418.830000000000
20
847.810000000000
30
0.0
11
1467.340000000000
21
835.690000000000
31
0.0
0
LINE
5
575
100
AcDbEntity
8
0-2_2_1
6
CONTINUOUS
62
2
100
AcDbLine
10
1467.730000000000
20
837.240000000000
30
0.0
11
1419.220000000000
21
849.360000000000
31
0.0
0
LINE
5
576
100
AcDbEntity
8
0-2_2_1
6
CONTINUOUS
62
2
100
AcDbLine
10
1467.530000000000
20
836.460000000000
30
0.0
11
1419.030000000000
21
848.590000000000
31
0.0
0
LINE
5
577
100
AcDbEntity
8
0-2_2_1
6
DASHED
62
7
100
AcDbLine
10
1368.830000000000
20
888.350000000000
30
0.0
11
1577.430000000000
21
836.200000000000
31
0.0
0
LINE
5
578
100
AcDbEntity
8
0-2_2_1
6
CONTINUOUS
62
3
100
AcDbLine
10
1374.890000000000
20
886.220000000000
30
0.0
11
1577.280000000000
21
835.620000000000
31
0.0
0
LINE
5
579
100
AcDbEntity
8
0-2_2_1
6
CONTINUOUS
62
3
100
AcDbLine
10
1368.830000000000
20
861.960000000000
30
0.0
11
1571.220000000000
21
811.360000000000
31
0.0
0
LINE
5
57a
100
AcDbEntity
8
0-2_2_1
6
CONTINUOUS
62
3
100
AcDbLine
10
1393.080000000000
20
854.250000000000
30
0.0
11
1570.830000000000
21
809.810000000000
31
0.0
0
LINE
5
57b
100
AcDbEntity
8
0-2_2_1
6
CONTINUOUS
62
3
100
AcDbLine
10
1388.230000000000
20
834.850000000000
30
0.0
11
1565.980000000000
21
790.410000000000
31
0.0
0
LINE
5
57c
100
AcDbEntity
8
0-2_2_1
6
CONTINUOUS
62
3
100
AcDbLine
10
1373.680000000000
20
776.640000000000
30
0.0
11
1551.430000000000
21
732.200000000000
31
0.0
0
LINE
5
57d
100
AcDbEntity
8
0-2_2_1
6
CONTINUOUS
62
3
100
AcDbLine
10
1368.830000000000
20
757.240000000000
30
0.0
11
1546.580000000000
21
712.800000000000
31
0.0
0
LINE
5
57e
100
AcDbEntity
8
0-2_2_1
6
CONTINUOUS
62
7
100
AcDbLine
10
1464.970000000000
20
867.200000000000
30
0.0
11
1368.830000000000
21
891.240000000000
31
0.0
0
LINE
5
57f
100
AcDbEntity
8
0-2_2_1
6
CONTINUOUS
62
7
100
AcDbLine
10
1464.830000000000
20
866.620000000000
30
0.0
11
1368.830000000000
21
890.620000000000
31
0.0
0
LINE
5
580
100
AcDbEntity
8
0-2_2_1
6
CONTINUOUS
62
7
100
AcDbLine
10
1489.090000000000
20
837.350000000000
30
0.0
11
1490.160000000000
21
833.350000000000
31
0.0
0
LINE
5
581
100
AcDbEntity
8
0-2_2_1
6
CONTINUOUS
62
7
100
AcDbLine
10
1489.090000000000
20
837.350000000000
30
0.0
11
1492.020000000000
21
834.420000000000
31
0.0
0
LINE
5
582
100
AcDbEntity
8
0-2_2_1
6
CONTINUOUS
62
7
100
AcDbLine
10
1489.090000000000
20
837.350000000000
30
0.0
11
1510.700000000000
21
799.920000000000
31
0.0
0
LINE
5
583
100
AcDbEntity
8
0-2_2_1
6
CONTINUOUS
62
7
100
AcDbLine
10
1282.510000000000
20
839.760000000000
30
0.0
11
1283.580000000000
21
835.760000000000
31
0.0
0
LINE
5
584
100
AcDbEntity
8
0-2_2_1
6
CONTINUOUS
62
7
100
AcDbLine
10
1282.510000000000
20
839.760000000000
30
0.0
11
1285.440000000000
21
836.830000000000
31
0.0
0
LINE
5
585
100
AcDbEntity
8
0-2_2_1
6
CONTINUOUS
62
7
100
AcDbLine
10
1282.510000000000
20
839.760000000000
30
0.0
11
1304.120000000000
21
802.330000000000
31
0.0
0
LINE
5
586
100
AcDbEntity
8
0-2_2_1
6
CONTINUOUS
62
7
100
AcDbLine
10
1455.150000000000
20
839.760000000000
30
0.0
11
1454.080000000000
21
835.760000000000
31
0.0
0
LINE
5
587
100
AcDbEntity
8
0-2_2_1
6
CONTINUOUS
62
7
100
AcDbLine
10
1455.150000000000
20
839.760000000000
30
0.0
11
1452.230000000000
21
836.830000000000
31
0.0
0
LINE
5
588
100
AcDbEntity
8
0-2_2_1
6
CONTINUOUS
62
7
100
AcDbLine
10
1455.150000000000
20
839.760000000000
30
0.0
11
1433.540000000000
21
802.330000000000
31
0.0
0
LINE
5
589
100
AcDbEntity
8
0-2_2_1
6
CONTINUOUS
62
3
100
AcDbLine
10
1368.830000000000
20
757.240000000000
30
0.0
11
1361.160000000000
21
787.930000000000
31
0.0
0
LINE
5
58a
100
AcDbEntity
8
0-2_2_1
6
CONTINUOUS
62
3
100
AcDbLine
10
1357.720000000000
20
801.670000000000
30
0.0
11
1344.580000000000
21
854.250000000000
31
0.0
0
LINE
5
58b
100
AcDbEntity
8
0-2_2_1
6
CONTINUOUS
62
3
100
AcDbLine
10
1368.830000000000
20
757.240000000000
30
0.0
11
1376.510000000000
21
787.930000000000
31
0.0
0
LINE
5
58c
100
AcDbEntity
8
0-2_2_1
6
CONTINUOUS
62
3
100
AcDbLine
10
1379.940000000000
20
801.670000000000
30
0.0
11
1393.080000000000
21
854.250000000000
31
0.0
0
LINE
5
58d
100
AcDbEntity
8
0-6_2_5
6
CONTINUOUS
62
4
100
AcDbLine
10
1189.560000000000
20
469.850000000000
30
0.0
11
1391.600000000000
21
419.340000000000
31
0.0
0
LINE
5
58e
100
AcDbEntity
8
0-6_2_5
6
CONTINUOUS
62
4
100
AcDbLine
10
1184.710000000000
20
450.450000000000
30
0.0
11
1386.750000000000
21
399.940000000000
31
0.0
0
LINE
5
58f
100
AcDbEntity
8
0-6_2_5
6
CONTINUOUS
62
4
100
AcDbLine
10
1176.490000000000
20
417.560000000000
30
0.0
11
1189.560000000000
21
469.850000000000
31
0.0
0
LINE
5
590
100
AcDbEntity
8
0-6_2_5
6
CONTINUOUS
62
4
100
AcDbLine
10
1279.790000000000
20
391.740000000000
30
0.0
11
1288.010000000000
21
424.620000000000
31
0.0
0
LINE
5
591
100
AcDbEntity
8
0-6_2_5
6
CONTINUOUS
62
4
100
AcDbLine
10
1378.520000000000
20
367.050000000000
30
0.0
11
1391.600000000000
21
419.340000000000
31
0.0
0
LINE
5
592
100
AcDbEntity
8
0-2_2_1
6
CONTINUOUS
62
7
100
AcDbLine
10
1397.650000000000
20
907.500000000000
30
0.0
11
1397.910000000000
21
911.630000000000
31
0.0
0
LINE
5
593
100
AcDbEntity
8
0-2_2_1
6
CONTINUOUS
62
7
100
AcDbLine
10
1397.650000000000
20
907.500000000000
30
0.0
11
1399.940000000000
21
910.950000000000
31
0.0
0
LINE
5
594
100
AcDbEntity
8
0-2_2_1
6
CONTINUOUS
62
7
100
AcDbLine
10
1397.650000000000
20
907.500000000000
30
0.0
11
1413.280000000000
21
953.710000000000
31
0.0
0
LINE
5
595
100
AcDbEntity
8
0-2_2_1
6
CONTINUOUS
62
7
100
AcDbLine
10
1442.320000000000
20
872.860000000000
30
0.0
11
1442.590000000000
21
877.000000000000
31
0.0
0
LINE
5
596
100
AcDbEntity
8
0-2_2_1
6
CONTINUOUS
62
7
100
AcDbLine
10
1442.320000000000
20
872.860000000000
30
0.0
11
1444.620000000000
21
876.310000000000
31
0.0
0
LINE
5
597
100
AcDbEntity
8
0-2_2_1
6
CONTINUOUS
62
7
100
AcDbLine
10
1442.320000000000
20
872.860000000000
30
0.0
11
1462.670000000000
21
933.010000000000
31
0.0
0
LINE
5
598
100
AcDbEntity
8
0-2_2_1
6
CONTINUOUS
62
7
100
AcDbLine
10
1230.480000000000
20
876.350000000000
30
0.0
11
1230.210000000000
21
880.480000000000
31
0.0
0
LINE
5
599
100
AcDbEntity
8
0-2_2_1
6
CONTINUOUS
62
7
100
AcDbLine
10
1230.480000000000
20
876.350000000000
30
0.0
11
1228.180000000000
21
879.790000000000
31
0.0
0
LINE
5
59a
100
AcDbEntity
8
0-2_2_1
6
CONTINUOUS
62
7
100
AcDbLine
10
1196.620000000000
20
845.270000000000
30
0.0
11
1197.700000000000
21
841.270000000000
31
0.0
0
LINE
5
59b
100
AcDbEntity
8
0-2_2_1
6
CONTINUOUS
62
7
100
AcDbLine
10
1196.620000000000
20
845.270000000000
30
0.0
11
1199.550000000000
21
842.340000000000
31
0.0
0
LINE
5
59c
100
AcDbEntity
8
0-2_2_1
6
CONTINUOUS
62
7
100
AcDbLine
10
1196.620000000000
20
845.270000000000
30
0.0
11
1232.380000000000
21
783.340000000000
31
0.0
0
LINE
5
59d
100
AcDbEntity
8
0-6_2_5
6
CONTINUOUS
62
7
100
AcDbLine
10
1434.450000000000
20
314.430000000000
30
0.0
11
1433.380000000000
21
310.430000000000
31
0.0
0
LINE
5
59e
100
AcDbEntity
8
0-6_2_5
6
CONTINUOUS
62
7
100
AcDbLine
10
1434.450000000000
20
314.430000000000
30
0.0
11
1431.520000000000
21
311.500000000000
31
0.0
0
LINE
5
59f
100
AcDbEntity
8
0-6_2_5
6
CONTINUOUS
62
7
100
AcDbLine
10
1434.450000000000
20
314.430000000000
30
0.0
11
1406.020000000000
21
265.200000000000
31
0.0
0
LINE
5
5a0
100
AcDbEntity
8
0-6_2_5
6
CONTINUOUS
62
3
100
AcDbLine
10
1375.280000000000
20
298.770000000000
30
0.0
11
1382.430000000000
21
270.160000000000
31
0.0
0
LINE
5
5a1
100
AcDbEntity
8
0-6_2_5
6
CONTINUOUS
62
3
100
AcDbLine
10
1389.200000000000
20
243.100000000000
30
0.0
11
1399.540000000000
21
201.750000000000
31
0.0
0
LINE
5
5a2
100
AcDbEntity
8
0-6_2_5
6
CONTINUOUS
62
3
100
AcDbLine
10
1362.380000000000
20
298.770000000000
30
0.0
11
1355.230000000000
21
270.160000000000
31
0.0
0
LINE
5
5a3
100
AcDbEntity
8
0-6_2_5
6
CONTINUOUS
62
3
100
AcDbLine
10
1348.460000000000
20
243.100000000000
30
0.0
11
1338.130000000000
21
201.750000000000
31
0.0
0
LINE
5
5a4
100
AcDbEntity
8
0-6_2_5
6
CONTINUOUS
62
7
100
AcDbLine
10
1303.210000000000
20
314.430000000000
30
0.0
11
1304.290000000000
21
310.430000000000
31
0.0
0
LINE
5
5a5
100
AcDbEntity
8
0-6_2_5
6
CONTINUOUS
62
7
100
AcDbLine
10
1303.210000000000
20
314.430000000000
30
0.0
11
1306.140000000000
21
311.500000000000
31
0.0
0
LINE
5
5a6
100
AcDbEntity
8
0-6_2_5
6
CONTINUOUS
62
7
100
AcDbLine
10
1303.210000000000
20
314.430000000000
30
0.0
11
1331.640000000000
21
265.200000000000
31
0.0
0
LINE
5
5a7
100
AcDbEntity
8
0-6_2_5
6
CONTINUOUS
62
7
100
AcDbLine
10
1224.870000000000
20
361.800000000000
30
0.0
11
1223.800000000000
21
357.800000000000
31
0.0
0
LINE
5
5a8
100
AcDbEntity
8
0-6_2_5
6
CONTINUOUS
62
7
100
AcDbLine
10
1224.870000000000
20
361.800000000000
30
0.0
11
1221.950000000000
21
358.870000000000
31
0.0
0
LINE
5
5a9
100
AcDbEntity
8
0-6_2_5
6
CONTINUOUS
62
7
100
AcDbLine
10
1224.870000000000
20
361.800000000000
30
0.0
11
1190.240000000000
21
301.820000000000
31
0.0
0
LINE
5
5aa
100
AcDbEntity
8
0-6_2_5
6
CONTINUOUS
62
7
100
AcDbLine
10
1508.270000000000
20
341.740000000000
30
0.0
11
1509.350000000000
21
337.740000000000
31
0.0
0
LINE
5
5ab
100
AcDbEntity
8
0-6_2_5
6
CONTINUOUS
62
7
100
AcDbLine
10
1508.270000000000
20
341.740000000000
30
0.0
11
1511.200000000000
21
338.810000000000
31
0.0
0
LINE
5
5ac
100
AcDbEntity
8
0-6_2_5
6
CONTINUOUS
62
7
100
AcDbLine
10
1508.270000000000
20
341.740000000000
30
0.0
11
1535.750000000000
21
294.160000000000
31
0.0
0
LINE
5
5ad
100
AcDbEntity
8
0-6_2_5
6
CONTINUOUS
62
7
100
AcDbLine
10
1478.290000000000
20
358.320000000000
30
0.0
11
1478.560000000000
21
362.450000000000
31
0.0
0
LINE
5
5ae
100
AcDbEntity
8
0-6_2_5
6
CONTINUOUS
62
7
100
AcDbLine
10
1478.290000000000
20
358.320000000000
30
0.0
11
1480.590000000000
21
361.760000000000
31
0.0
0
LINE
5
5af
100
AcDbEntity
8
0-6_2_5
6
CONTINUOUS
62
7
100
AcDbLine
10
1478.290000000000
20
358.320000000000
30
0.0
11
1493.930000000000
21
404.530000000000
31
0.0
0
LINE
5
5b0
100
AcDbEntity
8
0-6_2_5
6
CONTINUOUS
62
7
100
AcDbLine
10
1403.610000000000
20
336.760000000000
30
0.0
11
1403.880000000000
21
340.890000000000
31
0.0
0
LINE
5
5b1
100
AcDbEntity
8
0-6_2_5
6
CONTINUOUS
62
7
100
AcDbLine
10
1403.610000000000
20
336.760000000000
30
0.0
11
1405.910000000000
21
340.210000000000
31
0.0
0
LINE
5
5b2
100
AcDbEntity
8
0-6_2_5
6
CONTINUOUS
62
7
100
AcDbLine
10
1403.610000000000
20
336.760000000000
30
0.0
11
1436.840000000000
21
434.980000000000
31
0.0
0
LINE
5
5b3
100
AcDbEntity
8
0-6_2_5
6
CONTINUOUS
62
7
100
AcDbLine
10
1248.630000000000
20
380.520000000000
30
0.0
11
1248.360000000000
21
384.650000000000
31
0.0
0
LINE
5
5b4
100
AcDbEntity
8
0-6_2_5
6
CONTINUOUS
62
7
100
AcDbLine
10
1248.630000000000
20
380.520000000000
30
0.0
11
1246.330000000000
21
383.970000000000
31
0.0
0
LINE
5
5b5
100
AcDbEntity
8
0-6_2_5
6
CONTINUOUS
62
7
100
AcDbLine
10
1248.630000000000
20
380.520000000000
30
0.0
11
1241.100000000000
21
402.760000000000
31
0.0
0
LINE
5
5b6
100
AcDbEntity
8
0-6_2_5
6
CONTINUOUS
62
3
100
AcDbLine
10
1394.690000000000
20
221.160000000000
30
0.0
11
1608.050000000000
21
274.500000000000
31
0.0
0
LINE
5
5b7
100
AcDbEntity
8
0-6_2_5
6
CONTINUOUS
62
3
100
AcDbLine
10
1399.540000000000
20
201.750000000000
30
0.0
11
1608.050000000000
21
253.880000000000
31
0.0
0
LINE
5
5b8
100
AcDbEntity
8
0-6_2_5
6
CONTINUOUS
62
3
100
AcDbLine
10
1342.980000000000
20
221.160000000000
30
0.0
11
1129.610000000000
21
274.500000000000
31
0.0
0
LINE
5
5b9
100
AcDbEntity
8
0-6_2_5
6
CONTINUOUS
62
3
100
AcDbLine
10
1338.130000000000
20
201.750000000000
30
0.0
11
1129.610000000000
21
253.880000000000
31
0.0
0
LINE
5
5ba
100
AcDbEntity
8
0-00
6
CONTINUOUS
62
7
100
AcDbLine
10
155.030000000000
20
826.260000000000
30
0.0
11
156.110000000000
21
822.260000000000
31
0.0
0
LINE
5
5bb
100
AcDbEntity
8
0-00
6
CONTINUOUS
62
7
100
AcDbLine
10
155.030000000000
20
826.260000000000
30
0.0
11
157.960000000000
21
823.330000000000
31
0.0
0
LINE
5
5bc
100
AcDbEntity
8
0-00
6
CONTINUOUS
62
7
100
AcDbLine
10
155.030000000000
20
826.260000000000
30
0.0
11
166.580000000000
21
806.260000000000
31
0.0
0
POLYLINE
5
5bd
100
AcDbEntity
8
0-00
6
CONTINUOUS
62
  3
100
AcDb2dPolyline
66
1
10
0.0
20
0.0
30
0.0
70
0
0
VERTEX
5
5be
100
AcDbEntity
8
0-00
6
CONTINUOUS
62
  3
100
AcDbVertex
100
AcDb2dVertex
10
266.280000000000
20
746.450000000000
30
0.0
0
VERTEX
5
5bf
100
AcDbEntity
8
0-00
6
CONTINUOUS
62
  3
100
AcDbVertex
100
AcDb2dVertex
10
222.230000000000
20
735.440000000000
30
0.0
0
VERTEX
5
5c0
100
AcDbEntity
8
0-00
6
CONTINUOUS
62
  3
100
AcDbVertex
100
AcDb2dVertex
10
199.090000000000
20
827.990000000000
30
0.0
0
SEQEND
5
5c1
100
AcDbEntity
8
0-00
0
LINE
5
5c2
100
AcDbEntity
8
0-00
6
CONTINUOUS
62
3
100
AcDbLine
10
242.580000000000
20
841.230000000000
30
0.0
11
198.540000000000
21
830.220000000000
31
0.0
0
LINE
5
5c3
100
AcDbEntity
8
0-00
6
CONTINUOUS
62
3
100
AcDbLine
10
199.090000000000
20
827.990000000000
30
0.0
11
243.140000000000
21
839.000000000000
31
0.0
0
LINE
5
5c4
100
AcDbEntity
8
0-00
6
CONTINUOUS
62
3
100
AcDbLine
10
249.660000000000
20
822.390000000000
30
0.0
11
245.370000000000
21
839.560000000000
31
0.0
0
POLYLINE
5
5c5
100
AcDbEntity
8
0-00
6
CONTINUOUS
62
  3
100
AcDb2dPolyline
66
1
10
0.0
20
0.0
30
0.0
70
0
0
VERTEX
5
5c6
100
AcDbEntity
8
0-00
6
CONTINUOUS
62
  3
100
AcDbVertex
100
AcDb2dVertex
10
243.140000000000
20
839.000000000000
30
0.0
0
VERTEX
5
5c7
100
AcDbEntity
8
0-00
6
CONTINUOUS
62
  3
100
AcDbVertex
100
AcDb2dVertex
10
247.430000000000
20
821.830000000000
30
0.0
0
VERTEX
5
5c8
100
AcDbEntity
8
0-00
6
CONTINUOUS
62
  3
100
AcDbVertex
100
AcDb2dVertex
10
249.660000000000
20
822.390000000000
30
0.0
0
SEQEND
5
5c9
100
AcDbEntity
8
0-00
0
LINE
5
5ca
100
AcDbEntity
8
0-00
6
CONTINUOUS
62
3
100
AcDbLine
10
261.980000000000
20
763.620000000000
30
0.0
11
266.280000000000
21
746.450000000000
31
0.0
0
POLYLINE
5
5cb
100
AcDbEntity
8
0-00
6
CONTINUOUS
62
  3
100
AcDb2dPolyline
66
1
10
0.0
20
0.0
30
0.0
70
0
0
VERTEX
5
5cc
100
AcDbEntity
8
0-00
6
CONTINUOUS
62
  3
100
AcDbVertex
100
AcDb2dVertex
10
268.510000000000
20
747.010000000000
30
0.0
0
VERTEX
5
5cd
100
AcDbEntity
8
0-00
6
CONTINUOUS
62
  3
100
AcDbVertex
100
AcDb2dVertex
10
264.210000000000
20
764.180000000000
30
0.0
0
VERTEX
5
5ce
100
AcDbEntity
8
0-00
6
CONTINUOUS
62
  3
100
AcDbVertex
100
AcDb2dVertex
10
261.980000000000
20
763.620000000000
30
0.0
0
SEQEND
5
5cf
100
AcDbEntity
8
0-00
0
LINE
5
5d0
100
AcDbEntity
8
0-00
6
CONTINUOUS
62
3
100
AcDbLine
10
222.790000000000
20
733.210000000000
30
0.0
11
266.830000000000
21
744.220000000000
31
0.0
0
LINE
5
5d1
100
AcDbEntity
8
0-00
6
CONTINUOUS
62
4
100
AcDbLine
10
284.130000000000
20
851.620000000000
30
0.0
11
302.320000000000
21
881.940000000000
31
0.0
0
LINE
5
5d2
100
AcDbEntity
8
0-00
6
CONTINUOUS
62
4
100
AcDbLine
10
256.690000000000
20
844.760000000000
30
0.0
11
274.880000000000
21
875.080000000000
31
0.0
0
LINE
5
5d3
100
AcDbEntity
8
0-00
6
CONTINUOUS
62
4
100
AcDbLine
10
229.250000000000
20
837.900000000000
30
0.0
11
247.440000000000
21
868.220000000000
31
0.0
0
LINE
5
5d4
100
AcDbEntity
8
0-00
6
CONTINUOUS
62
4
100
AcDbLine
10
201.810000000000
20
831.040000000000
30
0.0
11
220.000000000000
21
861.360000000000
31
0.0
0
LINE
5
5d5
100
AcDbEntity
8
0-00
6
CONTINUOUS
62
4
100
AcDbLine
10
174.370000000000
20
824.180000000000
30
0.0
11
192.560000000000
21
854.500000000000
31
0.0
0
LINE
5
5d6
100
AcDbEntity
8
0-00
6
CONTINUOUS
62
4
100
AcDbLine
10
146.930000000000
20
817.320000000000
30
0.0
11
165.120000000000
21
847.640000000000
31
0.0
0
LINE
5
5d7
100
AcDbEntity
8
0-00
6
CONTINUOUS
62
4
100
AcDbLine
10
125.330000000000
20
837.690000000000
30
0.0
11
155.650000000000
21
819.500000000000
31
0.0
0
LINE
5
5d8
100
AcDbEntity
8
0-00
6
CONTINUOUS
62
4
100
AcDbLine
10
152.770000000000
20
844.550000000000
30
0.0
11
183.090000000000
21
826.360000000000
31
0.0
0
LINE
5
5d9
100
AcDbEntity
8
0-00
6
CONTINUOUS
62
4
100
AcDbLine
10
180.210000000000
20
851.410000000000
30
0.0
11
210.530000000000
21
833.220000000000
31
0.0
0
LINE
5
5da
100
AcDbEntity
8
0-00
6
CONTINUOUS
62
4
100
AcDbLine
10
207.650000000000
20
858.270000000000
30
0.0
11
237.970000000000
21
840.080000000000
31
0.0
0
LINE
5
5db
100
AcDbEntity
8
0-00
6
CONTINUOUS
62
4
100
AcDbLine
10
235.090000000000
20
865.130000000000
30
0.0
11
265.410000000000
21
846.940000000000
31
0.0
0
LINE
5
5dc
100
AcDbEntity
8
0-00
6
CONTINUOUS
62
4
100
AcDbLine
10
262.530000000000
20
871.990000000000
30
0.0
11
292.850000000000
21
853.800000000000
31
0.0
0
LINE
5
5dd
100
AcDbEntity
8
0-00
6
CONTINUOUS
62
3
100
AcDbLine
10
196.860000000000
20
827.430000000000
30
0.0
11
220.000000000000
21
734.880000000000
31
0.0
0
LINE
5
5de
100
AcDbEntity
8
0-00
6
CONTINUOUS
62
7
100
AcDbLine
10
205.010000000000
20
898.330000000000
30
0.0
11
205.160000000000
21
897.740000000000
31
0.0
0
LINE
5
5df
100
AcDbEntity
8
0-00
6
CONTINUOUS
62
7
100
AcDbLine
10
210.010000000000
20
898.960000000000
30
0.0
11
205.160000000000
21
897.740000000000
31
0.0
0
LINE
5
5e0
100
AcDbEntity
8
0-00
6
CONTINUOUS
62
7
100
AcDbLine
10
209.860000000000
20
899.540000000000
30
0.0
11
205.010000000000
21
898.330000000000
31
0.0
0
LINE
5
5e1
100
AcDbEntity
8
0-00
6
CONTINUOUS
62
4
100
AcDbLine
10
311.570000000000
20
858.480000000000
30
0.0
11
316.070000000000
21
865.980000000000
31
0.0
0
LINE
5
5e2
100
AcDbEntity
8
0-00
6
CONTINUOUS
62
4
100
AcDbLine
10
289.970000000000
20
878.850000000000
30
0.0
11
316.890000000000
21
862.700000000000
31
0.0
0
LINE
5
5e3
100
AcDbEntity
8
0-00
6
CONTINUOUS
62
3
100
AcDbLine
10
317.570000000000
20
859.980000000000
30
0.0
11
311.510000000000
21
884.240000000000
31
0.0
0
LINE
5
5e4
100
AcDbEntity
8
0-00
6
CONTINUOUS
62
4
100
AcDbLine
10
146.530000000000
20
959.770000000000
30
0.0
11
136.560000000000
21
999.650000000000
31
0.0
0
LINE
5
5e5
100
AcDbEntity
8
0-00
6
CONTINUOUS
62
7
100
AcDbLine
10
216.750000000000
20
866.630000000000
30
0.0
11
216.600000000000
21
867.210000000000
31
0.0
0
LINE
5
5e6
100
AcDbEntity
8
0-00
6
CONTINUOUS
62
7
100
AcDbLine
10
287.310000000000
20
894.790000000000
30
0.0
11
287.170000000000
21
895.380000000000
31
0.0
0
LINE
5
5e7
100
AcDbEntity
8
0-00
6
CONTINUOUS
62
7
100
AcDbLine
10
187.940000000000
20
870.970000000000
30
0.0
11
183.090000000000
21
890.370000000000
31
0.0
0
LINE
5
5e8
100
AcDbEntity
8
0-00
6
CONTINUOUS
62
7
100
AcDbLine
10
170.130000000000
20
852.290000000000
30
0.0
11
160.430000000000
21
849.870000000000
31
0.0
0
POLYLINE
5
5e9
100
AcDbEntity
8
0-00
6
CONTINUOUS
62
  7
100
AcDb2dPolyline
66
1
10
0.0
20
0.0
30
0.0
70
0
0
VERTEX
5
5ea
100
AcDbEntity
8
0-00
6
CONTINUOUS
62
  7
100
AcDbVertex
100
AcDb2dVertex
10
170.130000000000
20
852.290000000000
30
0.0
0
VERTEX
5
5eb
100
AcDbEntity
8
0-00
6
CONTINUOUS
62
  7
100
AcDbVertex
100
AcDb2dVertex
10
170.280000000000
20
851.710000000000
30
0.0
0
VERTEX
5
5ec
100
AcDbEntity
8
0-00
6
CONTINUOUS
62
  7
100
AcDbVertex
100
AcDb2dVertex
10
160.580000000000
20
849.290000000000
30
0.0
0
SEQEND
5
5ed
100
AcDbEntity
8
0-00
0
LINE
5
5ee
100
AcDbEntity
8
0-00
6
CONTINUOUS
62
7
100
AcDbLine
10
189.640000000000
20
856.550000000000
30
0.0
11
160.260000000000
21
850.440000000000
31
0.0
0
LINE
5
5ef
100
AcDbEntity
8
0-00
6
CONTINUOUS
62
7
100
AcDbLine
10
167.080000000000
20
887.610000000000
30
0.0
11
210.150000000000
21
898.380000000000
31
0.0
0
LINE
5
5f0
100
AcDbEntity
8
0-00
6
CONTINUOUS
62
7
100
AcDbLine
10
167.220000000000
20
887.020000000000
30
0.0
11
210.300000000000
21
897.790000000000
31
0.0
0
LINE
5
5f1
100
AcDbEntity
8
0-00
6
CONTINUOUS
62
7
100
AcDbLine
10
167.950000000000
20
884.110000000000
30
0.0
11
180.560000000000
21
887.270000000000
31
0.0
0
LINE
5
5f2
100
AcDbEntity
8
0-00
6
CONTINUOUS
62
7
100
AcDbLine
10
180.420000000000
20
887.850000000000
30
0.0
11
180.560000000000
21
887.270000000000
31
0.0
0
LINE
5
5f3
100
AcDbEntity
8
0-00
6
CONTINUOUS
62
7
100
AcDbLine
10
167.810000000000
20
884.700000000000
30
0.0
11
180.420000000000
21
887.850000000000
31
0.0
0
LINE
5
5f4
100
AcDbEntity
8
0-00
6
CONTINUOUS
62
7
100
AcDbLine
10
181.490000000000
20
889.350000000000
30
0.0
11
167.520000000000
21
885.860000000000
31
0.0
0
LINE
5
5f5
100
AcDbEntity
8
0-00
6
CONTINUOUS
62
7
100
AcDbLine
10
167.370000000000
20
886.440000000000
30
0.0
11
181.340000000000
21
889.940000000000
31
0.0
0
LINE
5
5f6
100
AcDbEntity
8
0-00
6
CONTINUOUS
62
7
100
AcDbLine
10
166.640000000000
20
889.350000000000
30
0.0
11
209.720000000000
21
900.120000000000
31
0.0
0
LINE
5
5f7
100
AcDbEntity
8
0-00
6
DASHED
62
7
100
AcDbLine
10
202.720000000000
20
897.130000000000
30
0.0
11
205.010000000000
21
898.330000000000
31
0.0
0
POLYLINE
5
5f8
100
AcDbEntity
8
0-00
6
DASHED
62
  7
100
AcDb2dPolyline
66
1
10
0.0
20
0.0
30
0.0
70
0
0
VERTEX
5
5f9
100
AcDbEntity
8
0-00
6
DASHED
62
  7
100
AcDbVertex
100
AcDb2dVertex
10
209.870000000000
20
899.540000000000
30
0.0
0
VERTEX
5
5fa
100
AcDbEntity
8
0-00
6
DASHED
62
  7
100
AcDbVertex
100
AcDb2dVertex
10
217.620000000000
20
900.200000000000
30
0.0
0
VERTEX
5
5fb
100
AcDbEntity
8
0-00
6
DASHED
62
  7
100
AcDbVertex
100
AcDb2dVertex
10
246.440000000000
20
907.240000000000
30
0.0
0
SEQEND
5
5fc
100
AcDbEntity
8
0-00
0
LINE
5
5fd
100
AcDbEntity
8
0-00
6
CENTER2
62
7
100
AcDbLine
10
198.760000000000
20
879.990000000000
30
0.0
11
194.050000000000
21
898.830000000000
31
0.0
0
LINE
5
5fe
100
AcDbEntity
8
0-00
6
CONTINUOUS
62
4
100
AcDbLine
10
136.560000000000
20
999.650000000000
30
0.0
11
290.750000000000
21
1038.200000000000
31
0.0
0
LINE
5
5ff
100
AcDbEntity
8
0-00
6
CONTINUOUS
62
4
100
AcDbLine
10
300.720000000000
20
998.320000000000
30
0.0
11
290.750000000000
21
1038.200000000000
31
0.0
0
LINE
5
600
100
AcDbEntity
8
0-00
6
CONTINUOUS
62
4
100
AcDbLine
10
196.680000000000
20
883.150000000000
30
0.0
11
193.890000000000
21
894.310000000000
31
0.0
0
LINE
5
601
100
AcDbEntity
8
0-00
6
CONTINUOUS
62
4
100
AcDbLine
10
196.310000000000
20
894.910000000000
30
0.0
11
199.100000000000
21
883.760000000000
31
0.0
0
LINE
5
602
100
AcDbEntity
8
0-00
6
CONTINUOUS
62
4
100
AcDbLine
10
190.150000000000
20
893.790000000000
30
0.0
11
199.850000000000
21
896.210000000000
31
0.0
0
LINE
5
603
100
AcDbEntity
8
0-00
6
CONTINUOUS
62
4
100
AcDbLine
10
191.970000000000
20
894.760000000000
30
0.0
11
197.790000000000
21
896.210000000000
31
0.0
0
LINE
5
604
100
AcDbEntity
8
0-00
6
CONTINUOUS
62
4
100
AcDbLine
10
199.850000000000
20
896.210000000000
30
0.0
11
199.950000000000
21
895.820000000000
31
0.0
0
LINE
5
605
100
AcDbEntity
8
0-00
6
CONTINUOUS
62
4
100
AcDbLine
10
197.790000000000
20
896.210000000000
30
0.0
11
199.370000000000
21
896.090000000000
31
0.0
0
LINE
5
606
100
AcDbEntity
8
0-00
6
CONTINUOUS
62
4
100
AcDbLine
10
197.380000000000
20
891.660000000000
30
0.0
11
194.350000000000
21
891.410000000000
31
0.0
0
LINE
5
607
100
AcDbEntity
8
0-00
6
CONTINUOUS
62
4
100
AcDbLine
10
197.630000000000
20
890.690000000000
30
0.0
11
194.590000000000
21
890.450000000000
31
0.0
0
LINE
5
608
100
AcDbEntity
8
0-00
6
CONTINUOUS
62
4
100
AcDbLine
10
197.870000000000
20
889.720000000000
30
0.0
11
194.840000000000
21
889.470000000000
31
0.0
0
LINE
5
609
100
AcDbEntity
8
0-00
6
CONTINUOUS
62
4
100
AcDbLine
10
197.140000000000
20
892.630000000000
30
0.0
11
194.110000000000
21
892.390000000000
31
0.0
0
LINE
5
60a
100
AcDbEntity
8
0-00
6
CONTINUOUS
62
4
100
AcDbLine
10
190.150000000000
20
893.790000000000
30
0.0
11
190.250000000000
21
893.400000000000
31
0.0
0
LINE
5
60b
100
AcDbEntity
8
0-00
6
CONTINUOUS
62
4
100
AcDbLine
10
191.970000000000
20
894.760000000000
30
0.0
11
190.640000000000
21
893.910000000000
31
0.0
0
LINE
5
60c
100
AcDbEntity
8
0-00
6
CONTINUOUS
62
4
100
AcDbLine
10
198.350000000000
20
887.780000000000
30
0.0
11
195.320000000000
21
887.530000000000
31
0.0
0
LINE
5
60d
100
AcDbEntity
8
0-00
6
CONTINUOUS
62
4
100
AcDbLine
10
198.110000000000
20
888.750000000000
30
0.0
11
195.080000000000
21
888.500000000000
31
0.0
0
LINE
5
60e
100
AcDbEntity
8
0-00
6
CONTINUOUS
62
4
100
AcDbLine
10
198.600000000000
20
886.810000000000
30
0.0
11
195.560000000000
21
886.560000000000
31
0.0
0
LINE
5
60f
100
AcDbEntity
8
0-00
6
CONTINUOUS
62
4
100
AcDbLine
10
198.840000000000
20
885.840000000000
30
0.0
11
195.810000000000
21
885.590000000000
31
0.0
0
LINE
5
610
100
AcDbEntity
8
0-00
6
CONTINUOUS
62
4
100
AcDbLine
10
198.130000000000
20
882.480000000000
30
0.0
11
196.680000000000
21
883.150000000000
31
0.0
0
LINE
5
611
100
AcDbEntity
8
0-00
6
CONTINUOUS
62
4
100
AcDbLine
10
199.100000000000
20
883.760000000000
30
0.0
11
198.130000000000
21
882.480000000000
31
0.0
0
POLYLINE
5
612
100
AcDbEntity
8
0-00
6
CONTINUOUS
62
  4
100
AcDb2dPolyline
66
1
10
0.0
20
0.0
30
0.0
70
0
0
VERTEX
5
613
100
AcDbEntity
8
0-00
6
CONTINUOUS
62
  4
100
AcDbVertex
100
AcDb2dVertex
10
197.530000000000
20
882.850000000000
30
0.0
0
VERTEX
5
614
100
AcDbEntity
8
0-00
6
CONTINUOUS
62
  4
100
AcDbVertex
100
AcDb2dVertex
10
197.890000000000
20
883.450000000000
30
0.0
0
VERTEX
5
615
100
AcDbEntity
8
0-00
6
CONTINUOUS
62
  4
100
AcDbVertex
100
AcDb2dVertex
10
197.400000000000
20
884.040000000000
30
0.0
0
VERTEX
5
616
100
AcDbEntity
8
0-00
6
CONTINUOUS
62
  4
100
AcDbVertex
100
AcDb2dVertex
10
198.030000000000
20
884.640000000000
30
0.0
0
VERTEX
5
617
100
AcDbEntity
8
0-00
6
CONTINUOUS
62
  4
100
AcDbVertex
100
AcDb2dVertex
10
199.100000000000
20
883.760000000000
30
0.0
0
SEQEND
5
618
100
AcDbEntity
8
0-00
0
LINE
5
619
100
AcDbEntity
8
0-00
6
CONTINUOUS
62
4
100
AcDbLine
10
190.250000000000
20
893.400000000000
30
0.0
11
199.950000000000
21
895.820000000000
31
0.0
0
LINE
5
61a
100
AcDbEntity
8
0-00
6
CONTINUOUS
62
7
100
AcDbLine
10
166.790000000000
20
888.770000000000
30
0.0
11
209.860000000000
21
899.540000000000
31
0.0
0
LINE
5
61b
100
AcDbEntity
8
0-00
6
DASHED
62
7
100
AcDbLine
10
167.220000000000
20
888.260000000000
30
0.0
11
189.330000000000
21
893.790000000000
31
0.0
0
LINE
5
61c
100
AcDbEntity
8
0-00
6
DASHED
62
7
100
AcDbLine
10
190.530000000000
20
894.550000000000
30
0.0
11
189.330000000000
21
893.790000000000
31
0.0
0
LINE
5
61d
100
AcDbEntity
8
0-00
6
DASHED
62
7
100
AcDbLine
10
190.530000000000
20
894.550000000000
30
0.0
11
194.840000000000
21
895.630000000000
31
0.0
0
LINE
5
61e
100
AcDbEntity
8
0-00
6
DASHED
62
7
100
AcDbLine
10
199.160000000000
20
896.710000000000
30
0.0
11
194.840000000000
21
895.630000000000
31
0.0
0
POLYLINE
5
61f
100
AcDbEntity
8
0-00
6
DASHED
62
  7
100
AcDb2dPolyline
66
1
10
0.0
20
0.0
30
0.0
70
0
0
VERTEX
5
620
100
AcDbEntity
8
0-00
6
DASHED
62
  7
100
AcDbVertex
100
AcDb2dVertex
10
199.160000000000
20
896.710000000000
30
0.0
0
VERTEX
5
621
100
AcDbEntity
8
0-00
6
DASHED
62
  7
100
AcDbVertex
100
AcDb2dVertex
10
200.580000000000
20
896.600000000000
30
0.0
0
VERTEX
5
622
100
AcDbEntity
8
0-00
6
DASHED
62
  7
100
AcDbVertex
100
AcDb2dVertex
10
202.720000000000
20
897.130000000000
30
0.0
0
SEQEND
5
623
100
AcDbEntity
8
0-00
0
LINE
5
624
100
AcDbEntity
8
0-00
6
CONTINUOUS
62
7
100
AcDbLine
10
291.450000000000
20
919.630000000000
30
0.0
11
291.190000000000
21
923.760000000000
31
0.0
0
LINE
5
625
100
AcDbEntity
8
0-00
6
CONTINUOUS
62
7
100
AcDbLine
10
291.450000000000
20
919.630000000000
30
0.0
11
289.160000000000
21
923.070000000000
31
0.0
0
LINE
5
626
100
AcDbEntity
8
0-00
6
CONTINUOUS
62
7
100
AcDbLine
10
111.070000000000
20
836.290000000000
30
0.0
11
110.800000000000
21
840.420000000000
31
0.0
0
LINE
5
627
100
AcDbEntity
8
0-00
6
CONTINUOUS
62
7
100
AcDbLine
10
291.450000000000
20
919.630000000000
30
0.0
11
278.250000000000
21
958.640000000000
31
0.0
0
LINE
5
628
100
AcDbEntity
8
0-00
6
CONTINUOUS
62
7
100
AcDbLine
10
225.960000000000
20
880.070000000000
30
0.0
11
225.690000000000
21
884.210000000000
31
0.0
0
LINE
5
629
100
AcDbEntity
8
0-00
6
CONTINUOUS
62
7
100
AcDbLine
10
225.960000000000
20
880.070000000000
30
0.0
11
223.660000000000
21
883.520000000000
31
0.0
0
LINE
5
62a
100
AcDbEntity
8
0-00
6
CONTINUOUS
62
7
100
AcDbLine
10
266.750000000000
20
900.270000000000
30
0.0
11
266.490000000000
21
904.410000000000
31
0.0
0
LINE
5
62b
100
AcDbEntity
8
0-00
6
CONTINUOUS
62
7
100
AcDbLine
10
266.750000000000
20
900.270000000000
30
0.0
11
264.460000000000
21
903.720000000000
31
0.0
0
LINE
5
62c
100
AcDbEntity
8
0-00
6
CONTINUOUS
62
7
100
AcDbLine
10
264.490000000000
20
880.300000000000
30
0.0
11
264.220000000000
21
884.430000000000
31
0.0
0
LINE
5
62d
100
AcDbEntity
8
0-00
6
CONTINUOUS
62
7
100
AcDbLine
10
264.490000000000
20
880.300000000000
30
0.0
11
262.190000000000
21
883.740000000000
31
0.0
0
LINE
5
62e
100
AcDbEntity
8
0-00
6
CONTINUOUS
62
7
100
AcDbLine
10
264.490000000000
20
880.300000000000
30
0.0
11
244.970000000000
21
938.000000000000
31
0.0
0
LINE
5
62f
100
AcDbEntity
8
0-00
6
CONTINUOUS
62
7
100
AcDbLine
10
266.750000000000
20
900.270000000000
30
0.0
11
253.990000000000
21
938.000000000000
31
0.0
0
LINE
5
630
100
AcDbEntity
8
0-00
6
CONTINUOUS
62
7
100
AcDbLine
10
239.690000000000
20
905.590000000000
30
0.0
11
240.760000000000
21
901.590000000000
31
0.0
0
LINE
5
631
100
AcDbEntity
8
0-00
6
CONTINUOUS
62
7
100
AcDbLine
10
239.690000000000
20
905.590000000000
30
0.0
11
242.620000000000
21
902.660000000000
31
0.0
0
LINE
5
632
100
AcDbEntity
8
0-00
6
CONTINUOUS
62
7
100
AcDbLine
10
251.160000000000
20
869.640000000000
30
0.0
11
252.230000000000
21
865.640000000000
31
0.0
0
LINE
5
633
100
AcDbEntity
8
0-00
6
CONTINUOUS
62
7
100
AcDbLine
10
251.160000000000
20
869.640000000000
30
0.0
11
254.090000000000
21
866.710000000000
31
0.0
0
LINE
5
634
100
AcDbEntity
8
0-00
6
CONTINUOUS
62
7
100
AcDbLine
10
251.160000000000
20
869.640000000000
30
0.0
11
281.420000000000
21
817.240000000000
31
0.0
0
LINE
5
635
100
AcDbEntity
8
0-00
6
CONTINUOUS
62
7
100
AcDbLine
10
180.500000000000
20
890.630000000000
30
0.0
11
180.240000000000
21
894.760000000000
31
0.0
0
LINE
5
636
100
AcDbEntity
8
0-00
6
CONTINUOUS
62
7
100
AcDbLine
10
180.500000000000
20
890.630000000000
30
0.0
11
178.210000000000
21
894.070000000000
31
0.0
0
LINE
5
637
100
AcDbEntity
8
0-00
6
CONTINUOUS
62
7
100
AcDbLine
10
180.500000000000
20
890.630000000000
30
0.0
11
175.570000000000
21
905.200000000000
31
0.0
0
LINE
5
638
100
AcDbEntity
8
0-00
6
CONTINUOUS
62
3
100
AcDbLine
10
251.790000000000
20
879.040000000000
30
0.0
11
252.370000000000
21
872.840000000000
31
0.0
0
LINE
5
639
100
AcDbEntity
8
0-00
6
CONTINUOUS
62
3
100
AcDbLine
10
252.490000000000
20
879.100000000000
30
0.0
11
253.060000000000
21
872.900000000000
31
0.0
0
LINE
5
63a
100
AcDbEntity
8
0-00
6
CONTINUOUS
62
3
100
AcDbLine
10
253.730000000000
20
881.330000000000
30
0.0
11
257.330000000000
21
881.580000000000
31
0.0
0
LINE
5
63b
100
AcDbEntity
8
0-00
6
CONTINUOUS
62
3
100
AcDbLine
10
257.380000000000
20
880.880000000000
30
0.0
11
257.330000000000
21
881.580000000000
31
0.0
0
LINE
5
63c
100
AcDbEntity
8
0-00
6
CONTINUOUS
62
3
100
AcDbLine
10
253.780000000000
20
880.630000000000
30
0.0
11
257.380000000000
21
880.880000000000
31
0.0
0
LINE
5
63d
100
AcDbEntity
8
0-00
6
CONTINUOUS
62
3
100
AcDbLine
10
221.600000000000
20
877.310000000000
30
0.0
11
230.960000000000
21
866.960000000000
31
0.0
0
LINE
5
63e
100
AcDbEntity
8
0-00
6
CONTINUOUS
62
3
100
AcDbLine
10
221.110000000000
20
876.810000000000
30
0.0
11
230.470000000000
21
866.470000000000
31
0.0
0
LINE
5
63f
100
AcDbEntity
8
0-00
6
CONTINUOUS
62
3
100
AcDbLine
10
216.470000000000
20
874.500000000000
30
0.0
11
218.450000000000
21
877.100000000000
31
0.0
0
LINE
5
640
100
AcDbEntity
8
0-00
6
CONTINUOUS
62
3
100
AcDbLine
10
219.010000000000
20
876.670000000000
30
0.0
11
217.030000000000
21
874.080000000000
31
0.0
0
LINE
5
641
100
AcDbEntity
8
0-00
6
CONTINUOUS
62
3
100
AcDbLine
10
203.250000000000
20
870.160000000000
30
0.0
11
215.870000000000
21
873.310000000000
31
0.0
0
LINE
5
642
100
AcDbEntity
8
0-00
6
CONTINUOUS
62
3
100
AcDbLine
10
203.450000000000
20
867.950000000000
30
0.0
11
216.130000000000
21
868.880000000000
31
0.0
0
LINE
5
643
100
AcDbEntity
8
0-00
6
CONTINUOUS
62
3
100
AcDbLine
10
203.500000000000
20
867.260000000000
30
0.0
11
216.180000000000
21
868.180000000000
31
0.0
0
LINE
5
644
100
AcDbEntity
8
0-00
6
CONTINUOUS
62
3
100
AcDbLine
10
203.080000000000
20
870.840000000000
30
0.0
11
215.700000000000
21
873.990000000000
31
0.0
0
LINE
5
645
100
AcDbEntity
8
0-00
6
CONTINUOUS
62
3
100
AcDbLine
10
251.310000000000
20
871.350000000000
30
0.0
11
243.160000000000
21
869.310000000000
31
0.0
0
LINE
5
646
100
AcDbEntity
8
0-00
6
CONTINUOUS
62
3
100
AcDbLine
10
242.000000000000
20
868.190000000000
30
0.0
11
243.160000000000
21
869.310000000000
31
0.0
0
LINE
5
647
100
AcDbEntity
8
0-00
6
CONTINUOUS
62
3
100
AcDbLine
10
242.190000000000
20
867.400000000000
30
0.0
11
243.510000000000
21
868.680000000000
31
0.0
0
LINE
5
648
100
AcDbEntity
8
0-00
6
CONTINUOUS
62
3
100
AcDbLine
10
251.480000000000
20
870.670000000000
30
0.0
11
243.510000000000
21
868.680000000000
31
0.0
0
LINE
5
649
100
AcDbEntity
8
0-00
6
CONTINUOUS
62
3
100
AcDbLine
10
232.290000000000
20
866.600000000000
30
0.0
11
240.440000000000
21
868.630000000000
31
0.0
0
LINE
5
64a
100
AcDbEntity
8
0-00
6
CONTINUOUS
62
3
100
AcDbLine
10
242.000000000000
20
868.190000000000
30
0.0
11
240.440000000000
21
868.630000000000
31
0.0
0
LINE
5
64b
100
AcDbEntity
8
0-00
6
CONTINUOUS
62
3
100
AcDbLine
10
232.460000000000
20
865.920000000000
30
0.0
11
240.430000000000
21
867.910000000000
31
0.0
0
LINE
5
64c
100
AcDbEntity
8
0-00
6
CONTINUOUS
62
3
100
AcDbLine
10
242.190000000000
20
867.400000000000
30
0.0
11
240.430000000000
21
867.910000000000
31
0.0
0
LINE
5
64d
100
AcDbEntity
8
0-00
6
CONTINUOUS
62
7
100
AcDbLine
10
216.600000000000
20
867.210000000000
30
0.0
11
202.630000000000
21
863.720000000000
31
0.0
0
LINE
5
64e
100
AcDbEntity
8
0-00
6
CONTINUOUS
62
7
100
AcDbLine
10
216.750000000000
20
866.630000000000
30
0.0
11
202.200000000000
21
862.990000000000
31
0.0
0
POLYLINE
5
64f
100
AcDbEntity
8
0-00
6
CONTINUOUS
62
  7
100
AcDb2dPolyline
66
1
10
0.0
20
0.0
30
0.0
70
0
0
VERTEX
5
650
100
AcDbEntity
8
0-00
6
CONTINUOUS
62
  7
100
AcDbVertex
100
AcDb2dVertex
10
305.630000000000
20
883.800000000000
30
0.0
0
VERTEX
5
651
100
AcDbEntity
8
0-00
6
CONTINUOUS
62
  7
100
AcDbVertex
100
AcDb2dVertex
10
301.990000000000
20
898.350000000000
30
0.0
0
VERTEX
5
652
100
AcDbEntity
8
0-00
6
CONTINUOUS
62
  7
100
AcDbVertex
100
AcDb2dVertex
10
258.330000000000
20
887.430000000000
30
0.0
0
SEQEND
5
653
100
AcDbEntity
8
0-00
0
LINE
5
654
100
AcDbEntity
8
0-00
6
CONTINUOUS
62
7
100
AcDbLine
10
261.970000000000
20
872.880000000000
30
0.0
11
258.330000000000
21
887.430000000000
31
0.0
0
LINE
5
655
100
AcDbEntity
8
0-00
6
CONTINUOUS
62
7
100
AcDbLine
10
305.630000000000
20
883.800000000000
30
0.0
11
261.970000000000
21
872.880000000000
31
0.0
0
LINE
5
656
100
AcDbEntity
8
0-00
6
CONTINUOUS
62
7
100
AcDbLine
10
258.330000000000
20
887.430000000000
30
0.0
11
305.630000000000
21
883.800000000000
31
0.0
0
LINE
5
657
100
AcDbEntity
8
0-00
6
CONTINUOUS
62
7
100
AcDbLine
10
304.350000000000
20
920.690000000000
30
0.0
11
183.090000000000
21
890.370000000000
31
0.0
0
LINE
5
658
100
AcDbEntity
8
0-00
6
CONTINUOUS
62
7
100
AcDbLine
10
309.200000000000
20
901.290000000000
30
0.0
11
304.350000000000
21
920.690000000000
31
0.0
0
LINE
5
659
100
AcDbEntity
8
0-00
6
CONTINUOUS
62
7
100
AcDbLine
10
309.200000000000
20
901.290000000000
30
0.0
11
187.940000000000
21
870.970000000000
31
0.0
0
LINE
5
65a
100
AcDbEntity
8
0-00
6
CONTINUOUS
62
4
100
AcDbLine
10
119.490000000000
20
810.460000000000
30
0.0
11
137.680000000000
21
840.780000000000
31
0.0
0
LINE
5
65b
100
AcDbEntity
8
0-00
6
CONTINUOUS
62
4
100
AcDbLine
10
97.890000000000
20
830.830000000000
30
0.0
11
128.210000000000
21
812.640000000000
31
0.0
0
LINE
5
65c
100
AcDbEntity
8
0-00
6
CONTINUOUS
62
4
100
AcDbLine
10
92.050000000000
20
803.600000000000
30
0.0
11
110.240000000000
21
833.920000000000
31
0.0
0
LINE
5
65d
100
AcDbEntity
8
0-00
6
CONTINUOUS
62
7
100
AcDbLine
10
287.310000000000
20
894.790000000000
30
0.0
11
200.300000000000
21
873.040000000000
31
0.0
0
LINE
5
65e
100
AcDbEntity
8
0-00
6
CONTINUOUS
62
7
100
AcDbLine
10
202.630000000000
20
863.720000000000
30
0.0
11
200.300000000000
21
873.040000000000
31
0.0
0
LINE
5
65f
100
AcDbEntity
8
0-00
6
CONTINUOUS
62
7
100
AcDbLine
10
287.170000000000
20
895.380000000000
30
0.0
11
199.580000000000
21
873.480000000000
31
0.0
0
LINE
5
660
100
AcDbEntity
8
0-00
6
CONTINUOUS
62
7
100
AcDbLine
10
202.200000000000
20
862.990000000000
30
0.0
11
199.580000000000
21
873.480000000000
31
0.0
0
LINE
5
661
100
AcDbEntity
8
0-00
6
CONTINUOUS
62
7
100
AcDbLine
10
225.960000000000
20
880.070000000000
30
0.0
11
212.500000000000
21
919.850000000000
31
0.0
0
LINE
5
662
100
AcDbEntity
8
0-00
6
CONTINUOUS
62
7
100
AcDbLine
10
239.690000000000
20
905.590000000000
30
0.0
11
290.710000000000
21
817.240000000000
31
0.0
0
LINE
5
663
100
AcDbEntity
8
0-00
6
CONTINUOUS
62
7
100
AcDbLine
10
189.510000000000
20
857.140000000000
30
0.0
11
160.140000000000
21
851.030000000000
31
0.0
0
LINE
5
664
100
AcDbEntity
8
0-00
6
CONTINUOUS
62
7
100
AcDbLine
10
189.970000000000
20
857.870000000000
30
0.0
11
182.210000000000
21
888.920000000000
31
0.0
0
LINE
5
665
100
AcDbEntity
8
0-00
6
CONTINUOUS
62
7
100
AcDbLine
10
190.560000000000
20
858.020000000000
30
0.0
11
182.800000000000
21
889.060000000000
31
0.0
0
LINE
5
666
100
AcDbEntity
8
0-00
6
CONTINUOUS
62
4
100
AcDbLine
10
246.550000000000
20
870.790000000000
30
0.0
11
236.840000000000
21
868.360000000000
31
0.0
0
LINE
5
667
100
AcDbEntity
8
0-00
6
CONTINUOUS
62
4
100
AcDbLine
10
244.480000000000
20
870.790000000000
30
0.0
11
238.660000000000
21
869.330000000000
31
0.0
0
LINE
5
668
100
AcDbEntity
8
0-00
6
CONTINUOUS
62
4
100
AcDbLine
10
236.840000000000
20
868.360000000000
30
0.0
11
236.940000000000
21
867.970000000000
31
0.0
0
LINE
5
669
100
AcDbEntity
8
0-00
6
CONTINUOUS
62
4
100
AcDbLine
10
238.660000000000
20
869.330000000000
30
0.0
11
237.330000000000
21
868.480000000000
31
0.0
0
LINE
5
66a
100
AcDbEntity
8
0-00
6
CONTINUOUS
62
4
100
AcDbLine
10
246.550000000000
20
870.790000000000
30
0.0
11
246.640000000000
21
870.400000000000
31
0.0
0
LINE
5
66b
100
AcDbEntity
8
0-00
6
CONTINUOUS
62
4
100
AcDbLine
10
244.480000000000
20
870.790000000000
30
0.0
11
246.060000000000
21
870.660000000000
31
0.0
0
LINE
5
66c
100
AcDbEntity
8
0-00
6
CONTINUOUS
62
4
100
AcDbLine
10
246.640000000000
20
870.400000000000
30
0.0
11
236.940000000000
21
867.970000000000
31
0.0
0
LINE
5
66d
100
AcDbEntity
8
0-00
6
CONTINUOUS
62
4
100
AcDbLine
10
245.340000000000
20
849.040000000000
30
0.0
11
248.150000000000
21
850.260000000000
31
0.0
0
LINE
5
66e
100
AcDbEntity
8
0-00
6
CONTINUOUS
62
4
100
AcDbLine
10
246.290000000000
20
847.300000000000
30
0.0
11
248.130000000000
21
848.100000000000
31
0.0
0
LINE
5
66f
100
AcDbEntity
8
0-00
6
CONTINUOUS
62
4
100
AcDbLine
10
247.230000000000
20
845.560000000000
30
0.0
11
248.110000000000
21
845.940000000000
31
0.0
0
LINE
5
670
100
AcDbEntity
8
0-00
6
CONTINUOUS
62
4
100
AcDbLine
10
247.860000000000
20
844.930000000000
30
0.0
11
244.500000000000
21
851.110000000000
31
0.0
0
LINE
5
671
100
AcDbEntity
8
0-00
6
CONTINUOUS
62
4
100
AcDbLine
10
247.860000000000
20
844.930000000000
30
0.0
11
247.910000000000
21
851.960000000000
31
0.0
0
LINE
5
672
100
AcDbEntity
8
0-00
6
CONTINUOUS
62
4
100
AcDbLine
10
244.110000000000
20
850.650000000000
30
0.0
11
248.290000000000
21
852.470000000000
31
0.0
0
LINE
5
673
100
AcDbEntity
8
0-00
6
CONTINUOUS
62
4
100
AcDbLine
10
243.620000000000
20
852.590000000000
30
0.0
11
247.810000000000
21
854.410000000000
31
0.0
0
LINE
5
674
100
AcDbEntity
8
0-00
6
CONTINUOUS
62
4
100
AcDbLine
10
243.140000000000
20
854.530000000000
30
0.0
11
247.320000000000
21
856.350000000000
31
0.0
0
LINE
5
675
100
AcDbEntity
8
0-00
6
CONTINUOUS
62
4
100
AcDbLine
10
242.650000000000
20
856.470000000000
30
0.0
11
246.840000000000
21
858.290000000000
31
0.0
0
LINE
5
676
100
AcDbEntity
8
0-00
6
CONTINUOUS
62
4
100
AcDbLine
10
242.170000000000
20
858.410000000000
30
0.0
11
246.350000000000
21
860.230000000000
31
0.0
0
LINE
5
677
100
AcDbEntity
8
0-00
6
CONTINUOUS
62
4
100
AcDbLine
10
241.680000000000
20
860.350000000000
30
0.0
11
245.870000000000
21
862.170000000000
31
0.0
0
LINE
5
678
100
AcDbEntity
8
0-00
6
CONTINUOUS
62
4
100
AcDbLine
10
244.520000000000
20
851.050000000000
30
0.0
11
240.090000000000
21
868.760000000000
31
0.0
0
LINE
5
679
100
AcDbEntity
8
0-00
6
CONTINUOUS
62
4
100
AcDbLine
10
247.920000000000
20
851.900000000000
30
0.0
11
243.490000000000
21
869.610000000000
31
0.0
0
LINE
5
67a
100
AcDbEntity
8
0-00
6
CONTINUOUS
62
4
100
AcDbLine
10
241.200000000000
20
862.290000000000
30
0.0
11
245.380000000000
21
864.110000000000
31
0.0
0
LINE
5
67b
100
AcDbEntity
8
0-00
6
CONTINUOUS
62
4
100
AcDbLine
10
240.710000000000
20
864.230000000000
30
0.0
11
244.900000000000
21
866.050000000000
31
0.0
0
LINE
5
67c
100
AcDbEntity
8
0-00
6
CONTINUOUS
62
4
100
AcDbLine
10
240.230000000000
20
866.170000000000
30
0.0
11
244.410000000000
21
867.990000000000
31
0.0
0
LINE
5
67d
100
AcDbEntity
8
0-00
6
CONTINUOUS
62
7
100
AcDbLine
10
183.090000000000
20
890.370000000000
30
0.0
11
309.200000000000
21
901.290000000000
31
0.0
0
LINE
5
67e
100
AcDbEntity
8
0-00
6
CONTINUOUS
62
7
100
AcDbLine
10
111.070000000000
20
836.290000000000
30
0.0
11
108.770000000000
21
839.730000000000
31
0.0
0
LINE
5
67f
100
AcDbEntity
8
0-00
6
CONTINUOUS
62
7
100
AcDbLine
10
111.070000000000
20
836.290000000000
30
0.0
11
101.670000000000
21
864.060000000000
31
0.0
0
LINE
5
680
100
AcDbEntity
8
0-00
6
CONTINUOUS
62
3
100
AcDbLine
10
216.580000000000
20
862.670000000000
30
0.0
11
79.760000000000
21
828.460000000000
31
0.0
0
LINE
5
681
100
AcDbEntity
8
0-00
6
CONTINUOUS
62
3
100
AcDbLine
10
216.750000000000
20
861.990000000000
30
0.0
11
79.760000000000
21
827.740000000000
31
0.0
0
LINE
5
682
100
AcDbEntity
8
0-00
6
CONTINUOUS
62
3
100
AcDbLine
10
311.510000000000
20
884.240000000000
30
0.0
11
79.760000000000
21
826.300000000000
31
0.0
0
LINE
5
683
100
AcDbEntity
8
0-00
6
CONTINUOUS
62
4
100
AcDbLine
10
79.760000000000
20
821.980000000000
30
0.0
11
82.800000000000
21
827.060000000000
31
0.0
0
LINE
5
684
100
AcDbEntity
8
0-00
6
CONTINUOUS
62
4
100
AcDbLine
10
79.760000000000
20
818.390000000000
30
0.0
11
100.770000000000
21
805.780000000000
31
0.0
0
LINE
5
685
100
AcDbEntity
8
0-00
6
CONTINUOUS
62
3
100
AcDbLine
10
317.570000000000
20
859.980000000000
30
0.0
11
79.760000000000
21
800.530000000000
31
0.0
0
POLYLINE
5
686
100
AcDbEntity
8
0-00
6
CONTINUOUS
62
  3
100
AcDb2dPolyline
66
1
10
0.0
20
0.0
30
0.0
70
0
0
VERTEX
5
687
100
AcDbEntity
8
0-00
6
CONTINUOUS
62
  3
100
AcDbVertex
100
AcDb2dVertex
10
368.870000000000
20
746.450000000000
30
0.0
0
VERTEX
5
688
100
AcDbEntity
8
0-00
6
CONTINUOUS
62
  3
100
AcDbVertex
100
AcDb2dVertex
10
412.910000000000
20
735.440000000000
30
0.0
0
VERTEX
5
689
100
AcDbEntity
8
0-00
6
CONTINUOUS
62
  3
100
AcDbVertex
100
AcDb2dVertex
10
436.050000000000
20
827.990000000000
30
0.0
0
SEQEND
5
68a
100
AcDbEntity
8
0-00
0
LINE
5
68b
100
AcDbEntity
8
0-00
6
CONTINUOUS
62
3
100
AcDbLine
10
392.560000000000
20
841.230000000000
30
0.0
11
436.610000000000
21
830.220000000000
31
0.0
0
LINE
5
68c
100
AcDbEntity
8
0-00
6
CONTINUOUS
62
3
100
AcDbLine
10
436.050000000000
20
827.990000000000
30
0.0
11
392.010000000000
21
839.000000000000
31
0.0
0
LINE
5
68d
100
AcDbEntity
8
0-00
6
CONTINUOUS
62
3
100
AcDbLine
10
385.480000000000
20
822.390000000000
30
0.0
11
389.780000000000
21
839.560000000000
31
0.0
0
POLYLINE
5
68e
100
AcDbEntity
8
0-00
6
CONTINUOUS
62
  3
100
AcDb2dPolyline
66
1
10
0.0
20
0.0
30
0.0
70
0
0
VERTEX
5
68f
100
AcDbEntity
8
0-00
6
CONTINUOUS
62
  3
100
AcDbVertex
100
AcDb2dVertex
10
392.010000000000
20
839.000000000000
30
0.0
0
VERTEX
5
690
100
AcDbEntity
8
0-00
6
CONTINUOUS
62
  3
100
AcDbVertex
100
AcDb2dVertex
10
387.710000000000
20
821.830000000000
30
0.0
0
VERTEX
5
691
100
AcDbEntity
8
0-00
6
CONTINUOUS
62
  3
100
AcDbVertex
100
AcDb2dVertex
10
385.480000000000
20
822.390000000000
30
0.0
0
SEQEND
5
692
100
AcDbEntity
8
0-00
0
LINE
5
693
100
AcDbEntity
8
0-00
6
CONTINUOUS
62
3
100
AcDbLine
10
373.160000000000
20
763.620000000000
30
0.0
11
368.870000000000
21
746.450000000000
31
0.0
0
POLYLINE
5
694
100
AcDbEntity
8
0-00
6
CONTINUOUS
62
  3
100
AcDb2dPolyline
66
1
10
0.0
20
0.0
30
0.0
70
0
0
VERTEX
5
695
100
AcDbEntity
8
0-00
6
CONTINUOUS
62
  3
100
AcDbVertex
100
AcDb2dVertex
10
366.640000000000
20
747.010000000000
30
0.0
0
VERTEX
5
696
100
AcDbEntity
8
0-00
6
CONTINUOUS
62
  3
100
AcDbVertex
100
AcDb2dVertex
10
370.930000000000
20
764.180000000000
30
0.0
0
VERTEX
5
697
100
AcDbEntity
8
0-00
6
CONTINUOUS
62
  3
100
AcDbVertex
100
AcDb2dVertex
10
373.160000000000
20
763.620000000000
30
0.0
0
SEQEND
5
698
100
AcDbEntity
8
0-00
0
LINE
5
699
100
AcDbEntity
8
0-00
6
CONTINUOUS
62
3
100
AcDbLine
10
412.360000000000
20
733.210000000000
30
0.0
11
368.310000000000
21
744.220000000000
31
0.0
0
LINE
5
69a
100
AcDbEntity
8
0-00
6
CONTINUOUS
62
4
100
AcDbLine
10
351.010000000000
20
851.620000000000
30
0.0
11
332.820000000000
21
881.940000000000
31
0.0
0
LINE
5
69b
100
AcDbEntity
8
0-00
6
CONTINUOUS
62
4
100
AcDbLine
10
378.450000000000
20
844.760000000000
30
0.0
11
360.260000000000
21
875.080000000000
31
0.0
0
LINE
5
69c
100
AcDbEntity
8
0-00
6
CONTINUOUS
62
4
100
AcDbLine
10
405.890000000000
20
837.900000000000
30
0.0
11
387.700000000000
21
868.220000000000
31
0.0
0
LINE
5
69d
100
AcDbEntity
8
0-00
6
CONTINUOUS
62
4
100
AcDbLine
10
433.330000000000
20
831.040000000000
30
0.0
11
415.140000000000
21
861.360000000000
31
0.0
0
LINE
5
69e
100
AcDbEntity
8
0-00
6
CONTINUOUS
62
4
100
AcDbLine
10
460.770000000000
20
824.180000000000
30
0.0
11
442.580000000000
21
854.500000000000
31
0.0
0
LINE
5
69f
100
AcDbEntity
8
0-00
6
CONTINUOUS
62
4
100
AcDbLine
10
488.210000000000
20
817.320000000000
30
0.0
11
470.020000000000
21
847.640000000000
31
0.0
0
LINE
5
6a0
100
AcDbEntity
8
0-00
6
CONTINUOUS
62
4
100
AcDbLine
10
509.810000000000
20
837.690000000000
30
0.0
11
479.490000000000
21
819.500000000000
31
0.0
0
LINE
5
6a1
100
AcDbEntity
8
0-00
6
CONTINUOUS
62
4
100
AcDbLine
10
482.370000000000
20
844.550000000000
30
0.0
11
452.060000000000
21
826.360000000000
31
0.0
0
LINE
5
6a2
100
AcDbEntity
8
0-00
6
CONTINUOUS
62
4
100
AcDbLine
10
454.930000000000
20
851.410000000000
30
0.0
11
424.620000000000
21
833.220000000000
31
0.0
0
LINE
5
6a3
100
AcDbEntity
8
0-00
6
CONTINUOUS
62
4
100
AcDbLine
10
427.490000000000
20
858.270000000000
30
0.0
11
397.180000000000
21
840.080000000000
31
0.0
0
LINE
5
6a4
100
AcDbEntity
8
0-00
6
CONTINUOUS
62
4
100
AcDbLine
10
400.050000000000
20
865.130000000000
30
0.0
11
369.740000000000
21
846.940000000000
31
0.0
0
LINE
5
6a5
100
AcDbEntity
8
0-00
6
CONTINUOUS
62
4
100
AcDbLine
10
372.610000000000
20
871.990000000000
30
0.0
11
342.300000000000
21
853.800000000000
31
0.0
0
LINE
5
6a6
100
AcDbEntity
8
0-00
6
CONTINUOUS
62
3
100
AcDbLine
10
438.280000000000
20
827.430000000000
30
0.0
11
415.140000000000
21
734.880000000000
31
0.0
0
LINE
5
6a7
100
AcDbEntity
8
0-00
6
CONTINUOUS
62
7
100
AcDbLine
10
430.130000000000
20
898.330000000000
30
0.0
11
429.990000000000
21
897.740000000000
31
0.0
0
LINE
5
6a8
100
AcDbEntity
8
0-00
6
CONTINUOUS
62
7
100
AcDbLine
10
425.140000000000
20
898.960000000000
30
0.0
11
429.990000000000
21
897.740000000000
31
0.0
0
LINE
5
6a9
100
AcDbEntity
8
0-00
6
CONTINUOUS
62
7
100
AcDbLine
10
425.280000000000
20
899.540000000000
30
0.0
11
430.130000000000
21
898.330000000000
31
0.0
0
LINE
5
6aa
100
AcDbEntity
8
0-00
6
CONTINUOUS
62
4
100
AcDbLine
10
323.570000000000
20
858.480000000000
30
0.0
11
319.070000000000
21
865.980000000000
31
0.0
0
LINE
5
6ab
100
AcDbEntity
8
0-00
6
CONTINUOUS
62
4
100
AcDbLine
10
345.170000000000
20
878.850000000000
30
0.0
11
318.250000000000
21
862.700000000000
31
0.0
0
LINE
5
6ac
100
AcDbEntity
8
0-00
6
CONTINUOUS
62
3
100
AcDbLine
10
317.570000000000
20
859.980000000000
30
0.0
11
323.640000000000
21
884.240000000000
31
0.0
0
LINE
5
6ad
100
AcDbEntity
8
0-00
6
CONTINUOUS
62
4
100
AcDbLine
10
488.620000000000
20
959.770000000000
30
0.0
11
498.590000000000
21
999.650000000000
31
0.0
0
LINE
5
6ae
100
AcDbEntity
8
0-00
6
CONTINUOUS
62
7
100
AcDbLine
10
418.390000000000
20
866.630000000000
30
0.0
11
418.540000000000
21
867.210000000000
31
0.0
0
LINE
5
6af
100
AcDbEntity
8
0-00
6
CONTINUOUS
62
7
100
AcDbLine
10
347.830000000000
20
894.790000000000
30
0.0
11
347.980000000000
21
895.380000000000
31
0.0
0
LINE
5
6b0
100
AcDbEntity
8
0-00
6
CONTINUOUS
62
7
100
AcDbLine
10
447.210000000000
20
870.970000000000
30
0.0
11
452.060000000000
21
890.370000000000
31
0.0
0
LINE
5
6b1
100
AcDbEntity
8
0-00
6
CONTINUOUS
62
7
100
AcDbLine
10
465.010000000000
20
852.290000000000
30
0.0
11
474.710000000000
21
849.870000000000
31
0.0
0
POLYLINE
5
6b2
100
AcDbEntity
8
0-00
6
CONTINUOUS
62
  7
100
AcDb2dPolyline
66
1
10
0.0
20
0.0
30
0.0
70
0
0
VERTEX
5
6b3
100
AcDbEntity
8
0-00
6
CONTINUOUS
62
  7
100
AcDbVertex
100
AcDb2dVertex
10
465.010000000000
20
852.290000000000
30
0.0
0
VERTEX
5
6b4
100
AcDbEntity
8
0-00
6
CONTINUOUS
62
  7
100
AcDbVertex
100
AcDb2dVertex
10
464.860000000000
20
851.710000000000
30
0.0
0
VERTEX
5
6b5
100
AcDbEntity
8
0-00
6
CONTINUOUS
62
  7
100
AcDbVertex
100
AcDb2dVertex
10
474.570000000000
20
849.290000000000
30
0.0
0
SEQEND
5
6b6
100
AcDbEntity
8
0-00
0
LINE
5
6b7
100
AcDbEntity
8
0-00
6
CONTINUOUS
62
7
100
AcDbLine
10
445.510000000000
20
856.550000000000
30
0.0
11
474.880000000000
21
850.440000000000
31
0.0
0
LINE
5
6b8
100
AcDbEntity
8
0-00
6
CONTINUOUS
62
7
100
AcDbLine
10
468.070000000000
20
887.610000000000
30
0.0
11
424.990000000000
21
898.380000000000
31
0.0
0
LINE
5
6b9
100
AcDbEntity
8
0-00
6
CONTINUOUS
62
7
100
AcDbLine
10
467.920000000000
20
887.020000000000
30
0.0
11
424.850000000000
21
897.790000000000
31
0.0
0
LINE
5
6ba
100
AcDbEntity
8
0-00
6
CONTINUOUS
62
7
100
AcDbLine
10
467.190000000000
20
884.110000000000
30
0.0
11
454.580000000000
21
887.270000000000
31
0.0
0
LINE
5
6bb
100
AcDbEntity
8
0-00
6
CONTINUOUS
62
7
100
AcDbLine
10
454.730000000000
20
887.850000000000
30
0.0
11
454.580000000000
21
887.270000000000
31
0.0
0
LINE
5
6bc
100
AcDbEntity
8
0-00
6
CONTINUOUS
62
7
100
AcDbLine
10
467.340000000000
20
884.700000000000
30
0.0
11
454.730000000000
21
887.850000000000
31
0.0
0
LINE
5
6bd
100
AcDbEntity
8
0-00
6
CONTINUOUS
62
7
100
AcDbLine
10
453.660000000000
20
889.350000000000
30
0.0
11
467.630000000000
21
885.860000000000
31
0.0
0
LINE
5
6be
100
AcDbEntity
8
0-00
6
CONTINUOUS
62
7
100
AcDbLine
10
467.770000000000
20
886.440000000000
30
0.0
11
453.800000000000
21
889.940000000000
31
0.0
0
LINE
5
6bf
100
AcDbEntity
8
0-00
6
CONTINUOUS
62
7
100
AcDbLine
10
468.500000000000
20
889.350000000000
30
0.0
11
425.430000000000
21
900.120000000000
31
0.0
0
LINE
5
6c0
100
AcDbEntity
8
0-00
6
DASHED
62
7
100
AcDbLine
10
432.430000000000
20
897.130000000000
30
0.0
11
430.130000000000
21
898.330000000000
31
0.0
0
POLYLINE
5
6c1
100
AcDbEntity
8
0-00
6
DASHED
62
  7
100
AcDb2dPolyline
66
1
10
0.0
20
0.0
30
0.0
70
0
0
VERTEX
5
6c2
100
AcDbEntity
8
0-00
6
DASHED
62
  7
100
AcDbVertex
100
AcDb2dVertex
10
425.270000000000
20
899.540000000000
30
0.0
0
VERTEX
5
6c3
100
AcDbEntity
8
0-00
6
DASHED
62
  7
100
AcDbVertex
100
AcDb2dVertex
10
417.530000000000
20
900.200000000000
30
0.0
0
VERTEX
5
6c4
100
AcDbEntity
8
0-00
6
DASHED
62
  7
100
AcDbVertex
100
AcDb2dVertex
10
388.710000000000
20
907.240000000000
30
0.0
0
SEQEND
5
6c5
100
AcDbEntity
8
0-00
0
LINE
5
6c6
100
AcDbEntity
8
0-00
6
CENTER2
62
7
100
AcDbLine
10
436.390000000000
20
879.990000000000
30
0.0
11
441.100000000000
21
898.830000000000
31
0.0
0
LINE
5
6c7
100
AcDbEntity
8
0-00
6
CONTINUOUS
62
4
100
AcDbLine
10
498.590000000000
20
999.650000000000
30
0.0
11
344.390000000000
21
1038.200000000000
31
0.0
0
LINE
5
6c8
100
AcDbEntity
8
0-00
6
CONTINUOUS
62
4
100
AcDbLine
10
334.420000000000
20
998.320000000000
30
0.0
11
344.390000000000
21
1038.200000000000
31
0.0
0
LINE
5
6c9
100
AcDbEntity
8
0-00
6
CONTINUOUS
62
4
100
AcDbLine
10
438.470000000000
20
883.150000000000
30
0.0
11
441.260000000000
21
894.310000000000
31
0.0
0
LINE
5
6ca
100
AcDbEntity
8
0-00
6
CONTINUOUS
62
4
100
AcDbLine
10
438.830000000000
20
894.910000000000
30
0.0
11
436.040000000000
21
883.760000000000
31
0.0
0
LINE
5
6cb
100
AcDbEntity
8
0-00
6
CONTINUOUS
62
4
100
AcDbLine
10
444.990000000000
20
893.790000000000
30
0.0
11
435.290000000000
21
896.210000000000
31
0.0
0
LINE
5
6cc
100
AcDbEntity
8
0-00
6
CONTINUOUS
62
4
100
AcDbLine
10
443.170000000000
20
894.760000000000
30
0.0
11
437.350000000000
21
896.210000000000
31
0.0
0
LINE
5
6cd
100
AcDbEntity
8
0-00
6
CONTINUOUS
62
4
100
AcDbLine
10
435.290000000000
20
896.210000000000
30
0.0
11
435.190000000000
21
895.820000000000
31
0.0
0
LINE
5
6ce
100
AcDbEntity
8
0-00
6
CONTINUOUS
62
4
100
AcDbLine
10
437.350000000000
20
896.210000000000
30
0.0
11
435.780000000000
21
896.090000000000
31
0.0
0
LINE
5
6cf
100
AcDbEntity
8
0-00
6
CONTINUOUS
62
4
100
AcDbLine
10
437.760000000000
20
891.660000000000
30
0.0
11
440.790000000000
21
891.410000000000
31
0.0
0
LINE
5
6d0
100
AcDbEntity
8
0-00
6
CONTINUOUS
62
4
100
AcDbLine
10
437.520000000000
20
890.690000000000
30
0.0
11
440.550000000000
21
890.450000000000
31
0.0
0
LINE
5
6d1
100
AcDbEntity
8
0-00
6
CONTINUOUS
62
4
100
AcDbLine
10
437.270000000000
20
889.720000000000
30
0.0
11
440.310000000000
21
889.470000000000
31
0.0
0
LINE
5
6d2
100
AcDbEntity
8
0-00
6
CONTINUOUS
62
4
100
AcDbLine
10
438.000000000000
20
892.630000000000
30
0.0
11
441.030000000000
21
892.390000000000
31
0.0
0
LINE
5
6d3
100
AcDbEntity
8
0-00
6
CONTINUOUS
62
4
100
AcDbLine
10
444.990000000000
20
893.790000000000
30
0.0
11
444.900000000000
21
893.400000000000
31
0.0
0
LINE
5
6d4
100
AcDbEntity
8
0-00
6
CONTINUOUS
62
4
100
AcDbLine
10
443.170000000000
20
894.760000000000
30
0.0
11
444.510000000000
21
893.910000000000
31
0.0
0
LINE
5
6d5
100
AcDbEntity
8
0-00
6
CONTINUOUS
62
4
100
AcDbLine
10
436.790000000000
20
887.780000000000
30
0.0
11
439.820000000000
21
887.530000000000
31
0.0
0
LINE
5
6d6
100
AcDbEntity
8
0-00
6
CONTINUOUS
62
4
100
AcDbLine
10
437.030000000000
20
888.750000000000
30
0.0
11
440.060000000000
21
888.500000000000
31
0.0
0
LINE
5
6d7
100
AcDbEntity
8
0-00
6
CONTINUOUS
62
4
100
AcDbLine
10
436.550000000000
20
886.810000000000
30
0.0
11
439.580000000000
21
886.560000000000
31
0.0
0
LINE
5
6d8
100
AcDbEntity
8
0-00
6
CONTINUOUS
62
4
100
AcDbLine
10
436.300000000000
20
885.840000000000
30
0.0
11
439.340000000000
21
885.590000000000
31
0.0
0
LINE
5
6d9
100
AcDbEntity
8
0-00
6
CONTINUOUS
62
4
100
AcDbLine
10
437.010000000000
20
882.480000000000
30
0.0
11
438.470000000000
21
883.150000000000
31
0.0
0
LINE
5
6da
100
AcDbEntity
8
0-00
6
CONTINUOUS
62
4
100
AcDbLine
10
436.040000000000
20
883.760000000000
30
0.0
11
437.010000000000
21
882.480000000000
31
0.0
0
POLYLINE
5
6db
100
AcDbEntity
8
0-00
6
CONTINUOUS
62
  4
100
AcDb2dPolyline
66
1
10
0.0
20
0.0
30
0.0
70
0
0
VERTEX
5
6dc
100
AcDbEntity
8
0-00
6
CONTINUOUS
62
  4
100
AcDbVertex
100
AcDb2dVertex
10
437.620000000000
20
882.850000000000
30
0.0
0
VERTEX
5
6dd
100
AcDbEntity
8
0-00
6
CONTINUOUS
62
  4
100
AcDbVertex
100
AcDb2dVertex
10
437.260000000000
20
883.450000000000
30
0.0
0
VERTEX
5
6de
100
AcDbEntity
8
0-00
6
CONTINUOUS
62
  4
100
AcDbVertex
100
AcDb2dVertex
10
437.750000000000
20
884.040000000000
30
0.0
0
VERTEX
5
6df
100
AcDbEntity
8
0-00
6
CONTINUOUS
62
  4
100
AcDbVertex
100
AcDb2dVertex
10
437.110000000000
20
884.640000000000
30
0.0
0
VERTEX
5
6e0
100
AcDbEntity
8
0-00
6
CONTINUOUS
62
  4
100
AcDbVertex
100
AcDb2dVertex
10
436.040000000000
20
883.760000000000
30
0.0
0
SEQEND
5
6e1
100
AcDbEntity
8
0-00
0
LINE
5
6e2
100
AcDbEntity
8
0-00
6
CONTINUOUS
62
4
100
AcDbLine
10
444.900000000000
20
893.400000000000
30
0.0
11
435.190000000000
21
895.820000000000
31
0.0
0
LINE
5
6e3
100
AcDbEntity
8
0-00
6
CONTINUOUS
62
7
100
AcDbLine
10
468.360000000000
20
888.770000000000
30
0.0
11
425.280000000000
21
899.540000000000
31
0.0
0
LINE
5
6e4
100
AcDbEntity
8
0-00
6
DASHED
62
7
100
AcDbLine
10
467.920000000000
20
888.260000000000
30
0.0
11
445.810000000000
21
893.790000000000
31
0.0
0
LINE
5
6e5
100
AcDbEntity
8
0-00
6
DASHED
62
7
100
AcDbLine
10
444.610000000000
20
894.550000000000
30
0.0
11
445.810000000000
21
893.790000000000
31
0.0
0
LINE
5
6e6
100
AcDbEntity
8
0-00
6
DASHED
62
7
100
AcDbLine
10
444.610000000000
20
894.550000000000
30
0.0
11
440.300000000000
21
895.630000000000
31
0.0
0
LINE
5
6e7
100
AcDbEntity
8
0-00
6
DASHED
62
7
100
AcDbLine
10
435.990000000000
20
896.710000000000
30
0.0
11
440.300000000000
21
895.630000000000
31
0.0
0
POLYLINE
5
6e8
100
AcDbEntity
8
0-00
6
DASHED
62
  7
100
AcDb2dPolyline
66
1
10
0.0
20
0.0
30
0.0
70
0
0
VERTEX
5
6e9
100
AcDbEntity
8
0-00
6
DASHED
62
  7
100
AcDbVertex
100
AcDb2dVertex
10
435.990000000000
20
896.710000000000
30
0.0
0
VERTEX
5
6ea
100
AcDbEntity
8
0-00
6
DASHED
62
  7
100
AcDbVertex
100
AcDb2dVertex
10
434.570000000000
20
896.600000000000
30
0.0
0
VERTEX
5
6eb
100
AcDbEntity
8
0-00
6
DASHED
62
  7
100
AcDbVertex
100
AcDb2dVertex
10
432.430000000000
20
897.130000000000
30
0.0
0
SEQEND
5
6ec
100
AcDbEntity
8
0-00
0
LINE
5
6ed
100
AcDbEntity
8
0-00
6
CONTINUOUS
62
3
100
AcDbLine
10
383.350000000000
20
879.040000000000
30
0.0
11
382.780000000000
21
872.840000000000
31
0.0
0
LINE
5
6ee
100
AcDbEntity
8
0-00
6
CONTINUOUS
62
3
100
AcDbLine
10
382.660000000000
20
879.100000000000
30
0.0
11
382.080000000000
21
872.900000000000
31
0.0
0
LINE
5
6ef
100
AcDbEntity
8
0-00
6
CONTINUOUS
62
3
100
AcDbLine
10
381.410000000000
20
881.330000000000
30
0.0
11
377.810000000000
21
881.580000000000
31
0.0
0
LINE
5
6f0
100
AcDbEntity
8
0-00
6
CONTINUOUS
62
3
100
AcDbLine
10
377.760000000000
20
880.880000000000
30
0.0
11
377.810000000000
21
881.580000000000
31
0.0
0
LINE
5
6f1
100
AcDbEntity
8
0-00
6
CONTINUOUS
62
3
100
AcDbLine
10
381.360000000000
20
880.630000000000
30
0.0
11
377.760000000000
21
880.880000000000
31
0.0
0
LINE
5
6f2
100
AcDbEntity
8
0-00
6
CONTINUOUS
62
3
100
AcDbLine
10
413.540000000000
20
877.310000000000
30
0.0
11
404.180000000000
21
866.960000000000
31
0.0
0
LINE
5
6f3
100
AcDbEntity
8
0-00
6
CONTINUOUS
62
3
100
AcDbLine
10
414.030000000000
20
876.810000000000
30
0.0
11
404.680000000000
21
866.470000000000
31
0.0
0
LINE
5
6f4
100
AcDbEntity
8
0-00
6
CONTINUOUS
62
3
100
AcDbLine
10
418.670000000000
20
874.500000000000
30
0.0
11
416.700000000000
21
877.100000000000
31
0.0
0
LINE
5
6f5
100
AcDbEntity
8
0-00
6
CONTINUOUS
62
3
100
AcDbLine
10
416.140000000000
20
876.670000000000
30
0.0
11
418.120000000000
21
874.080000000000
31
0.0
0
LINE
5
6f6
100
AcDbEntity
8
0-00
6
CONTINUOUS
62
3
100
AcDbLine
10
431.900000000000
20
870.160000000000
30
0.0
11
419.280000000000
21
873.310000000000
31
0.0
0
LINE
5
6f7
100
AcDbEntity
8
0-00
6
CONTINUOUS
62
3
100
AcDbLine
10
431.700000000000
20
867.950000000000
30
0.0
11
419.010000000000
21
868.880000000000
31
0.0
0
LINE
5
6f8
100
AcDbEntity
8
0-00
6
CONTINUOUS
62
3
100
AcDbLine
10
431.650000000000
20
867.260000000000
30
0.0
11
418.960000000000
21
868.180000000000
31
0.0
0
LINE
5
6f9
100
AcDbEntity
8
0-00
6
CONTINUOUS
62
3
100
AcDbLine
10
432.070000000000
20
870.840000000000
30
0.0
11
419.450000000000
21
873.990000000000
31
0.0
0
LINE
5
6fa
100
AcDbEntity
8
0-00
6
CONTINUOUS
62
3
100
AcDbLine
10
383.830000000000
20
871.350000000000
30
0.0
11
391.990000000000
21
869.310000000000
31
0.0
0
LINE
5
6fb
100
AcDbEntity
8
0-00
6
CONTINUOUS
62
3
100
AcDbLine
10
393.150000000000
20
868.190000000000
30
0.0
11
391.990000000000
21
869.310000000000
31
0.0
0
LINE
5
6fc
100
AcDbEntity
8
0-00
6
CONTINUOUS
62
3
100
AcDbLine
10
392.950000000000
20
867.400000000000
30
0.0
11
391.630000000000
21
868.680000000000
31
0.0
0
LINE
5
6fd
100
AcDbEntity
8
0-00
6
CONTINUOUS
62
3
100
AcDbLine
10
383.660000000000
20
870.670000000000
30
0.0
11
391.630000000000
21
868.680000000000
31
0.0
0
LINE
5
6fe
100
AcDbEntity
8
0-00
6
CONTINUOUS
62
3
100
AcDbLine
10
402.850000000000
20
866.600000000000
30
0.0
11
394.700000000000
21
868.630000000000
31
0.0
0
LINE
5
6ff
100
AcDbEntity
8
0-00
6
CONTINUOUS
62
3
100
AcDbLine
10
393.150000000000
20
868.190000000000
30
0.0
11
394.700000000000
21
868.630000000000
31
0.0
0
LINE
5
700
100
AcDbEntity
8
0-00
6
CONTINUOUS
62
3
100
AcDbLine
10
402.680000000000
20
865.920000000000
30
0.0
11
394.710000000000
21
867.910000000000
31
0.0
0
LINE
5
701
100
AcDbEntity
8
0-00
6
CONTINUOUS
62
3
100
AcDbLine
10
392.950000000000
20
867.400000000000
30
0.0
11
394.710000000000
21
867.910000000000
31
0.0
0
LINE
5
702
100
AcDbEntity
8
0-00
6
CONTINUOUS
62
7
100
AcDbLine
10
418.540000000000
20
867.210000000000
30
0.0
11
432.510000000000
21
863.720000000000
31
0.0
0
LINE
5
703
100
AcDbEntity
8
0-00
6
CONTINUOUS
62
7
100
AcDbLine
10
418.390000000000
20
866.630000000000
30
0.0
11
432.950000000000
21
862.990000000000
31
0.0
0
POLYLINE
5
704
100
AcDbEntity
8
0-00
6
CONTINUOUS
62
  7
100
AcDb2dPolyline
66
1
10
0.0
20
0.0
30
0.0
70
0
0
VERTEX
5
705
100
AcDbEntity
8
0-00
6
CONTINUOUS
62
  7
100
AcDbVertex
100
AcDb2dVertex
10
329.520000000000
20
883.800000000000
30
0.0
0
VERTEX
5
706
100
AcDbEntity
8
0-00
6
CONTINUOUS
62
  7
100
AcDbVertex
100
AcDb2dVertex
10
333.160000000000
20
898.350000000000
30
0.0
0
VERTEX
5
707
100
AcDbEntity
8
0-00
6
CONTINUOUS
62
  7
100
AcDbVertex
100
AcDb2dVertex
10
376.810000000000
20
887.430000000000
30
0.0
0
SEQEND
5
708
100
AcDbEntity
8
0-00
0
LINE
5
709
100
AcDbEntity
8
0-00
6
CONTINUOUS
62
7
100
AcDbLine
10
373.170000000000
20
872.880000000000
30
0.0
11
376.810000000000
21
887.430000000000
31
0.0
0
LINE
5
70a
100
AcDbEntity
8
0-00
6
CONTINUOUS
62
7
100
AcDbLine
10
329.520000000000
20
883.800000000000
30
0.0
11
373.170000000000
21
872.880000000000
31
0.0
0
LINE
5
70b
100
AcDbEntity
8
0-00
6
CONTINUOUS
62
7
100
AcDbLine
10
376.810000000000
20
887.430000000000
30
0.0
11
329.520000000000
21
883.800000000000
31
0.0
0
LINE
5
70c
100
AcDbEntity
8
0-00
6
CONTINUOUS
62
7
100
AcDbLine
10
330.790000000000
20
920.690000000000
30
0.0
11
452.060000000000
21
890.370000000000
31
0.0
0
LINE
5
70d
100
AcDbEntity
8
0-00
6
CONTINUOUS
62
7
100
AcDbLine
10
325.940000000000
20
901.290000000000
30
0.0
11
330.790000000000
21
920.690000000000
31
0.0
0
LINE
5
70e
100
AcDbEntity
8
0-00
6
CONTINUOUS
62
7
100
AcDbLine
10
325.940000000000
20
901.290000000000
30
0.0
11
447.210000000000
21
870.970000000000
31
0.0
0
LINE
5
70f
100
AcDbEntity
8
0-00
6
CONTINUOUS
62
4
100
AcDbLine
10
515.650000000000
20
810.460000000000
30
0.0
11
497.460000000000
21
840.780000000000
31
0.0
0
LINE
5
710
100
AcDbEntity
8
0-00
6
CONTINUOUS
62
4
100
AcDbLine
10
537.250000000000
20
830.830000000000
30
0.0
11
506.930000000000
21
812.640000000000
31
0.0
0
LINE
5
711
100
AcDbEntity
8
0-00
6
CONTINUOUS
62
4
100
AcDbLine
10
543.090000000000
20
803.600000000000
30
0.0
11
524.900000000000
21
833.920000000000
31
0.0
0
LINE
5
712
100
AcDbEntity
8
0-00
6
CONTINUOUS
62
7
100
AcDbLine
10
347.830000000000
20
894.790000000000
30
0.0
11
434.840000000000
21
873.040000000000
31
0.0
0
LINE
5
713
100
AcDbEntity
8
0-00
6
CONTINUOUS
62
7
100
AcDbLine
10
432.510000000000
20
863.720000000000
30
0.0
11
434.840000000000
21
873.040000000000
31
0.0
0
LINE
5
714
100
AcDbEntity
8
0-00
6
CONTINUOUS
62
7
100
AcDbLine
10
347.980000000000
20
895.380000000000
30
0.0
11
435.570000000000
21
873.480000000000
31
0.0
0
LINE
5
715
100
AcDbEntity
8
0-00
6
CONTINUOUS
62
7
100
AcDbLine
10
432.950000000000
20
862.990000000000
30
0.0
11
435.570000000000
21
873.480000000000
31
0.0
0
LINE
5
716
100
AcDbEntity
8
0-00
6
CONTINUOUS
62
7
100
AcDbLine
10
445.630000000000
20
857.140000000000
30
0.0
11
475.000000000000
21
851.030000000000
31
0.0
0
LINE
5
717
100
AcDbEntity
8
0-00
6
CONTINUOUS
62
7
100
AcDbLine
10
445.170000000000
20
857.870000000000
30
0.0
11
452.930000000000
21
888.920000000000
31
0.0
0
LINE
5
718
100
AcDbEntity
8
0-00
6
CONTINUOUS
62
7
100
AcDbLine
10
444.590000000000
20
858.020000000000
30
0.0
11
452.350000000000
21
889.060000000000
31
0.0
0
LINE
5
719
100
AcDbEntity
8
0-00
6
CONTINUOUS
62
4
100
AcDbLine
10
388.600000000000
20
870.790000000000
30
0.0
11
398.300000000000
21
868.360000000000
31
0.0
0
LINE
5
71a
100
AcDbEntity
8
0-00
6
CONTINUOUS
62
4
100
AcDbLine
10
390.660000000000
20
870.790000000000
30
0.0
11
396.480000000000
21
869.330000000000
31
0.0
0
LINE
5
71b
100
AcDbEntity
8
0-00
6
CONTINUOUS
62
4
100
AcDbLine
10
398.300000000000
20
868.360000000000
30
0.0
11
398.200000000000
21
867.970000000000
31
0.0
0
LINE
5
71c
100
AcDbEntity
8
0-00
6
CONTINUOUS
62
4
100
AcDbLine
10
396.480000000000
20
869.330000000000
30
0.0
11
397.810000000000
21
868.480000000000
31
0.0
0
LINE
5
71d
100
AcDbEntity
8
0-00
6
CONTINUOUS
62
4
100
AcDbLine
10
388.600000000000
20
870.790000000000
30
0.0
11
388.500000000000
21
870.400000000000
31
0.0
0
LINE
5
71e
100
AcDbEntity
8
0-00
6
CONTINUOUS
62
4
100
AcDbLine
10
390.660000000000
20
870.790000000000
30
0.0
11
389.080000000000
21
870.660000000000
31
0.0
0
LINE
5
71f
100
AcDbEntity
8
0-00
6
CONTINUOUS
62
4
100
AcDbLine
10
388.500000000000
20
870.400000000000
30
0.0
11
398.200000000000
21
867.970000000000
31
0.0
0
LINE
5
720
100
AcDbEntity
8
0-00
6
CONTINUOUS
62
4
100
AcDbLine
10
389.800000000000
20
849.040000000000
30
0.0
11
387.000000000000
21
850.260000000000
31
0.0
0
LINE
5
721
100
AcDbEntity
8
0-00
6
CONTINUOUS
62
4
100
AcDbLine
10
388.860000000000
20
847.300000000000
30
0.0
11
387.010000000000
21
848.100000000000
31
0.0
0
LINE
5
722
100
AcDbEntity
8
0-00
6
CONTINUOUS
62
4
100
AcDbLine
10
387.910000000000
20
845.560000000000
30
0.0
11
387.030000000000
21
845.940000000000
31
0.0
0
LINE
5
723
100
AcDbEntity
8
0-00
6
CONTINUOUS
62
4
100
AcDbLine
10
387.290000000000
20
844.930000000000
30
0.0
11
390.650000000000
21
851.110000000000
31
0.0
0
LINE
5
724
100
AcDbEntity
8
0-00
6
CONTINUOUS
62
4
100
AcDbLine
10
387.290000000000
20
844.930000000000
30
0.0
11
387.230000000000
21
851.960000000000
31
0.0
0
LINE
5
725
100
AcDbEntity
8
0-00
6
CONTINUOUS
62
4
100
AcDbLine
10
391.040000000000
20
850.650000000000
30
0.0
11
386.850000000000
21
852.470000000000
31
0.0
0
LINE
5
726
100
AcDbEntity
8
0-00
6
CONTINUOUS
62
4
100
AcDbLine
10
391.520000000000
20
852.590000000000
30
0.0
11
387.340000000000
21
854.410000000000
31
0.0
0
LINE
5
727
100
AcDbEntity
8
0-00
6
CONTINUOUS
62
4
100
AcDbLine
10
392.010000000000
20
854.530000000000
30
0.0
11
387.820000000000
21
856.350000000000
31
0.0
0
LINE
5
728
100
AcDbEntity
8
0-00
6
CONTINUOUS
62
4
100
AcDbLine
10
392.490000000000
20
856.470000000000
30
0.0
11
388.310000000000
21
858.290000000000
31
0.0
0
LINE
5
729
100
AcDbEntity
8
0-00
6
CONTINUOUS
62
4
100
AcDbLine
10
392.980000000000
20
858.410000000000
30
0.0
11
388.790000000000
21
860.230000000000
31
0.0
0
LINE
5
72a
100
AcDbEntity
8
0-00
6
CONTINUOUS
62
4
100
AcDbLine
10
393.460000000000
20
860.350000000000
30
0.0
11
389.280000000000
21
862.170000000000
31
0.0
0
LINE
5
72b
100
AcDbEntity
8
0-00
6
CONTINUOUS
62
4
100
AcDbLine
10
390.620000000000
20
851.050000000000
30
0.0
11
395.050000000000
21
868.760000000000
31
0.0
0
LINE
5
72c
100
AcDbEntity
8
0-00
6
CONTINUOUS
62
4
100
AcDbLine
10
387.230000000000
20
851.900000000000
30
0.0
11
391.650000000000
21
869.610000000000
31
0.0
0
LINE
5
72d
100
AcDbEntity
8
0-00
6
CONTINUOUS
62
4
100
AcDbLine
10
393.950000000000
20
862.290000000000
30
0.0
11
389.760000000000
21
864.110000000000
31
0.0
0
LINE
5
72e
100
AcDbEntity
8
0-00
6
CONTINUOUS
62
4
100
AcDbLine
10
394.430000000000
20
864.230000000000
30
0.0
11
390.250000000000
21
866.050000000000
31
0.0
0
LINE
5
72f
100
AcDbEntity
8
0-00
6
CONTINUOUS
62
4
100
AcDbLine
10
394.920000000000
20
866.170000000000
30
0.0
11
390.730000000000
21
867.990000000000
31
0.0
0
LINE
5
730
100
AcDbEntity
8
0-00
6
CONTINUOUS
62
7
100
AcDbLine
10
452.060000000000
20
890.370000000000
30
0.0
11
325.940000000000
21
901.290000000000
31
0.0
0
LINE
5
731
100
AcDbEntity
8
0-00
6
CONTINUOUS
62
3
100
AcDbLine
10
418.560000000000
20
862.670000000000
30
0.0
11
555.390000000000
21
828.460000000000
31
0.0
0
LINE
5
732
100
AcDbEntity
8
0-00
6
CONTINUOUS
62
3
100
AcDbLine
10
418.390000000000
20
861.990000000000
30
0.0
11
555.390000000000
21
827.740000000000
31
0.0
0
LINE
5
733
100
AcDbEntity
8
0-00
6
CONTINUOUS
62
3
100
AcDbLine
10
323.640000000000
20
884.240000000000
30
0.0
11
555.390000000000
21
826.300000000000
31
0.0
0
LINE
5
734
100
AcDbEntity
8
0-00
6
CONTINUOUS
62
4
100
AcDbLine
10
555.390000000000
20
821.980000000000
30
0.0
11
552.340000000000
21
827.060000000000
31
0.0
0
LINE
5
735
100
AcDbEntity
8
0-00
6
CONTINUOUS
62
4
100
AcDbLine
10
555.390000000000
20
818.390000000000
30
0.0
11
534.370000000000
21
805.780000000000
31
0.0
0
LINE
5
736
100
AcDbEntity
8
0-00
6
CONTINUOUS
62
3
100
AcDbLine
10
317.570000000000
20
859.980000000000
30
0.0
11
555.390000000000
21
800.530000000000
31
0.0
0
LINE
5
737
100
AcDbEntity
8
0-00
6
DASHED
62
7
100
AcDbLine
10
317.570000000000
20
886.270000000000
30
0.0
11
79.760000000000
21
826.810000000000
31
0.0
0
LINE
5
738
100
AcDbEntity
8
0-00
6
DASHED
62
7
100
AcDbLine
10
317.570000000000
20
886.270000000000
30
0.0
11
555.390000000000
21
826.810000000000
31
0.0
0
LINE
5
739
100
AcDbEntity
8
0-00
6
DASHED
62
7
100
AcDbLine
10
246.440000000000
20
907.240000000000
30
0.0
11
317.570000000000
21
924.620000000000
31
0.0
0
LINE
5
73a
100
AcDbEntity
8
0-00
6
DASHED
62
7
100
AcDbLine
10
388.710000000000
20
907.240000000000
30
0.0
11
317.570000000000
21
924.620000000000
31
0.0
0
LINE
5
73b
100
AcDbEntity
8
0-00
6
CONTINUOUS
62
7
100
AcDbLine
10
425.280000000000
20
899.540000000000
30
0.0
11
317.570000000000
21
925.250000000000
31
0.0
0
LINE
5
73c
100
AcDbEntity
8
0-00
6
CONTINUOUS
62
7
100
AcDbLine
10
209.860000000000
20
899.540000000000
30
0.0
11
317.570000000000
21
925.250000000000
31
0.0
0
LINE
5
73d
100
AcDbEntity
8
0-00
6
CONTINUOUS
62
7
100
AcDbLine
10
317.570000000000
20
925.860000000000
30
0.0
11
209.720000000000
21
900.120000000000
31
0.0
0
LINE
5
73e
100
AcDbEntity
8
0-00
6
CONTINUOUS
62
7
100
AcDbLine
10
317.570000000000
20
925.860000000000
30
0.0
11
425.420000000000
21
900.120000000000
31
0.0
0
LINE
5
73f
100
AcDbEntity
8
0-1_2_0
6
CONTINUOUS
62
7
100
AcDbLine
10
767.170000000000
20
746.260000000000
30
0.0
11
768.250000000000
21
742.260000000000
31
0.0
0
LINE
5
740
100
AcDbEntity
8
0-1_2_0
6
CONTINUOUS
62
7
100
AcDbLine
10
767.170000000000
20
746.260000000000
30
0.0
11
770.100000000000
21
743.330000000000
31
0.0
0
LINE
5
741
100
AcDbEntity
8
0-1_2_0
6
CONTINUOUS
62
7
100
AcDbLine
10
767.170000000000
20
746.260000000000
30
0.0
11
778.720000000000
21
726.260000000000
31
0.0
0
POLYLINE
5
742
100
AcDbEntity
8
0-1_2_0
6
CONTINUOUS
62
  3
100
AcDb2dPolyline
66
1
10
0.0
20
0.0
30
0.0
70
0
0
VERTEX
5
743
100
AcDbEntity
8
0-1_2_0
6
CONTINUOUS
62
  3
100
AcDbVertex
100
AcDb2dVertex
10
878.410000000000
20
666.450000000000
30
0.0
0
VERTEX
5
744
100
AcDbEntity
8
0-1_2_0
6
CONTINUOUS
62
  3
100
AcDbVertex
100
AcDb2dVertex
10
834.370000000000
20
655.440000000000
30
0.0
0
VERTEX
5
745
100
AcDbEntity
8
0-1_2_0
6
CONTINUOUS
62
  3
100
AcDbVertex
100
AcDb2dVertex
10
811.230000000000
20
747.990000000000
30
0.0
0
SEQEND
5
746
100
AcDbEntity
8
0-1_2_0
0
LINE
5
747
100
AcDbEntity
8
0-1_2_0
6
CONTINUOUS
62
3
100
AcDbLine
10
854.720000000000
20
761.230000000000
30
0.0
11
810.670000000000
21
750.220000000000
31
0.0
0
LINE
5
748
100
AcDbEntity
8
0-1_2_0
6
CONTINUOUS
62
3
100
AcDbLine
10
811.230000000000
20
747.990000000000
30
0.0
11
855.280000000000
21
759.000000000000
31
0.0
0
LINE
5
749
100
AcDbEntity
8
0-1_2_0
6
CONTINUOUS
62
3
100
AcDbLine
10
861.800000000000
20
742.390000000000
30
0.0
11
857.510000000000
21
759.560000000000
31
0.0
0
POLYLINE
5
74a
100
AcDbEntity
8
0-1_2_0
6
CONTINUOUS
62
  3
100
AcDb2dPolyline
66
1
10
0.0
20
0.0
30
0.0
70
0
0
VERTEX
5
74b
100
AcDbEntity
8
0-1_2_0
6
CONTINUOUS
62
  3
100
AcDbVertex
100
AcDb2dVertex
10
855.280000000000
20
759.000000000000
30
0.0
0
VERTEX
5
74c
100
AcDbEntity
8
0-1_2_0
6
CONTINUOUS
62
  3
100
AcDbVertex
100
AcDb2dVertex
10
859.570000000000
20
741.830000000000
30
0.0
0
VERTEX
5
74d
100
AcDbEntity
8
0-1_2_0
6
CONTINUOUS
62
  3
100
AcDbVertex
100
AcDb2dVertex
10
861.800000000000
20
742.390000000000
30
0.0
0
SEQEND
5
74e
100
AcDbEntity
8
0-1_2_0
0
LINE
5
74f
100
AcDbEntity
8
0-1_2_0
6
CONTINUOUS
62
3
100
AcDbLine
10
874.120000000000
20
683.620000000000
30
0.0
11
878.410000000000
21
666.450000000000
31
0.0
0
POLYLINE
5
750
100
AcDbEntity
8
0-1_2_0
6
CONTINUOUS
62
  3
100
AcDb2dPolyline
66
1
10
0.0
20
0.0
30
0.0
70
0
0
VERTEX
5
751
100
AcDbEntity
8
0-1_2_0
6
CONTINUOUS
62
  3
100
AcDbVertex
100
AcDb2dVertex
10
880.650000000000
20
667.010000000000
30
0.0
0
VERTEX
5
752
100
AcDbEntity
8
0-1_2_0
6
CONTINUOUS
62
  3
100
AcDbVertex
100
AcDb2dVertex
10
876.350000000000
20
684.180000000000
30
0.0
0
VERTEX
5
753
100
AcDbEntity
8
0-1_2_0
6
CONTINUOUS
62
  3
100
AcDbVertex
100
AcDb2dVertex
10
874.120000000000
20
683.620000000000
30
0.0
0
SEQEND
5
754
100
AcDbEntity
8
0-1_2_0
0
LINE
5
755
100
AcDbEntity
8
0-1_2_0
6
CONTINUOUS
62
3
100
AcDbLine
10
834.930000000000
20
653.210000000000
30
0.0
11
878.970000000000
21
664.220000000000
31
0.0
0
LINE
5
756
100
AcDbEntity
8
0-1_2_0
6
CONTINUOUS
62
4
100
AcDbLine
10
896.270000000000
20
771.620000000000
30
0.0
11
914.460000000000
21
801.940000000000
31
0.0
0
LINE
5
757
100
AcDbEntity
8
0-1_2_0
6
CONTINUOUS
62
4
100
AcDbLine
10
868.830000000000
20
764.760000000000
30
0.0
11
887.020000000000
21
795.080000000000
31
0.0
0
LINE
5
758
100
AcDbEntity
8
0-1_2_0
6
CONTINUOUS
62
4
100
AcDbLine
10
841.390000000000
20
757.900000000000
30
0.0
11
859.580000000000
21
788.220000000000
31
0.0
0
LINE
5
759
100
AcDbEntity
8
0-1_2_0
6
CONTINUOUS
62
4
100
AcDbLine
10
813.950000000000
20
751.040000000000
30
0.0
11
832.140000000000
21
781.360000000000
31
0.0
0
LINE
5
75a
100
AcDbEntity
8
0-1_2_0
6
CONTINUOUS
62
4
100
AcDbLine
10
786.510000000000
20
744.180000000000
30
0.0
11
804.700000000000
21
774.500000000000
31
0.0
0
LINE
5
75b
100
AcDbEntity
8
0-1_2_0
6
CONTINUOUS
62
4
100
AcDbLine
10
759.070000000000
20
737.320000000000
30
0.0
11
777.260000000000
21
767.640000000000
31
0.0
0
LINE
5
75c
100
AcDbEntity
8
0-1_2_0
6
CONTINUOUS
62
4
100
AcDbLine
10
737.470000000000
20
757.690000000000
30
0.0
11
767.790000000000
21
739.500000000000
31
0.0
0
LINE
5
75d
100
AcDbEntity
8
0-1_2_0
6
CONTINUOUS
62
4
100
AcDbLine
10
764.910000000000
20
764.550000000000
30
0.0
11
795.230000000000
21
746.360000000000
31
0.0
0
LINE
5
75e
100
AcDbEntity
8
0-1_2_0
6
CONTINUOUS
62
4
100
AcDbLine
10
792.350000000000
20
771.410000000000
30
0.0
11
822.670000000000
21
753.220000000000
31
0.0
0
LINE
5
75f
100
AcDbEntity
8
0-1_2_0
6
CONTINUOUS
62
4
100
AcDbLine
10
819.790000000000
20
778.270000000000
30
0.0
11
850.110000000000
21
760.080000000000
31
0.0
0
LINE
5
760
100
AcDbEntity
8
0-1_2_0
6
CONTINUOUS
62
4
100
AcDbLine
10
847.230000000000
20
785.130000000000
30
0.0
11
877.550000000000
21
766.940000000000
31
0.0
0
LINE
5
761
100
AcDbEntity
8
0-1_2_0
6
CONTINUOUS
62
4
100
AcDbLine
10
874.670000000000
20
791.990000000000
30
0.0
11
904.990000000000
21
773.800000000000
31
0.0
0
LINE
5
762
100
AcDbEntity
8
0-1_2_0
6
CONTINUOUS
62
3
100
AcDbLine
10
809.000000000000
20
747.430000000000
30
0.0
11
832.140000000000
21
654.880000000000
31
0.0
0
LINE
5
763
100
AcDbEntity
8
0-1_2_0
6
CONTINUOUS
62
7
100
AcDbLine
10
817.150000000000
20
818.330000000000
30
0.0
11
817.300000000000
21
817.740000000000
31
0.0
0
LINE
5
764
100
AcDbEntity
8
0-1_2_0
6
CONTINUOUS
62
7
100
AcDbLine
10
822.150000000000
20
818.960000000000
30
0.0
11
817.300000000000
21
817.740000000000
31
0.0
0
LINE
5
765
100
AcDbEntity
8
0-1_2_0
6
CONTINUOUS
62
7
100
AcDbLine
10
822.000000000000
20
819.540000000000
30
0.0
11
817.150000000000
21
818.330000000000
31
0.0
0
LINE
5
766
100
AcDbEntity
8
0-1_2_0
6
CONTINUOUS
62
4
100
AcDbLine
10
923.710000000000
20
778.480000000000
30
0.0
11
928.210000000000
21
785.980000000000
31
0.0
0
LINE
5
767
100
AcDbEntity
8
0-1_2_0
6
CONTINUOUS
62
4
100
AcDbLine
10
902.110000000000
20
798.850000000000
30
0.0
11
929.030000000000
21
782.700000000000
31
0.0
0
LINE
5
768
100
AcDbEntity
8
0-1_2_0
6
CONTINUOUS
62
3
100
AcDbLine
10
929.710000000000
20
779.980000000000
30
0.0
11
923.650000000000
21
804.240000000000
31
0.0
0
LINE
5
769
100
AcDbEntity
8
0-1_2_0
6
CONTINUOUS
62
4
100
AcDbLine
10
758.660000000000
20
879.770000000000
30
0.0
11
748.690000000000
21
919.650000000000
31
0.0
0
LINE
5
76a
100
AcDbEntity
8
0-1_2_0
6
CONTINUOUS
62
7
100
AcDbLine
10
828.890000000000
20
786.630000000000
30
0.0
11
828.740000000000
21
787.210000000000
31
0.0
0
LINE
5
76b
100
AcDbEntity
8
0-1_2_0
6
CONTINUOUS
62
7
100
AcDbLine
10
899.450000000000
20
814.790000000000
30
0.0
11
899.310000000000
21
815.380000000000
31
0.0
0
LINE
5
76c
100
AcDbEntity
8
0-1_2_0
6
CONTINUOUS
62
7
100
AcDbLine
10
800.080000000000
20
790.970000000000
30
0.0
11
795.220000000000
21
810.370000000000
31
0.0
0
LINE
5
76d
100
AcDbEntity
8
0-1_2_0
6
CONTINUOUS
62
7
100
AcDbLine
10
782.270000000000
20
772.290000000000
30
0.0
11
772.570000000000
21
769.870000000000
31
0.0
0
POLYLINE
5
76e
100
AcDbEntity
8
0-1_2_0
6
CONTINUOUS
62
  7
100
AcDb2dPolyline
66
1
10
0.0
20
0.0
30
0.0
70
0
0
VERTEX
5
76f
100
AcDbEntity
8
0-1_2_0
6
CONTINUOUS
62
  7
100
AcDbVertex
100
AcDb2dVertex
10
782.270000000000
20
772.290000000000
30
0.0
0
VERTEX
5
770
100
AcDbEntity
8
0-1_2_0
6
CONTINUOUS
62
  7
100
AcDbVertex
100
AcDb2dVertex
10
782.420000000000
20
771.710000000000
30
0.0
0
VERTEX
5
771
100
AcDbEntity
8
0-1_2_0
6
CONTINUOUS
62
  7
100
AcDbVertex
100
AcDb2dVertex
10
772.720000000000
20
769.290000000000
30
0.0
0
SEQEND
5
772
100
AcDbEntity
8
0-1_2_0
0
LINE
5
773
100
AcDbEntity
8
0-1_2_0
6
CONTINUOUS
62
7
100
AcDbLine
10
801.770000000000
20
776.550000000000
30
0.0
11
772.400000000000
21
770.450000000000
31
0.0
0
LINE
5
774
100
AcDbEntity
8
0-1_2_0
6
CONTINUOUS
62
7
100
AcDbLine
10
779.220000000000
20
807.610000000000
30
0.0
11
822.290000000000
21
818.380000000000
31
0.0
0
LINE
5
775
100
AcDbEntity
8
0-1_2_0
6
CONTINUOUS
62
7
100
AcDbLine
10
779.360000000000
20
807.020000000000
30
0.0
11
822.440000000000
21
817.790000000000
31
0.0
0
LINE
5
776
100
AcDbEntity
8
0-1_2_0
6
CONTINUOUS
62
7
100
AcDbLine
10
780.090000000000
20
804.110000000000
30
0.0
11
792.700000000000
21
807.270000000000
31
0.0
0
LINE
5
777
100
AcDbEntity
8
0-1_2_0
6
CONTINUOUS
62
7
100
AcDbLine
10
792.560000000000
20
807.850000000000
30
0.0
11
792.700000000000
21
807.270000000000
31
0.0
0
LINE
5
778
100
AcDbEntity
8
0-1_2_0
6
CONTINUOUS
62
7
100
AcDbLine
10
779.950000000000
20
804.700000000000
30
0.0
11
792.560000000000
21
807.850000000000
31
0.0
0
LINE
5
779
100
AcDbEntity
8
0-1_2_0
6
CONTINUOUS
62
7
100
AcDbLine
10
793.620000000000
20
809.350000000000
30
0.0
11
779.650000000000
21
805.860000000000
31
0.0
0
LINE
5
77a
100
AcDbEntity
8
0-1_2_0
6
CONTINUOUS
62
7
100
AcDbLine
10
779.510000000000
20
806.440000000000
30
0.0
11
793.480000000000
21
809.940000000000
31
0.0
0
LINE
5
77b
100
AcDbEntity
8
0-1_2_0
6
CONTINUOUS
62
7
100
AcDbLine
10
778.780000000000
20
809.350000000000
30
0.0
11
821.860000000000
21
820.120000000000
31
0.0
0
LINE
5
77c
100
AcDbEntity
8
0-1_2_0
6
DASHED
62
7
100
AcDbLine
10
814.860000000000
20
817.130000000000
30
0.0
11
817.150000000000
21
818.330000000000
31
0.0
0
POLYLINE
5
77d
100
AcDbEntity
8
0-1_2_0
6
DASHED
62
  7
100
AcDb2dPolyline
66
1
10
0.0
20
0.0
30
0.0
70
0
0
VERTEX
5
77e
100
AcDbEntity
8
0-1_2_0
6
DASHED
62
  7
100
AcDbVertex
100
AcDb2dVertex
10
822.010000000000
20
819.540000000000
30
0.0
0
VERTEX
5
77f
100
AcDbEntity
8
0-1_2_0
6
DASHED
62
  7
100
AcDbVertex
100
AcDb2dVertex
10
829.760000000000
20
820.200000000000
30
0.0
0
VERTEX
5
780
100
AcDbEntity
8
0-1_2_0
6
DASHED
62
  7
100
AcDbVertex
100
AcDb2dVertex
10
858.570000000000
20
827.240000000000
30
0.0
0
SEQEND
5
781
100
AcDbEntity
8
0-1_2_0
0
LINE
5
782
100
AcDbEntity
8
0-1_2_0
6
CENTER2
62
7
100
AcDbLine
10
810.890000000000
20
799.990000000000
30
0.0
11
806.180000000000
21
818.830000000000
31
0.0
0
LINE
5
783
100
AcDbEntity
8
0-1_2_0
6
CONTINUOUS
62
4
100
AcDbLine
10
748.690000000000
20
919.650000000000
30
0.0
11
902.890000000000
21
958.200000000000
31
0.0
0
LINE
5
784
100
AcDbEntity
8
0-1_2_0
6
CONTINUOUS
62
4
100
AcDbLine
10
912.860000000000
20
918.320000000000
30
0.0
11
902.890000000000
21
958.200000000000
31
0.0
0
LINE
5
785
100
AcDbEntity
8
0-1_2_0
6
CONTINUOUS
62
4
100
AcDbLine
10
808.810000000000
20
803.150000000000
30
0.0
11
806.030000000000
21
814.310000000000
31
0.0
0
LINE
5
786
100
AcDbEntity
8
0-1_2_0
6
CONTINUOUS
62
4
100
AcDbLine
10
808.450000000000
20
814.920000000000
30
0.0
11
811.240000000000
21
803.760000000000
31
0.0
0
LINE
5
787
100
AcDbEntity
8
0-1_2_0
6
CONTINUOUS
62
4
100
AcDbLine
10
802.290000000000
20
813.790000000000
30
0.0
11
811.990000000000
21
816.210000000000
31
0.0
0
LINE
5
788
100
AcDbEntity
8
0-1_2_0
6
CONTINUOUS
62
4
100
AcDbLine
10
804.110000000000
20
814.760000000000
30
0.0
11
809.930000000000
21
816.210000000000
31
0.0
0
LINE
5
789
100
AcDbEntity
8
0-1_2_0
6
CONTINUOUS
62
4
100
AcDbLine
10
811.990000000000
20
816.210000000000
30
0.0
11
812.090000000000
21
815.820000000000
31
0.0
0
LINE
5
78a
100
AcDbEntity
8
0-1_2_0
6
CONTINUOUS
62
4
100
AcDbLine
10
809.930000000000
20
816.210000000000
30
0.0
11
811.510000000000
21
816.090000000000
31
0.0
0
LINE
5
78b
100
AcDbEntity
8
0-1_2_0
6
CONTINUOUS
62
4
100
AcDbLine
10
809.520000000000
20
811.660000000000
30
0.0
11
806.490000000000
21
811.420000000000
31
0.0
0
LINE
5
78c
100
AcDbEntity
8
0-1_2_0
6
CONTINUOUS
62
4
100
AcDbLine
10
809.770000000000
20
810.690000000000
30
0.0
11
806.730000000000
21
810.450000000000
31
0.0
0
LINE
5
78d
100
AcDbEntity
8
0-1_2_0
6
CONTINUOUS
62
4
100
AcDbLine
10
810.010000000000
20
809.720000000000
30
0.0
11
806.980000000000
21
809.470000000000
31
0.0
0
LINE
5
78e
100
AcDbEntity
8
0-1_2_0
6
CONTINUOUS
62
4
100
AcDbLine
10
809.280000000000
20
812.630000000000
30
0.0
11
806.250000000000
21
812.390000000000
31
0.0
0
LINE
5
78f
100
AcDbEntity
8
0-1_2_0
6
CONTINUOUS
62
4
100
AcDbLine
10
802.290000000000
20
813.790000000000
30
0.0
11
802.390000000000
21
813.400000000000
31
0.0
0
LINE
5
790
100
AcDbEntity
8
0-1_2_0
6
CONTINUOUS
62
4
100
AcDbLine
10
804.110000000000
20
814.760000000000
30
0.0
11
802.780000000000
21
813.910000000000
31
0.0
0
LINE
5
791
100
AcDbEntity
8
0-1_2_0
6
CONTINUOUS
62
4
100
AcDbLine
10
810.490000000000
20
807.780000000000
30
0.0
11
807.460000000000
21
807.530000000000
31
0.0
0
LINE
5
792
100
AcDbEntity
8
0-1_2_0
6
CONTINUOUS
62
4
100
AcDbLine
10
810.250000000000
20
808.750000000000
30
0.0
11
807.220000000000
21
808.510000000000
31
0.0
0
LINE
5
793
100
AcDbEntity
8
0-1_2_0
6
CONTINUOUS
62
4
100
AcDbLine
10
810.740000000000
20
806.810000000000
30
0.0
11
807.700000000000
21
806.560000000000
31
0.0
0
LINE
5
794
100
AcDbEntity
8
0-1_2_0
6
CONTINUOUS
62
4
100
AcDbLine
10
810.980000000000
20
805.840000000000
30
0.0
11
807.950000000000
21
805.590000000000
31
0.0
0
LINE
5
795
100
AcDbEntity
8
0-1_2_0
6
CONTINUOUS
62
4
100
AcDbLine
10
810.270000000000
20
802.490000000000
30
0.0
11
808.810000000000
21
803.150000000000
31
0.0
0
LINE
5
796
100
AcDbEntity
8
0-1_2_0
6
CONTINUOUS
62
4
100
AcDbLine
10
811.240000000000
20
803.760000000000
30
0.0
11
810.270000000000
21
802.490000000000
31
0.0
0
POLYLINE
5
797
100
AcDbEntity
8
0-1_2_0
6
CONTINUOUS
62
  4
100
AcDb2dPolyline
66
1
10
0.0
20
0.0
30
0.0
70
0
0
VERTEX
5
798
100
AcDbEntity
8
0-1_2_0
6
CONTINUOUS
62
  4
100
AcDbVertex
100
AcDb2dVertex
10
809.660000000000
20
802.850000000000
30
0.0
0
VERTEX
5
799
100
AcDbEntity
8
0-1_2_0
6
CONTINUOUS
62
  4
100
AcDbVertex
100
AcDb2dVertex
10
810.030000000000
20
803.450000000000
30
0.0
0
VERTEX
5
79a
100
AcDbEntity
8
0-1_2_0
6
CONTINUOUS
62
  4
100
AcDbVertex
100
AcDb2dVertex
10
809.540000000000
20
804.040000000000
30
0.0
0
VERTEX
5
79b
100
AcDbEntity
8
0-1_2_0
6
CONTINUOUS
62
  4
100
AcDbVertex
100
AcDb2dVertex
10
810.170000000000
20
804.640000000000
30
0.0
0
VERTEX
5
79c
100
AcDbEntity
8
0-1_2_0
6
CONTINUOUS
62
  4
100
AcDbVertex
100
AcDb2dVertex
10
811.240000000000
20
803.760000000000
30
0.0
0
SEQEND
5
79d
100
AcDbEntity
8
0-1_2_0
0
LINE
5
79e
100
AcDbEntity
8
0-1_2_0
6
CONTINUOUS
62
4
100
AcDbLine
10
802.390000000000
20
813.400000000000
30
0.0
11
812.090000000000
21
815.820000000000
31
0.0
0
LINE
5
79f
100
AcDbEntity
8
0-1_2_0
6
CONTINUOUS
62
7
100
AcDbLine
10
778.930000000000
20
808.770000000000
30
0.0
11
822.000000000000
21
819.540000000000
31
0.0
0
LINE
5
7a0
100
AcDbEntity
8
0-1_2_0
6
DASHED
62
7
100
AcDbLine
10
779.360000000000
20
808.260000000000
30
0.0
11
801.470000000000
21
813.790000000000
31
0.0
0
LINE
5
7a1
100
AcDbEntity
8
0-1_2_0
6
DASHED
62
7
100
AcDbLine
10
802.670000000000
20
814.550000000000
30
0.0
11
801.470000000000
21
813.790000000000
31
0.0
0
LINE
5
7a2
100
AcDbEntity
8
0-1_2_0
6
DASHED
62
7
100
AcDbLine
10
802.670000000000
20
814.550000000000
30
0.0
11
806.980000000000
21
815.630000000000
31
0.0
0
LINE
5
7a3
100
AcDbEntity
8
0-1_2_0
6
DASHED
62
7
100
AcDbLine
10
811.300000000000
20
816.710000000000
30
0.0
11
806.980000000000
21
815.630000000000
31
0.0
0
POLYLINE
5
7a4
100
AcDbEntity
8
0-1_2_0
6
DASHED
62
  7
100
AcDb2dPolyline
66
1
10
0.0
20
0.0
30
0.0
70
0
0
VERTEX
5
7a5
100
AcDbEntity
8
0-1_2_0
6
DASHED
62
  7
100
AcDbVertex
100
AcDb2dVertex
10
811.300000000000
20
816.710000000000
30
0.0
0
VERTEX
5
7a6
100
AcDbEntity
8
0-1_2_0
6
DASHED
62
  7
100
AcDbVertex
100
AcDb2dVertex
10
812.720000000000
20
816.600000000000
30
0.0
0
VERTEX
5
7a7
100
AcDbEntity
8
0-1_2_0
6
DASHED
62
  7
100
AcDbVertex
100
AcDb2dVertex
10
814.860000000000
20
817.130000000000
30
0.0
0
SEQEND
5
7a8
100
AcDbEntity
8
0-1_2_0
0
LINE
5
7a9
100
AcDbEntity
8
0-1_2_0
6
CONTINUOUS
62
3
100
AcDbLine
10
932.010000000000
20
931.090000000000
30
0.0
11
932.010000000000
21
885.690000000000
31
0.0
0
LINE
5
7aa
100
AcDbEntity
8
0-1_2_0
6
CONTINUOUS
62
3
100
AcDbLine
10
1027.410000000000
20
883.390000000000
30
0.0
11
932.010000000000
21
883.390000000000
31
0.0
0
LINE
5
7ab
100
AcDbEntity
8
0-1_2_0
6
CONTINUOUS
62
3
100
AcDbLine
10
932.010000000000
20
885.690000000000
30
0.0
11
1027.410000000000
21
885.690000000000
31
0.0
0
LINE
5
7ac
100
AcDbEntity
8
0-1_2_0
6
CONTINUOUS
62
3
100
AcDbLine
10
1029.710000000000
20
931.090000000000
30
0.0
11
1029.710000000000
21
885.690000000000
31
0.0
0
LINE
5
7ad
100
AcDbEntity
8
0-1_2_0
6
CONTINUOUS
62
3
100
AcDbLine
10
1027.410000000000
20
885.690000000000
30
0.0
11
1027.410000000000
21
931.090000000000
31
0.0
0
LINE
5
7ae
100
AcDbEntity
8
0-1_2_0
6
CONTINUOUS
62
3
100
AcDbLine
10
1009.710000000000
20
933.390000000000
30
0.0
11
1027.410000000000
21
933.390000000000
31
0.0
0
POLYLINE
5
7af
100
AcDbEntity
8
0-1_2_0
6
CONTINUOUS
62
  3
100
AcDb2dPolyline
66
1
10
0.0
20
0.0
30
0.0
70
0
0
VERTEX
5
7b0
100
AcDbEntity
8
0-1_2_0
6
CONTINUOUS
62
  3
100
AcDbVertex
100
AcDb2dVertex
10
1027.410000000000
20
931.090000000000
30
0.0
0
VERTEX
5
7b1
100
AcDbEntity
8
0-1_2_0
6
CONTINUOUS
62
  3
100
AcDbVertex
100
AcDb2dVertex
10
1009.710000000000
20
931.090000000000
30
0.0
0
VERTEX
5
7b2
100
AcDbEntity
8
0-1_2_0
6
CONTINUOUS
62
  3
100
AcDbVertex
100
AcDb2dVertex
10
1009.710000000000
20
933.390000000000
30
0.0
0
SEQEND
5
7b3
100
AcDbEntity
8
0-1_2_0
0
LINE
5
7b4
100
AcDbEntity
8
0-1_2_0
6
CONTINUOUS
62
3
100
AcDbLine
10
949.710000000000
20
931.090000000000
30
0.0
11
932.010000000000
21
931.090000000000
31
0.0
0
POLYLINE
5
7b5
100
AcDbEntity
8
0-1_2_0
6
CONTINUOUS
62
  3
100
AcDb2dPolyline
66
1
10
0.0
20
0.0
30
0.0
70
0
0
VERTEX
5
7b6
100
AcDbEntity
8
0-1_2_0
6
CONTINUOUS
62
  3
100
AcDbVertex
100
AcDb2dVertex
10
932.010000000000
20
933.390000000000
30
0.0
0
VERTEX
5
7b7
100
AcDbEntity
8
0-1_2_0
6
CONTINUOUS
62
  3
100
AcDbVertex
100
AcDb2dVertex
10
949.710000000000
20
933.390000000000
30
0.0
0
VERTEX
5
7b8
100
AcDbEntity
8
0-1_2_0
6
CONTINUOUS
62
  3
100
AcDbVertex
100
AcDb2dVertex
10
949.710000000000
20
931.090000000000
30
0.0
0
SEQEND
5
7b9
100
AcDbEntity
8
0-1_2_0
0
LINE
5
7ba
100
AcDbEntity
8
0-1_2_0
6
CONTINUOUS
62
3
100
AcDbLine
10
929.710000000000
20
885.690000000000
30
0.0
11
929.710000000000
21
931.090000000000
31
0.0
0
LINE
5
7bb
100
AcDbEntity
8
0-1_2_0
6
CONTINUOUS
62
7
100
AcDbLine
10
926.510000000000
20
955.750000000000
30
0.0
11
925.910000000000
21
955.750000000000
31
0.0
0
LINE
5
7bc
100
AcDbEntity
8
0-1_2_0
6
CONTINUOUS
62
4
100
AcDbLine
10
909.710000000000
20
885.700000000000
30
0.0
11
924.710000000000
21
900.700000000000
31
0.0
0
LINE
5
7bd
100
AcDbEntity
8
0-1_2_0
6
CONTINUOUS
62
4
100
AcDbLine
10
909.710000000000
20
888.530000000000
30
0.0
11
924.710000000000
21
903.530000000000
31
0.0
0
LINE
5
7be
100
AcDbEntity
8
0-1_2_0
6
CONTINUOUS
62
4
100
AcDbLine
10
909.710000000000
20
913.980000000000
30
0.0
11
924.710000000000
21
928.980000000000
31
0.0
0
LINE
5
7bf
100
AcDbEntity
8
0-1_2_0
6
CONTINUOUS
62
4
100
AcDbLine
10
909.710000000000
20
916.810000000000
30
0.0
11
924.710000000000
21
931.810000000000
31
0.0
0
LINE
5
7c0
100
AcDbEntity
8
0-1_2_0
6
CONTINUOUS
62
4
100
AcDbLine
10
909.710000000000
20
942.270000000000
30
0.0
11
924.710000000000
21
957.270000000000
31
0.0
0
LINE
5
7c1
100
AcDbEntity
8
0-1_2_0
6
CONTINUOUS
62
4
100
AcDbLine
10
909.710000000000
20
945.090000000000
30
0.0
11
924.710000000000
21
960.090000000000
31
0.0
0
LINE
5
7c2
100
AcDbEntity
8
0-1_2_0
6
CONTINUOUS
62
4
100
AcDbLine
10
935.860000000000
20
779.980000000000
30
0.0
11
977.800000000000
21
779.980000000000
31
0.0
0
LINE
5
7c3
100
AcDbEntity
8
0-1_2_0
6
CONTINUOUS
62
4
100
AcDbLine
10
977.800000000000
20
883.390000000000
30
0.0
11
977.800000000000
21
779.980000000000
31
0.0
0
LINE
5
7c4
100
AcDbEntity
8
0-1_2_0
6
CONTINUOUS
62
7
100
AcDbLine
10
909.710000000000
20
860.900000000000
30
0.0
11
924.710000000000
21
860.900000000000
31
0.0
0
LINE
5
7c5
100
AcDbEntity
8
0-1_2_0
6
CONTINUOUS
62
4
100
AcDbLine
10
913.190000000000
20
860.900000000000
30
0.0
11
924.710000000000
21
872.410000000000
31
0.0
0
LINE
5
7c6
100
AcDbEntity
8
0-1_2_0
6
CONTINUOUS
62
4
100
AcDbLine
10
910.360000000000
20
860.900000000000
30
0.0
11
924.710000000000
21
875.240000000000
31
0.0
0
LINE
5
7c7
100
AcDbEntity
8
0-1_2_0
6
CONTINUOUS
62
7
100
AcDbLine
10
909.710000000000
20
992.580000000000
30
0.0
11
903.910000000000
21
991.030000000000
31
0.0
0
LINE
5
7c8
100
AcDbEntity
8
0-1_2_0
6
CONTINUOUS
62
7
100
AcDbLine
10
909.710000000000
20
992.580000000000
30
0.0
11
903.910000000000
21
994.130000000000
31
0.0
0
LINE
5
7c9
100
AcDbEntity
8
0-1_2_0
6
CONTINUOUS
62
7
100
AcDbLine
10
889.660000000000
20
992.580000000000
30
0.0
11
884.860000000000
21
1006.790000000000
31
0.0
0
LINE
5
7ca
100
AcDbEntity
8
0-1_2_0
6
CONTINUOUS
62
7
100
AcDbLine
10
889.660000000000
20
992.580000000000
30
0.0
11
909.710000000000
21
992.580000000000
31
0.0
0
LINE
5
7cb
100
AcDbEntity
8
0-1_2_0
6
CONTINUOUS
62
7
100
AcDbLine
10
903.590000000000
20
839.630000000000
30
0.0
11
903.320000000000
21
843.760000000000
31
0.0
0
LINE
5
7cc
100
AcDbEntity
8
0-1_2_0
6
CONTINUOUS
62
7
100
AcDbLine
10
903.590000000000
20
839.630000000000
30
0.0
11
901.290000000000
21
843.070000000000
31
0.0
0
LINE
5
7cd
100
AcDbEntity
8
0-1_2_0
6
CONTINUOUS
62
7
100
AcDbLine
10
698.780000000000
20
750.180000000000
30
0.0
11
698.510000000000
21
754.310000000000
31
0.0
0
LINE
5
7ce
100
AcDbEntity
8
0-1_2_0
6
CONTINUOUS
62
7
100
AcDbLine
10
698.780000000000
20
750.180000000000
30
0.0
11
696.480000000000
21
753.630000000000
31
0.0
0
LINE
5
7cf
100
AcDbEntity
8
0-1_2_0
6
CONTINUOUS
62
7
100
AcDbLine
10
903.590000000000
20
839.630000000000
30
0.0
11
890.390000000000
21
878.640000000000
31
0.0
0
LINE
5
7d0
100
AcDbEntity
8
0-1_2_0
6
CONTINUOUS
62
7
100
AcDbLine
10
838.100000000000
20
800.070000000000
30
0.0
11
837.830000000000
21
804.210000000000
31
0.0
0
LINE
5
7d1
100
AcDbEntity
8
0-1_2_0
6
CONTINUOUS
62
7
100
AcDbLine
10
838.100000000000
20
800.070000000000
30
0.0
11
835.800000000000
21
803.520000000000
31
0.0
0
LINE
5
7d2
100
AcDbEntity
8
0-1_2_0
6
CONTINUOUS
62
7
100
AcDbLine
10
878.890000000000
20
820.270000000000
30
0.0
11
878.620000000000
21
824.410000000000
31
0.0
0
LINE
5
7d3
100
AcDbEntity
8
0-1_2_0
6
CONTINUOUS
62
7
100
AcDbLine
10
878.890000000000
20
820.270000000000
30
0.0
11
876.590000000000
21
823.720000000000
31
0.0
0
LINE
5
7d4
100
AcDbEntity
8
0-1_2_0
6
CONTINUOUS
62
7
100
AcDbLine
10
876.630000000000
20
800.300000000000
30
0.0
11
876.360000000000
21
804.430000000000
31
0.0
0
LINE
5
7d5
100
AcDbEntity
8
0-1_2_0
6
CONTINUOUS
62
7
100
AcDbLine
10
876.630000000000
20
800.300000000000
30
0.0
11
874.330000000000
21
803.740000000000
31
0.0
0
LINE
5
7d6
100
AcDbEntity
8
0-1_2_0
6
CONTINUOUS
62
7
100
AcDbLine
10
876.630000000000
20
800.300000000000
30
0.0
11
857.110000000000
21
858.000000000000
31
0.0
0
LINE
5
7d7
100
AcDbEntity
8
0-1_2_0
6
CONTINUOUS
62
7
100
AcDbLine
10
878.890000000000
20
820.270000000000
30
0.0
11
866.130000000000
21
858.000000000000
31
0.0
0
LINE
5
7d8
100
AcDbEntity
8
0-1_2_0
6
CONTINUOUS
62
7
100
AcDbLine
10
851.830000000000
20
825.590000000000
30
0.0
11
852.900000000000
21
821.590000000000
31
0.0
0
LINE
5
7d9
100
AcDbEntity
8
0-1_2_0
6
CONTINUOUS
62
7
100
AcDbLine
10
851.830000000000
20
825.590000000000
30
0.0
11
854.760000000000
21
822.660000000000
31
0.0
0
LINE
5
7da
100
AcDbEntity
8
0-1_2_0
6
CONTINUOUS
62
7
100
AcDbLine
10
863.300000000000
20
789.640000000000
30
0.0
11
864.370000000000
21
785.640000000000
31
0.0
0
LINE
5
7db
100
AcDbEntity
8
0-1_2_0
6
CONTINUOUS
62
7
100
AcDbLine
10
863.300000000000
20
789.640000000000
30
0.0
11
866.230000000000
21
786.710000000000
31
0.0
0
LINE
5
7dc
100
AcDbEntity
8
0-1_2_0
6
CONTINUOUS
62
7
100
AcDbLine
10
863.300000000000
20
789.640000000000
30
0.0
11
893.550000000000
21
737.240000000000
31
0.0
0
LINE
5
7dd
100
AcDbEntity
8
0-1_2_0
6
CONTINUOUS
62
7
100
AcDbLine
10
698.780000000000
20
750.180000000000
30
0.0
11
685.580000000000
21
789.200000000000
31
0.0
0
LINE
5
7de
100
AcDbEntity
8
0-1_2_0
6
CONTINUOUS
62
7
100
AcDbLine
10
792.640000000000
20
810.630000000000
30
0.0
11
792.380000000000
21
814.760000000000
31
0.0
0
LINE
5
7df
100
AcDbEntity
8
0-1_2_0
6
CONTINUOUS
62
7
100
AcDbLine
10
792.640000000000
20
810.630000000000
30
0.0
11
790.340000000000
21
814.070000000000
31
0.0
0
LINE
5
7e0
100
AcDbEntity
8
0-1_2_0
6
CONTINUOUS
62
7
100
AcDbLine
10
792.640000000000
20
810.630000000000
30
0.0
11
787.710000000000
21
825.200000000000
31
0.0
0
LINE
5
7e1
100
AcDbEntity
8
0-1_2_0
6
CONTINUOUS
62
3
100
AcDbLine
10
863.930000000000
20
799.040000000000
30
0.0
11
864.500000000000
21
792.840000000000
31
0.0
0
LINE
5
7e2
100
AcDbEntity
8
0-1_2_0
6
CONTINUOUS
62
3
100
AcDbLine
10
864.630000000000
20
799.100000000000
30
0.0
11
865.200000000000
21
792.900000000000
31
0.0
0
LINE
5
7e3
100
AcDbEntity
8
0-1_2_0
6
CONTINUOUS
62
3
100
AcDbLine
10
865.870000000000
20
801.330000000000
30
0.0
11
869.470000000000
21
801.580000000000
31
0.0
0
LINE
5
7e4
100
AcDbEntity
8
0-1_2_0
6
CONTINUOUS
62
3
100
AcDbLine
10
869.520000000000
20
800.880000000000
30
0.0
11
869.470000000000
21
801.580000000000
31
0.0
0
LINE
5
7e5
100
AcDbEntity
8
0-1_2_0
6
CONTINUOUS
62
3
100
AcDbLine
10
865.920000000000
20
800.630000000000
30
0.0
11
869.520000000000
21
800.880000000000
31
0.0
0
LINE
5
7e6
100
AcDbEntity
8
0-1_2_0
6
CONTINUOUS
62
3
100
AcDbLine
10
833.740000000000
20
797.310000000000
30
0.0
11
843.100000000000
21
786.960000000000
31
0.0
0
LINE
5
7e7
100
AcDbEntity
8
0-1_2_0
6
CONTINUOUS
62
3
100
AcDbLine
10
833.250000000000
20
796.810000000000
30
0.0
11
842.600000000000
21
786.470000000000
31
0.0
0
LINE
5
7e8
100
AcDbEntity
8
0-1_2_0
6
CONTINUOUS
62
3
100
AcDbLine
10
828.610000000000
20
794.500000000000
30
0.0
11
830.590000000000
21
797.100000000000
31
0.0
0
LINE
5
7e9
100
AcDbEntity
8
0-1_2_0
6
CONTINUOUS
62
3
100
AcDbLine
10
831.140000000000
20
796.670000000000
30
0.0
11
829.170000000000
21
794.080000000000
31
0.0
0
LINE
5
7ea
100
AcDbEntity
8
0-1_2_0
6
CONTINUOUS
62
3
100
AcDbLine
10
815.390000000000
20
790.160000000000
30
0.0
11
828.010000000000
21
793.310000000000
31
0.0
0
LINE
5
7eb
100
AcDbEntity
8
0-1_2_0
6
CONTINUOUS
62
3
100
AcDbLine
10
815.580000000000
20
787.950000000000
30
0.0
11
828.270000000000
21
788.880000000000
31
0.0
0
LINE
5
7ec
100
AcDbEntity
8
0-1_2_0
6
CONTINUOUS
62
3
100
AcDbLine
10
815.630000000000
20
787.260000000000
30
0.0
11
828.320000000000
21
788.180000000000
31
0.0
0
LINE
5
7ed
100
AcDbEntity
8
0-1_2_0
6
CONTINUOUS
62
3
100
AcDbLine
10
815.220000000000
20
790.840000000000
30
0.0
11
827.840000000000
21
793.990000000000
31
0.0
0
LINE
5
7ee
100
AcDbEntity
8
0-1_2_0
6
CONTINUOUS
62
3
100
AcDbLine
10
863.450000000000
20
791.350000000000
30
0.0
11
855.300000000000
21
789.310000000000
31
0.0
0
LINE
5
7ef
100
AcDbEntity
8
0-1_2_0
6
CONTINUOUS
62
3
100
AcDbLine
10
854.140000000000
20
788.190000000000
30
0.0
11
855.300000000000
21
789.310000000000
31
0.0
0
LINE
5
7f0
100
AcDbEntity
8
0-1_2_0
6
CONTINUOUS
62
3
100
AcDbLine
10
854.330000000000
20
787.400000000000
30
0.0
11
855.650000000000
21
788.680000000000
31
0.0
0
LINE
5
7f1
100
AcDbEntity
8
0-1_2_0
6
CONTINUOUS
62
3
100
AcDbLine
10
863.620000000000
20
790.670000000000
30
0.0
11
855.650000000000
21
788.680000000000
31
0.0
0
LINE
5
7f2
100
AcDbEntity
8
0-1_2_0
6
CONTINUOUS
62
3
100
AcDbLine
10
844.430000000000
20
786.600000000000
30
0.0
11
852.580000000000
21
788.630000000000
31
0.0
0
LINE
5
7f3
100
AcDbEntity
8
0-1_2_0
6
CONTINUOUS
62
3
100
AcDbLine
10
854.140000000000
20
788.190000000000
30
0.0
11
852.580000000000
21
788.630000000000
31
0.0
0
LINE
5
7f4
100
AcDbEntity
8
0-1_2_0
6
CONTINUOUS
62
3
100
AcDbLine
10
844.600000000000
20
785.920000000000
30
0.0
11
852.570000000000
21
787.910000000000
31
0.0
0
LINE
5
7f5
100
AcDbEntity
8
0-1_2_0
6
CONTINUOUS
62
3
100
AcDbLine
10
854.330000000000
20
787.400000000000
30
0.0
11
852.570000000000
21
787.910000000000
31
0.0
0
LINE
5
7f6
100
AcDbEntity
8
0-1_2_0
6
CONTINUOUS
62
3
100
AcDbLine
10
828.720000000000
20
782.670000000000
30
0.0
11
650.260000000000
21
738.050000000000
31
0.0
0
LINE
5
7f7
100
AcDbEntity
8
0-1_2_0
6
CONTINUOUS
62
3
100
AcDbLine
10
828.890000000000
20
781.990000000000
30
0.0
11
650.380000000000
21
737.360000000000
31
0.0
0
LINE
5
7f8
100
AcDbEntity
8
0-1_2_0
6
CONTINUOUS
62
7
100
AcDbLine
10
828.740000000000
20
787.210000000000
30
0.0
11
814.770000000000
21
783.720000000000
31
0.0
0
LINE
5
7f9
100
AcDbEntity
8
0-1_2_0
6
CONTINUOUS
62
7
100
AcDbLine
10
828.890000000000
20
786.630000000000
30
0.0
11
814.340000000000
21
782.990000000000
31
0.0
0
POLYLINE
5
7fa
100
AcDbEntity
8
0-1_2_0
6
CONTINUOUS
62
  7
100
AcDb2dPolyline
66
1
10
0.0
20
0.0
30
0.0
70
0
0
VERTEX
5
7fb
100
AcDbEntity
8
0-1_2_0
6
CONTINUOUS
62
  7
100
AcDbVertex
100
AcDb2dVertex
10
917.760000000000
20
803.800000000000
30
0.0
0
VERTEX
5
7fc
100
AcDbEntity
8
0-1_2_0
6
CONTINUOUS
62
  7
100
AcDbVertex
100
AcDb2dVertex
10
914.130000000000
20
818.350000000000
30
0.0
0
VERTEX
5
7fd
100
AcDbEntity
8
0-1_2_0
6
CONTINUOUS
62
  7
100
AcDbVertex
100
AcDb2dVertex
10
870.470000000000
20
807.430000000000
30
0.0
0
SEQEND
5
7fe
100
AcDbEntity
8
0-1_2_0
0
LINE
5
7ff
100
AcDbEntity
8
0-1_2_0
6
CONTINUOUS
62
7
100
AcDbLine
10
874.110000000000
20
792.880000000000
30
0.0
11
870.470000000000
21
807.430000000000
31
0.0
0
LINE
5
800
100
AcDbEntity
8
0-1_2_0
6
CONTINUOUS
62
7
100
AcDbLine
10
917.760000000000
20
803.800000000000
30
0.0
11
874.110000000000
21
792.880000000000
31
0.0
0
LINE
5
801
100
AcDbEntity
8
0-1_2_0
6
CONTINUOUS
62
3
100
AcDbLine
10
929.710000000000
20
779.980000000000
30
0.0
11
656.780000000000
21
711.750000000000
31
0.0
0
LINE
5
802
100
AcDbEntity
8
0-1_2_0
6
DASHED
62
7
100
AcDbLine
10
925.680000000000
20
805.260000000000
30
0.0
11
650.600000000000
21
736.490000000000
31
0.0
0
LINE
5
803
100
AcDbEntity
8
0-1_2_0
6
CONTINUOUS
62
3
100
AcDbLine
10
923.650000000000
20
804.240000000000
30
0.0
11
650.720000000000
21
736.000000000000
31
0.0
0
LINE
5
804
100
AcDbEntity
8
0-1_2_0
6
CONTINUOUS
62
7
100
AcDbLine
10
870.470000000000
20
807.430000000000
30
0.0
11
917.760000000000
21
803.800000000000
31
0.0
0
LINE
5
805
100
AcDbEntity
8
0-1_2_0
6
CONTINUOUS
62
7
100
AcDbLine
10
916.490000000000
20
840.690000000000
30
0.0
11
795.220000000000
21
810.370000000000
31
0.0
0
LINE
5
806
100
AcDbEntity
8
0-1_2_0
6
CONTINUOUS
62
7
100
AcDbLine
10
921.340000000000
20
821.290000000000
30
0.0
11
916.490000000000
21
840.690000000000
31
0.0
0
LINE
5
807
100
AcDbEntity
8
0-1_2_0
6
CONTINUOUS
62
7
100
AcDbLine
10
921.340000000000
20
821.290000000000
30
0.0
11
800.080000000000
21
790.970000000000
31
0.0
0
LINE
5
808
100
AcDbEntity
8
0-1_2_0
6
CONTINUOUS
62
7
100
AcDbLine
10
909.710000000000
20
860.900000000000
30
0.0
11
909.710000000000
21
1052.790000000000
31
0.0
0
LINE
5
809
100
AcDbEntity
8
0-1_2_0
6
CONTINUOUS
62
7
100
AcDbLine
10
924.710000000000
20
860.900000000000
30
0.0
11
924.710000000000
21
1052.790000000000
31
0.0
0
LINE
5
80a
100
AcDbEntity
8
0-1_2_0
6
CONTINUOUS
62
4
100
AcDbLine
10
909.710000000000
20
970.550000000000
30
0.0
11
924.710000000000
21
985.550000000000
31
0.0
0
LINE
5
80b
100
AcDbEntity
8
0-1_2_0
6
CONTINUOUS
62
4
100
AcDbLine
10
909.710000000000
20
973.380000000000
30
0.0
11
924.710000000000
21
988.380000000000
31
0.0
0
LINE
5
80c
100
AcDbEntity
8
0-1_2_0
6
DASHED
62
7
100
AcDbLine
10
925.910000000000
20
953.340000000000
30
0.0
11
925.910000000000
21
861.580000000000
31
0.0
0
LINE
5
80d
100
AcDbEntity
8
0-1_2_0
6
CONTINUOUS
62
7
100
AcDbLine
10
925.910000000000
20
955.750000000000
30
0.0
11
925.910000000000
21
963.870000000000
31
0.0
0
LINE
5
80e
100
AcDbEntity
8
0-1_2_0
6
CONTINUOUS
62
7
100
AcDbLine
10
926.510000000000
20
955.750000000000
30
0.0
11
926.510000000000
21
963.870000000000
31
0.0
0
POLYLINE
5
80f
100
AcDbEntity
8
0-1_2_0
6
DASHED
62
  7
100
AcDb2dPolyline
66
1
10
0.0
20
0.0
30
0.0
70
0
0
VERTEX
5
810
100
AcDbEntity
8
0-1_2_0
6
DASHED
62
  7
100
AcDbVertex
100
AcDb2dVertex
10
925.310000000000
20
964.730000000000
30
0.0
0
VERTEX
5
811
100
AcDbEntity
8
0-1_2_0
6
DASHED
62
  7
100
AcDbVertex
100
AcDb2dVertex
10
925.310000000000
20
955.310000000000
30
0.0
0
VERTEX
5
812
100
AcDbEntity
8
0-1_2_0
6
DASHED
62
  7
100
AcDbVertex
100
AcDb2dVertex
10
925.910000000000
20
953.340000000000
30
0.0
0
SEQEND
5
813
100
AcDbEntity
8
0-1_2_0
0
LINE
5
814
100
AcDbEntity
8
0-1_2_0
6
CONTINUOUS
62
4
100
AcDbLine
10
1056.580000000000
20
964.770000000000
30
0.0
11
1056.580000000000
21
844.770000000000
31
0.0
0
LINE
5
815
100
AcDbEntity
8
0-1_2_0
6
CONTINUOUS
62
4
100
AcDbLine
10
1014.640000000000
20
844.770000000000
30
0.0
11
1056.580000000000
21
844.770000000000
31
0.0
0
LINE
5
816
100
AcDbEntity
8
0-1_2_0
6
CONTINUOUS
62
4
100
AcDbLine
10
1014.640000000000
20
964.770000000000
30
0.0
11
1056.580000000000
21
964.770000000000
31
0.0
0
LINE
5
817
100
AcDbEntity
8
0-1_2_0
6
DASHED
62
7
100
AcDbLine
10
927.710000000000
20
968.420000000000
30
0.0
11
925.310000000000
21
964.730000000000
31
0.0
0
LINE
5
818
100
AcDbEntity
8
0-1_2_0
6
DASHED
62
7
100
AcDbLine
10
927.710000000000
20
968.420000000000
30
0.0
11
927.710000000000
21
1052.790000000000
31
0.0
0
LINE
5
819
100
AcDbEntity
8
0-1_2_0
6
CONTINUOUS
62
4
100
AcDbLine
10
909.710000000000
20
998.830000000000
30
0.0
11
924.710000000000
21
1013.830000000000
31
0.0
0
LINE
5
81a
100
AcDbEntity
8
0-1_2_0
6
CONTINUOUS
62
4
100
AcDbLine
10
909.710000000000
20
1001.660000000000
30
0.0
11
924.710000000000
21
1016.660000000000
31
0.0
0
LINE
5
81b
100
AcDbEntity
8
0-1_2_0
6
CONTINUOUS
62
4
100
AcDbLine
10
909.710000000000
20
1027.120000000000
30
0.0
11
924.710000000000
21
1042.120000000000
31
0.0
0
LINE
5
81c
100
AcDbEntity
8
0-1_2_0
6
CONTINUOUS
62
4
100
AcDbLine
10
909.710000000000
20
1029.950000000000
30
0.0
11
924.710000000000
21
1044.950000000000
31
0.0
0
LINE
5
81d
100
AcDbEntity
8
0-1_2_0
6
CONTINUOUS
62
4
100
AcDbLine
10
731.630000000000
20
730.460000000000
30
0.0
11
749.820000000000
21
760.780000000000
31
0.0
0
LINE
5
81e
100
AcDbEntity
8
0-1_2_0
6
CONTINUOUS
62
4
100
AcDbLine
10
710.030000000000
20
750.830000000000
30
0.0
11
740.350000000000
21
732.640000000000
31
0.0
0
LINE
5
81f
100
AcDbEntity
8
0-1_2_0
6
CONTINUOUS
62
4
100
AcDbLine
10
704.190000000000
20
723.600000000000
30
0.0
11
722.380000000000
21
753.920000000000
31
0.0
0
LINE
5
820
100
AcDbEntity
8
0-1_2_0
6
CONTINUOUS
62
4
100
AcDbLine
10
682.590000000000
20
743.970000000000
30
0.0
11
712.910000000000
21
725.780000000000
31
0.0
0
LINE
5
821
100
AcDbEntity
8
0-1_2_0
6
CONTINUOUS
62
4
100
AcDbLine
10
676.750000000000
20
716.740000000000
30
0.0
11
694.940000000000
21
747.060000000000
31
0.0
0
LINE
5
822
100
AcDbEntity
8
0-1_2_0
6
CONTINUOUS
62
4
100
AcDbLine
10
655.150000000000
20
737.110000000000
30
0.0
11
685.470000000000
21
718.920000000000
31
0.0
0
LINE
5
823
100
AcDbEntity
8
0-1_2_0
6
CONTINUOUS
62
4
100
AcDbLine
10
654.930000000000
20
719.240000000000
30
0.0
11
667.500000000000
21
740.200000000000
31
0.0
0
LINE
5
824
100
AcDbEntity
8
0-1_2_0
6
CONTINUOUS
62
7
100
AcDbLine
10
899.450000000000
20
814.790000000000
30
0.0
11
812.440000000000
21
793.040000000000
31
0.0
0
LINE
5
825
100
AcDbEntity
8
0-1_2_0
6
CONTINUOUS
62
7
100
AcDbLine
10
814.770000000000
20
783.720000000000
30
0.0
11
812.440000000000
21
793.040000000000
31
0.0
0
LINE
5
826
100
AcDbEntity
8
0-1_2_0
6
CONTINUOUS
62
7
100
AcDbLine
10
899.310000000000
20
815.380000000000
30
0.0
11
811.710000000000
21
793.480000000000
31
0.0
0
LINE
5
827
100
AcDbEntity
8
0-1_2_0
6
CONTINUOUS
62
7
100
AcDbLine
10
814.340000000000
20
782.990000000000
30
0.0
11
811.710000000000
21
793.480000000000
31
0.0
0
LINE
5
828
100
AcDbEntity
8
0-1_2_0
6
CONTINUOUS
62
7
100
AcDbLine
10
838.100000000000
20
800.070000000000
30
0.0
11
824.640000000000
21
839.850000000000
31
0.0
0
LINE
5
829
100
AcDbEntity
8
0-1_2_0
6
CONTINUOUS
62
7
100
AcDbLine
10
851.830000000000
20
825.590000000000
30
0.0
11
902.840000000000
21
737.240000000000
31
0.0
0
LINE
5
82a
100
AcDbEntity
8
0-1_2_0
6
CONTINUOUS
62
7
100
AcDbLine
10
801.650000000000
20
777.140000000000
30
0.0
11
772.280000000000
21
771.030000000000
31
0.0
0
LINE
5
82b
100
AcDbEntity
8
0-1_2_0
6
CONTINUOUS
62
7
100
AcDbLine
10
802.110000000000
20
777.870000000000
30
0.0
11
794.350000000000
21
808.920000000000
31
0.0
0
LINE
5
82c
100
AcDbEntity
8
0-1_2_0
6
CONTINUOUS
62
7
100
AcDbLine
10
802.690000000000
20
778.020000000000
30
0.0
11
794.930000000000
21
809.060000000000
31
0.0
0
LINE
5
82d
100
AcDbEntity
8
0-1_2_0
6
CONTINUOUS
62
7
100
AcDbLine
10
926.650000000000
20
845.130000000000
30
0.0
11
821.860000000000
21
820.120000000000
31
0.0
0
LINE
5
82e
100
AcDbEntity
8
0-1_2_0
6
CONTINUOUS
62
7
100
AcDbLine
10
927.110000000000
20
845.720000000000
30
0.0
11
927.110000000000
21
963.870000000000
31
0.0
0
LINE
5
82f
100
AcDbEntity
8
0-1_2_0
6
CONTINUOUS
62
7
100
AcDbLine
10
927.710000000000
20
845.720000000000
30
0.0
11
927.710000000000
21
963.870000000000
31
0.0
0
LINE
5
830
100
AcDbEntity
8
0-1_2_0
6
CONTINUOUS
62
7
100
AcDbLine
10
822.000000000000
20
819.540000000000
30
0.0
11
926.790000000000
21
844.550000000000
31
0.0
0
LINE
5
831
100
AcDbEntity
8
0-1_2_0
6
DASHED
62
7
100
AcDbLine
10
858.570000000000
20
827.240000000000
30
0.0
11
928.210000000000
21
844.250000000000
31
0.0
0
LINE
5
832
100
AcDbEntity
8
0-1_2_0
6
DASHED
62
7
100
AcDbLine
10
928.210000000000
20
994.770000000000
30
0.0
11
928.210000000000
21
844.250000000000
31
0.0
0
LINE
5
833
100
AcDbEntity
8
0-1_2_0
6
DASHED
62
7
100
AcDbLine
10
928.710000000000
20
809.140000000000
30
0.0
11
928.710000000000
21
994.770000000000
31
0.0
0
LINE
5
834
100
AcDbEntity
8
0-1_2_0
6
CONTINUOUS
62
3
100
AcDbLine
10
929.710000000000
20
738.250000000000
30
0.0
11
929.710000000000
21
1052.790000000000
31
0.0
0
LINE
5
835
100
AcDbEntity
8
0-1_2_0
6
CONTINUOUS
62
4
100
AcDbLine
10
858.680000000000
20
790.790000000000
30
0.0
11
848.980000000000
21
788.360000000000
31
0.0
0
LINE
5
836
100
AcDbEntity
8
0-1_2_0
6
CONTINUOUS
62
4
100
AcDbLine
10
856.620000000000
20
790.790000000000
30
0.0
11
850.800000000000
21
789.330000000000
31
0.0
0
LINE
5
837
100
AcDbEntity
8
0-1_2_0
6
CONTINUOUS
62
4
100
AcDbLine
10
848.980000000000
20
788.360000000000
30
0.0
11
849.080000000000
21
787.970000000000
31
0.0
0
LINE
5
838
100
AcDbEntity
8
0-1_2_0
6
CONTINUOUS
62
4
100
AcDbLine
10
850.800000000000
20
789.330000000000
30
0.0
11
849.470000000000
21
788.480000000000
31
0.0
0
LINE
5
839
100
AcDbEntity
8
0-1_2_0
6
CONTINUOUS
62
4
100
AcDbLine
10
858.680000000000
20
790.790000000000
30
0.0
11
858.780000000000
21
790.400000000000
31
0.0
0
LINE
5
83a
100
AcDbEntity
8
0-1_2_0
6
CONTINUOUS
62
4
100
AcDbLine
10
856.620000000000
20
790.790000000000
30
0.0
11
858.200000000000
21
790.670000000000
31
0.0
0
LINE
5
83b
100
AcDbEntity
8
0-1_2_0
6
CONTINUOUS
62
4
100
AcDbLine
10
858.780000000000
20
790.400000000000
30
0.0
11
849.080000000000
21
787.970000000000
31
0.0
0
LINE
5
83c
100
AcDbEntity
8
0-1_2_0
6
CONTINUOUS
62
4
100
AcDbLine
10
857.480000000000
20
769.040000000000
30
0.0
11
860.290000000000
21
770.260000000000
31
0.0
0
LINE
5
83d
100
AcDbEntity
8
0-1_2_0
6
CONTINUOUS
62
4
100
AcDbLine
10
858.430000000000
20
767.300000000000
30
0.0
11
860.270000000000
21
768.100000000000
31
0.0
0
LINE
5
83e
100
AcDbEntity
8
0-1_2_0
6
CONTINUOUS
62
4
100
AcDbLine
10
859.370000000000
20
765.560000000000
30
0.0
11
860.250000000000
21
765.940000000000
31
0.0
0
LINE
5
83f
100
AcDbEntity
8
0-1_2_0
6
CONTINUOUS
62
4
100
AcDbLine
10
859.990000000000
20
764.930000000000
30
0.0
11
856.640000000000
21
771.110000000000
31
0.0
0
LINE
5
840
100
AcDbEntity
8
0-1_2_0
6
CONTINUOUS
62
4
100
AcDbLine
10
859.990000000000
20
764.930000000000
30
0.0
11
860.050000000000
21
771.960000000000
31
0.0
0
LINE
5
841
100
AcDbEntity
8
0-1_2_0
6
CONTINUOUS
62
4
100
AcDbLine
10
856.250000000000
20
770.650000000000
30
0.0
11
860.430000000000
21
772.470000000000
31
0.0
0
LINE
5
842
100
AcDbEntity
8
0-1_2_0
6
CONTINUOUS
62
4
100
AcDbLine
10
855.760000000000
20
772.590000000000
30
0.0
11
859.940000000000
21
774.410000000000
31
0.0
0
LINE
5
843
100
AcDbEntity
8
0-1_2_0
6
CONTINUOUS
62
4
100
AcDbLine
10
855.280000000000
20
774.530000000000
30
0.0
11
859.460000000000
21
776.350000000000
31
0.0
0
LINE
5
844
100
AcDbEntity
8
0-1_2_0
6
CONTINUOUS
62
4
100
AcDbLine
10
854.790000000000
20
776.470000000000
30
0.0
11
858.970000000000
21
778.290000000000
31
0.0
0
LINE
5
845
100
AcDbEntity
8
0-1_2_0
6
CONTINUOUS
62
4
100
AcDbLine
10
854.310000000000
20
778.410000000000
30
0.0
11
858.490000000000
21
780.230000000000
31
0.0
0
LINE
5
846
100
AcDbEntity
8
0-1_2_0
6
CONTINUOUS
62
4
100
AcDbLine
10
853.820000000000
20
780.350000000000
30
0.0
11
858.000000000000
21
782.170000000000
31
0.0
0
LINE
5
847
100
AcDbEntity
8
0-1_2_0
6
CONTINUOUS
62
4
100
AcDbLine
10
856.660000000000
20
771.050000000000
30
0.0
11
852.230000000000
21
788.760000000000
31
0.0
0
LINE
5
848
100
AcDbEntity
8
0-1_2_0
6
CONTINUOUS
62
4
100
AcDbLine
10
860.060000000000
20
771.900000000000
30
0.0
11
855.630000000000
21
789.610000000000
31
0.0
0
LINE
5
849
100
AcDbEntity
8
0-1_2_0
6
CONTINUOUS
62
4
100
AcDbLine
10
853.340000000000
20
782.290000000000
30
0.0
11
857.520000000000
21
784.110000000000
31
0.0
0
LINE
5
84a
100
AcDbEntity
8
0-1_2_0
6
CONTINUOUS
62
4
100
AcDbLine
10
852.850000000000
20
784.230000000000
30
0.0
11
857.030000000000
21
786.050000000000
31
0.0
0
LINE
5
84b
100
AcDbEntity
8
0-1_2_0
6
CONTINUOUS
62
4
100
AcDbLine
10
852.370000000000
20
786.170000000000
30
0.0
11
856.550000000000
21
787.990000000000
31
0.0
0
LINE
5
84c
100
AcDbEntity
8
0-1_2_0
6
CONTINUOUS
62
7
100
AcDbLine
10
795.220000000000
20
810.370000000000
30
0.0
11
921.340000000000
21
821.290000000000
31
0.0
0
LINE
5
84d
100
AcDbEntity
8
0-2_2_1
6
CONTINUOUS
62
4
100
AcDbLine
10
1244.560000000000
20
974.780000000000
30
0.0
11
1341.860000000000
21
999.110000000000
31
0.0
0
LINE
5
84e
100
AcDbEntity
8
0-2_2_1
6
CONTINUOUS
62
4
100
AcDbLine
10
1361.360000000000
20
921.120000000000
30
0.0
11
1341.860000000000
21
999.110000000000
31
0.0
0
LINE
5
84f
100
AcDbEntity
8
0-2_2_1
6
CONTINUOUS
62
7
100
AcDbLine
10
1360.000000000000
20
908.820000000000
30
0.0
11
1360.150000000000
21
908.240000000000
31
0.0
0
LINE
5
850
100
AcDbEntity
8
0-2_2_1
6
CONTINUOUS
62
7
100
AcDbLine
10
1340.990000000000
20
906.540000000000
30
0.0
11
1341.130000000000
21
905.960000000000
31
0.0
0
LINE
5
851
100
AcDbEntity
8
0-2_2_1
6
CONTINUOUS
62
7
100
AcDbLine
10
1346.710000000000
20
904.260000000000
30
0.0
11
1346.860000000000
21
903.680000000000
31
0.0
0
LINE
5
852
100
AcDbEntity
8
0-2_2_1
6
CONTINUOUS
62
7
100
AcDbLine
10
1354.040000000000
20
907.950000000000
30
0.0
11
1338.030000000000
21
903.940000000000
31
0.0
0
POLYLINE
5
853
100
AcDbEntity
8
0-2_2_1
6
CONTINUOUS
62
  7
100
AcDb2dPolyline
66
1
10
0.0
20
0.0
30
0.0
70
0
0
VERTEX
5
854
100
AcDbEntity
8
0-2_2_1
6
CONTINUOUS
62
  7
100
AcDbVertex
100
AcDb2dVertex
10
1354.040000000000
20
907.950000000000
30
0.0
0
VERTEX
5
855
100
AcDbEntity
8
0-2_2_1
6
CONTINUOUS
62
  7
100
AcDbVertex
100
AcDb2dVertex
10
1353.890000000000
20
908.530000000000
30
0.0
0
VERTEX
5
856
100
AcDbEntity
8
0-2_2_1
6
CONTINUOUS
62
  7
100
AcDbVertex
100
AcDb2dVertex
10
1337.880000000000
20
904.530000000000
30
0.0
0
SEQEND
5
857
100
AcDbEntity
8
0-2_2_1
0
LINE
5
858
100
AcDbEntity
8
0-2_2_1
6
CONTINUOUS
62
7
100
AcDbLine
10
1159.020000000000
20
841.050000000000
30
0.0
11
1364.130000000000
21
892.330000000000
31
0.0
0
LINE
5
859
100
AcDbEntity
8
0-2_2_1
6
CONTINUOUS
62
7
100
AcDbLine
10
1295.790000000000
20
881.190000000000
30
0.0
11
1297.270000000000
21
883.650000000000
31
0.0
0
LINE
5
85a
100
AcDbEntity
8
0-2_2_1
6
CONTINUOUS
62
7
100
AcDbLine
10
1295.290000000000
20
883.160000000000
30
0.0
11
1297.720000000000
21
873.460000000000
31
0.0
0
POLYLINE
5
85b
100
AcDbEntity
8
0-2_2_1
6
CONTINUOUS
62
  7
100
AcDb2dPolyline
66
1
10
0.0
20
0.0
30
0.0
70
0
0
VERTEX
5
85c
100
AcDbEntity
8
0-2_2_1
6
CONTINUOUS
62
  7
100
AcDbVertex
100
AcDb2dVertex
10
1295.290000000000
20
883.160000000000
30
0.0
0
VERTEX
5
85d
100
AcDbEntity
8
0-2_2_1
6
CONTINUOUS
62
  7
100
AcDbVertex
100
AcDb2dVertex
10
1303.060000000000
20
885.100000000000
30
0.0
0
VERTEX
5
85e
100
AcDbEntity
8
0-2_2_1
6
CONTINUOUS
62
  7
100
AcDbVertex
100
AcDb2dVertex
10
1305.480000000000
20
875.400000000000
30
0.0
0
SEQEND
5
85f
100
AcDbEntity
8
0-2_2_1
0
LINE
5
860
100
AcDbEntity
8
0-2_2_1
6
CONTINUOUS
62
7
100
AcDbLine
10
1297.500000000000
20
874.330000000000
30
0.0
11
1303.320000000000
21
884.030000000000
31
0.0
0
LINE
5
861
100
AcDbEntity
8
0-2_2_1
6
CONTINUOUS
62
7
100
AcDbLine
10
1299.800000000000
20
884.290000000000
30
0.0
11
1303.870000000000
21
881.850000000000
31
0.0
0
LINE
5
862
100
AcDbEntity
8
0-2_2_1
6
CONTINUOUS
62
7
100
AcDbLine
10
1303.710000000000
20
874.960000000000
30
0.0
11
1305.040000000000
21
877.170000000000
31
0.0
0
LINE
5
863
100
AcDbEntity
8
0-2_2_1
6
DOT
62
7
100
AcDbLine
10
1360.440000000000
20
907.070000000000
30
0.0
11
1364.660000000000
21
890.190000000000
31
0.0
0
LINE
5
864
100
AcDbEntity
8
0-2_2_1
6
CONTINUOUS
62
7
100
AcDbLine
10
1230.480000000000
20
876.350000000000
30
0.0
11
1222.740000000000
21
899.230000000000
31
0.0
0
LINE
5
865
100
AcDbEntity
8
0-2_2_1
6
CONTINUOUS
62
4
100
AcDbLine
10
1170.750000000000
20
812.440000000000
30
0.0
11
1188.940000000000
21
842.760000000000
31
0.0
0
LINE
5
866
100
AcDbEntity
8
0-2_2_1
6
CONTINUOUS
62
4
100
AcDbLine
10
1163.190000000000
20
824.390000000000
30
0.0
11
1179.470000000000
21
814.620000000000
31
0.0
0
LINE
5
867
100
AcDbEntity
8
0-2_2_1
6
CONTINUOUS
62
3
100
AcDbLine
10
1368.830000000000
20
861.960000000000
30
0.0
11
1374.890000000000
21
886.220000000000
31
0.0
0
LINE
5
868
100
AcDbEntity
8
0-2_2_1
6
CONTINUOUS
62
4
100
AcDbLine
10
1396.430000000000
20
880.830000000000
30
0.0
11
1369.510000000000
21
864.680000000000
31
0.0
0
LINE
5
869
100
AcDbEntity
8
0-2_2_1
6
CONTINUOUS
62
7
100
AcDbLine
10
1501.140000000000
20
877.950000000000
30
0.0
11
1377.660000000000
21
908.820000000000
31
0.0
0
LINE
5
86a
100
AcDbEntity
8
0-2_2_1
6
CONTINUOUS
62
7
100
AcDbLine
10
1582.760000000000
20
857.540000000000
30
0.0
11
1501.140000000000
21
877.950000000000
31
0.0
0
LINE
5
86b
100
AcDbEntity
8
0-2_2_1
6
CONTINUOUS
62
7
100
AcDbLine
10
1500.990000000000
20
877.370000000000
30
0.0
11
1582.620000000000
21
856.960000000000
31
0.0
0
LINE
5
86c
100
AcDbEntity
8
0-2_2_1
6
CONTINUOUS
62
7
100
AcDbLine
10
1377.510000000000
20
908.240000000000
30
0.0
11
1500.990000000000
21
877.370000000000
31
0.0
0
LINE
5
86d
100
AcDbEntity
8
0-2_2_1
6
CONTINUOUS
62
7
100
AcDbLine
10
1465.700000000000
20
868.830000000000
30
0.0
11
1457.240000000000
21
871.400000000000
31
0.0
0
LINE
5
86e
100
AcDbEntity
8
0-2_2_1
6
CONTINUOUS
62
7
100
AcDbLine
10
1457.070000000000
20
870.830000000000
30
0.0
11
1457.240000000000
21
871.400000000000
31
0.0
0
LINE
5
86f
100
AcDbEntity
8
0-2_2_1
6
CONTINUOUS
62
7
100
AcDbLine
10
1465.530000000000
20
868.260000000000
30
0.0
11
1457.070000000000
21
870.830000000000
31
0.0
0
LINE
5
870
100
AcDbEntity
8
0-2_2_1
6
CONTINUOUS
62
7
100
AcDbLine
10
1440.060000000000
20
873.950000000000
30
0.0
11
1439.450000000000
21
873.580000000000
31
0.0
0
LINE
5
871
100
AcDbEntity
8
0-2_2_1
6
CONTINUOUS
62
7
100
AcDbLine
10
1441.780000000000
20
880.810000000000
30
0.0
11
1432.590000000000
21
875.300000000000
31
0.0
0
LINE
5
872
100
AcDbEntity
8
0-2_2_1
6
CONTINUOUS
62
7
100
AcDbLine
10
1377.660000000000
20
908.820000000000
30
0.0
11
1377.510000000000
21
908.240000000000
31
0.0
0
LINE
5
873
100
AcDbEntity
8
0-2_2_1
6
CONTINUOUS
62
7
100
AcDbLine
10
1578.640000000000
20
841.050000000000
30
0.0
11
1373.540000000000
21
892.330000000000
31
0.0
0
LINE
5
874
100
AcDbEntity
8
0-2_2_1
6
CONTINUOUS
62
7
100
AcDbLine
10
1441.870000000000
20
881.190000000000
30
0.0
11
1440.390000000000
21
883.650000000000
31
0.0
0
LINE
5
875
100
AcDbEntity
8
0-2_2_1
6
CONTINUOUS
62
7
100
AcDbLine
10
1442.370000000000
20
883.160000000000
30
0.0
11
1439.940000000000
21
873.460000000000
31
0.0
0
POLYLINE
5
876
100
AcDbEntity
8
0-2_2_1
6
CONTINUOUS
62
  7
100
AcDb2dPolyline
66
1
10
0.0
20
0.0
30
0.0
70
0
0
VERTEX
5
877
100
AcDbEntity
8
0-2_2_1
6
CONTINUOUS
62
  7
100
AcDbVertex
100
AcDb2dVertex
10
1442.370000000000
20
883.160000000000
30
0.0
0
VERTEX
5
878
100
AcDbEntity
8
0-2_2_1
6
CONTINUOUS
62
  7
100
AcDbVertex
100
AcDb2dVertex
10
1434.610000000000
20
885.100000000000
30
0.0
0
VERTEX
5
879
100
AcDbEntity
8
0-2_2_1
6
CONTINUOUS
62
  7
100
AcDbVertex
100
AcDb2dVertex
10
1432.180000000000
20
875.400000000000
30
0.0
0
SEQEND
5
87a
100
AcDbEntity
8
0-2_2_1
0
LINE
5
87b
100
AcDbEntity
8
0-2_2_1
6
CONTINUOUS
62
7
100
AcDbLine
10
1440.160000000000
20
874.330000000000
30
0.0
11
1434.340000000000
21
884.030000000000
31
0.0
0
LINE
5
87c
100
AcDbEntity
8
0-2_2_1
6
CONTINUOUS
62
7
100
AcDbLine
10
1437.860000000000
20
884.290000000000
30
0.0
11
1433.790000000000
21
881.850000000000
31
0.0
0
LINE
5
87d
100
AcDbEntity
8
0-2_2_1
6
CONTINUOUS
62
7
100
AcDbLine
10
1433.950000000000
20
874.960000000000
30
0.0
11
1432.620000000000
21
877.170000000000
31
0.0
0
LINE
5
87e
100
AcDbEntity
8
0-2_2_1
6
DOT
62
7
100
AcDbLine
10
1377.220000000000
20
907.070000000000
30
0.0
11
1373.000000000000
21
890.190000000000
31
0.0
0
LINE
5
87f
100
AcDbEntity
8
0-6_2_5
6
CONTINUOUS
62
7
100
AcDbLine
10
1142.580000000000
20
387.940000000000
30
0.0
11
1270.690000000000
21
357.880000000000
31
0.0
0
LINE
5
880
100
AcDbEntity
8
0-6_2_5
6
CONTINUOUS
62
7
100
AcDbLine
10
1142.810000000000
20
388.920000000000
30
0.0
11
1270.920000000000
21
358.860000000000
31
0.0
0
POLYLINE
5
881
100
AcDbEntity
8
0-6_2_5
6
CONTINUOUS
62
  7
100
AcDb2dPolyline
66
1
10
0.0
20
0.0
30
0.0
70
0
0
VERTEX
5
882
100
AcDbEntity
8
0-6_2_5
6
CONTINUOUS
62
  7
100
AcDbVertex
100
AcDb2dVertex
10
1146.460000000000
20
404.490000000000
30
0.0
0
VERTEX
5
883
100
AcDbEntity
8
0-6_2_5
6
CONTINUOUS
62
  7
100
AcDbVertex
100
AcDb2dVertex
10
1275.410000000000
20
374.240000000000
30
0.0
0
VERTEX
5
884
100
AcDbEntity
8
0-6_2_5
6
CONTINUOUS
62
  7
100
AcDbVertex
100
AcDb2dVertex
10
1270.530000000000
20
354.710000000000
30
0.0
0
SEQEND
5
885
100
AcDbEntity
8
0-6_2_5
0
LINE
5
886
100
AcDbEntity
8
0-6_2_5
6
CONTINUOUS
62
7
100
AcDbLine
10
1274.570000000000
20
374.430000000000
30
0.0
11
1270.460000000000
21
356.910000000000
31
0.0
0
LINE
5
887
100
AcDbEntity
8
0-6_2_5
6
CONTINUOUS
62
7
100
AcDbLine
10
1468.980000000000
20
356.410000000000
30
0.0
11
1488.380000000000
21
361.260000000000
31
0.0
0
LINE
5
888
100
AcDbEntity
8
0-6_2_5
6
CONTINUOUS
62
7
100
AcDbLine
10
1468.830000000000
20
356.990000000000
30
0.0
11
1488.230000000000
21
361.850000000000
31
0.0
0
POLYLINE
5
889
100
AcDbEntity
8
0-6_2_5
6
CONTINUOUS
62
  7
100
AcDb2dPolyline
66
1
10
0.0
20
0.0
30
0.0
70
0
0
VERTEX
5
88a
100
AcDbEntity
8
0-6_2_5
6
CONTINUOUS
62
  7
100
AcDbVertex
100
AcDb2dVertex
10
1554.280000000000
20
377.120000000000
30
0.0
0
VERTEX
5
88b
100
AcDbEntity
8
0-6_2_5
6
CONTINUOUS
62
  7
100
AcDbVertex
100
AcDb2dVertex
10
1554.420000000000
20
376.540000000000
30
0.0
0
VERTEX
5
88c
100
AcDbEntity
8
0-6_2_5
6
CONTINUOUS
62
  7
100
AcDbVertex
100
AcDb2dVertex
10
1568.980000000000
20
380.180000000000
30
0.0
0
SEQEND
5
88d
100
AcDbEntity
8
0-6_2_5
0
LINE
5
88e
100
AcDbEntity
8
0-6_2_5
6
CONTINUOUS
62
7
100
AcDbLine
10
1554.280000000000
20
377.120000000000
30
0.0
11
1568.830000000000
21
380.760000000000
31
0.0
0
LINE
5
88f
100
AcDbEntity
8
0-6_2_5
6
CONTINUOUS
62
7
100
AcDbLine
10
1554.860000000000
20
374.790000000000
30
0.0
11
1569.410000000000
21
378.430000000000
31
0.0
0
LINE
5
890
100
AcDbEntity
8
0-6_2_5
6
CONTINUOUS
62
7
100
AcDbLine
10
1555.010000000000
20
374.210000000000
30
0.0
11
1569.560000000000
21
377.850000000000
31
0.0
0
LINE
5
891
100
AcDbEntity
8
0-6_2_5
6
CONTINUOUS
62
7
100
AcDbLine
10
1554.860000000000
20
374.790000000000
30
0.0
11
1488.230000000000
21
361.850000000000
31
0.0
0
LINE
5
892
100
AcDbEntity
8
0-6_2_5
6
CONTINUOUS
62
7
100
AcDbLine
10
1488.380000000000
20
361.260000000000
30
0.0
11
1555.010000000000
21
374.210000000000
31
0.0
0
LINE
5
893
100
AcDbEntity
8
0-6_2_5
6
CONTINUOUS
62
7
100
AcDbLine
10
1469.270000000000
20
355.250000000000
30
0.0
11
1488.670000000000
21
360.100000000000
31
0.0
0
LINE
5
894
100
AcDbEntity
8
0-6_2_5
6
CONTINUOUS
62
7
100
AcDbLine
10
1469.120000000000
20
355.830000000000
30
0.0
11
1488.530000000000
21
360.680000000000
31
0.0
0
LINE
5
895
100
AcDbEntity
8
0-6_2_5
6
CONTINUOUS
62
7
100
AcDbLine
10
1483.970000000000
20
358.300000000000
30
0.0
11
1484.110000000000
21
357.720000000000
31
0.0
0
LINE
5
896
100
AcDbEntity
8
0-6_2_5
6
CONTINUOUS
62
7
100
AcDbLine
10
1468.440000000000
20
354.420000000000
30
0.0
11
1483.970000000000
21
358.300000000000
31
0.0
0
LINE
5
897
100
AcDbEntity
8
0-6_2_5
6
CONTINUOUS
62
7
100
AcDbLine
10
1467.720000000000
20
354.860000000000
30
0.0
11
1466.840000000000
21
358.340000000000
31
0.0
0
LINE
5
898
100
AcDbEntity
8
0-6_2_5
6
CONTINUOUS
62
7
100
AcDbLine
10
1468.590000000000
20
353.840000000000
30
0.0
11
1484.110000000000
21
357.720000000000
31
0.0
0
LINE
5
899
100
AcDbEntity
8
0-6_2_5
6
CONTINUOUS
62
7
100
AcDbLine
10
1595.080000000000
20
387.940000000000
30
0.0
11
1466.970000000000
21
357.880000000000
31
0.0
0
LINE
5
89a
100
AcDbEntity
8
0-6_2_5
6
CONTINUOUS
62
7
100
AcDbLine
10
1594.850000000000
20
388.920000000000
30
0.0
11
1466.750000000000
21
358.860000000000
31
0.0
0
POLYLINE
5
89b
100
AcDbEntity
8
0-6_2_5
6
CONTINUOUS
62
  7
100
AcDb2dPolyline
66
1
10
0.0
20
0.0
30
0.0
70
0
0
VERTEX
5
89c
100
AcDbEntity
8
0-6_2_5
6
CONTINUOUS
62
  7
100
AcDbVertex
100
AcDb2dVertex
10
1591.200000000000
20
404.490000000000
30
0.0
0
VERTEX
5
89d
100
AcDbEntity
8
0-6_2_5
6
CONTINUOUS
62
  7
100
AcDbVertex
100
AcDb2dVertex
10
1462.250000000000
20
374.240000000000
30
0.0
0
VERTEX
5
89e
100
AcDbEntity
8
0-6_2_5
6
CONTINUOUS
62
  7
100
AcDbVertex
100
AcDb2dVertex
10
1467.130000000000
20
354.710000000000
30
0.0
0
SEQEND
5
89f
100
AcDbEntity
8
0-6_2_5
0
LINE
5
8a0
100
AcDbEntity
8
0-6_2_5
6
CONTINUOUS
62
7
100
AcDbLine
10
1463.090000000000
20
374.430000000000
30
0.0
11
1467.200000000000
21
356.910000000000
31
0.0
0
LINE
5
8a1
100
AcDbEntity
8
0-5_2_4
6
CONTINUOUS
62
4
100
AcDbLine
10
1061.680000000000
20
438.210000000000
30
0.0
11
1061.680000000000
21
318.210000000000
31
0.0
0
LINE
5
8a2
100
AcDbEntity
8
0-5_2_4
6
CONTINUOUS
62
4
100
AcDbLine
10
1019.740000000000
20
318.210000000000
30
0.0
11
1061.680000000000
21
318.210000000000
31
0.0
0
LINE
5
8a3
100
AcDbEntity
8
0-5_2_4
6
CONTINUOUS
62
4
100
AcDbLine
10
1019.740000000000
20
438.210000000000
30
0.0
11
1061.680000000000
21
438.210000000000
31
0.0
0
POLYLINE
5
8a4
100
AcDbEntity
8
0-5_2_4
6
CONTINUOUS
62
  7
100
AcDb2dPolyline
66
1
10
0.0
20
0.0
30
0.0
70
0
0
VERTEX
5
8a5
100
AcDbEntity
8
0-5_2_4
6
CONTINUOUS
62
  7
100
AcDbVertex
100
AcDb2dVertex
10
926.510000000000
20
429.190000000000
30
0.0
0
VERTEX
5
8a6
100
AcDbEntity
8
0-5_2_4
6
CONTINUOUS
62
  7
100
AcDbVertex
100
AcDb2dVertex
10
925.910000000000
20
429.190000000000
30
0.0
0
VERTEX
5
8a7
100
AcDbEntity
8
0-5_2_4
6
CONTINUOUS
62
  7
100
AcDbVertex
100
AcDb2dVertex
10
925.910000000000
20
437.310000000000
30
0.0
0
SEQEND
5
8a8
100
AcDbEntity
8
0-5_2_4
0
LINE
5
8a9
100
AcDbEntity
8
0-5_2_4
6
CONTINUOUS
62
7
100
AcDbLine
10
926.510000000000
20
429.190000000000
30
0.0
11
926.510000000000
21
437.310000000000
31
0.0
0
LINE
5
8aa
100
AcDbEntity
8
0-5_2_4
6
DASHED
62
7
100
AcDbLine
10
925.310000000000
20
438.170000000000
30
0.0
11
925.310000000000
21
428.750000000000
31
0.0
0
LINE
5
8ab
100
AcDbEntity
8
0-5_2_4
6
CONTINUOUS
62
7
100
AcDbLine
10
927.710000000000
20
320.210000000000
30
0.0
11
927.710000000000
21
437.310000000000
31
0.0
0
LINE
5
8ac
100
AcDbEntity
8
0-5_2_4
6
CONTINUOUS
62
7
100
AcDbLine
10
927.110000000000
20
320.210000000000
30
0.0
11
927.110000000000
21
437.310000000000
31
0.0
0
LINE
5
8ad
100
AcDbEntity
8
0-5_2_4
6
DASHED
62
7
100
AcDbLine
10
925.910000000000
20
426.790000000000
30
0.0
11
925.910000000000
21
337.620000000000
31
0.0
0
LINE
5
8ae
100
AcDbEntity
8
0-5_2_4
6
DASHED
62
7
100
AcDbLine
10
925.310000000000
20
428.750000000000
30
0.0
11
925.910000000000
21
426.790000000000
31
0.0
0
LINE
5
8af
100
AcDbEntity
8
0-5_2_4
6
DASHED
62
7
100
AcDbLine
10
928.380000000000
20
442.890000000000
30
0.0
11
925.310000000000
21
438.170000000000
31
0.0
0
LINE
5
8b0
100
AcDbEntity
8
0-5_2_4
6
DASHED
62
7
100
AcDbLine
10
928.380000000000
20
316.610000000000
30
0.0
11
868.710000000000
21
316.610000000000
31
0.0
0
LINE
5
8b1
100
AcDbEntity
8
0-5_2_4
6
CONTINUOUS
62
7
100
AcDbLine
10
864.510000000000
20
276.610000000000
30
0.0
11
653.090000000000
21
276.610000000000
31
0.0
0
LINE
5
8b2
100
AcDbEntity
8
0-5_2_4
6
CONTINUOUS
62
7
100
AcDbLine
10
653.090000000000
20
276.010000000000
30
0.0
11
864.510000000000
21
276.010000000000
31
0.0
0
LINE
5
8b3
100
AcDbEntity
8
0-5_2_4
6
CONTINUOUS
62
7
100
AcDbLine
10
800.420000000000
20
274.810000000000
30
0.0
11
790.160000000000
21
305.150000000000
31
0.0
0
LINE
5
8b4
100
AcDbEntity
8
0-5_2_4
6
CONTINUOUS
62
7
100
AcDbLine
10
866.110000000000
20
275.410000000000
30
0.0
11
866.110000000000
21
294.210000000000
31
0.0
0
LINE
5
8b5
100
AcDbEntity
8
0-5_2_4
6
CONTINUOUS
62
7
100
AcDbLine
10
865.510000000000
20
275.410000000000
30
0.0
11
865.510000000000
21
294.210000000000
31
0.0
0
LINE
5
8b6
100
AcDbEntity
8
0-5_2_4
6
CONTINUOUS
62
7
100
AcDbLine
10
866.110000000000
20
315.410000000000
30
0.0
11
866.110000000000
21
297.210000000000
31
0.0
0
LINE
5
8b7
100
AcDbEntity
8
0-5_2_4
6
CONTINUOUS
62
7
100
AcDbLine
10
865.510000000000
20
315.410000000000
30
0.0
11
865.510000000000
21
297.210000000000
31
0.0
0
LINE
5
8b8
100
AcDbEntity
8
0-5_2_4
6
CONTINUOUS
62
7
100
AcDbLine
10
653.090000000000
20
293.010000000000
30
0.0
11
864.510000000000
21
293.010000000000
31
0.0
0
POLYLINE
5
8b9
100
AcDbEntity
8
0-5_2_4
6
CONTINUOUS
62
  7
100
AcDb2dPolyline
66
1
10
0.0
20
0.0
30
0.0
70
0
0
VERTEX
5
8ba
100
AcDbEntity
8
0-5_2_4
6
CONTINUOUS
62
  7
100
AcDbVertex
100
AcDb2dVertex
10
653.090000000000
20
293.010000000000
30
0.0
0
VERTEX
5
8bb
100
AcDbEntity
8
0-5_2_4
6
CONTINUOUS
62
  7
100
AcDbVertex
100
AcDb2dVertex
10
864.510000000000
20
293.010000000000
30
0.0
0
VERTEX
5
8bc
100
AcDbEntity
8
0-5_2_4
6
CONTINUOUS
62
  7
100
AcDbVertex
100
AcDb2dVertex
10
864.510000000000
20
276.010000000000
30
0.0
0
SEQEND
5
8bd
100
AcDbEntity
8
0-5_2_4
0
LINE
5
8be
100
AcDbEntity
8
0-5_2_4
6
CONTINUOUS
62
7
100
AcDbLine
10
701.890000000000
20
293.010000000000
30
0.0
11
686.450000000000
21
338.630000000000
31
0.0
0
LINE
5
8bf
100
AcDbEntity
8
0-5_2_4
6
CONTINUOUS
62
3
100
AcDbLine
10
929.710000000000
20
417.310000000000
30
0.0
11
929.710000000000
21
527.440000000000
31
0.0
0
LINE
5
8c0
100
AcDbEntity
8
0-5_2_4
6
CONTINUOUS
62
7
100
AcDbLine
10
909.710000000000
20
324.610000000000
30
0.0
11
909.710000000000
21
527.440000000000
31
0.0
0
LINE
5
8c1
100
AcDbEntity
8
0-5_2_4
6
CONTINUOUS
62
7
100
AcDbLine
10
924.710000000000
20
324.610000000000
30
0.0
11
924.710000000000
21
527.440000000000
31
0.0
0
LINE
5
8c2
100
AcDbEntity
8
0-5_2_4
6
DASHED
62
7
100
AcDbLine
10
928.380000000000
20
316.610000000000
30
0.0
11
928.380000000000
21
527.440000000000
31
0.0
0
LINE
5
8c3
100
AcDbEntity
8
0-5_2_4
6
DASHED
62
7
100
AcDbLine
10
929.040000000000
20
318.610000000000
30
0.0
11
929.040000000000
21
527.440000000000
31
0.0
0
LINE
5
8c4
100
AcDbEntity
8
0-5_2_4
6
CONTINUOUS
62
4
100
AcDbLine
10
909.710000000000
20
456.770000000000
30
0.0
11
924.710000000000
21
471.770000000000
31
0.0
0
LINE
5
8c5
100
AcDbEntity
8
0-5_2_4
6
CONTINUOUS
62
4
100
AcDbLine
10
909.710000000000
20
459.600000000000
30
0.0
11
924.710000000000
21
474.600000000000
31
0.0
0
LINE
5
8c6
100
AcDbEntity
8
0-5_2_4
6
CONTINUOUS
62
4
100
AcDbLine
10
909.710000000000
20
485.060000000000
30
0.0
11
924.710000000000
21
500.060000000000
31
0.0
0
LINE
5
8c7
100
AcDbEntity
8
0-5_2_4
6
CONTINUOUS
62
4
100
AcDbLine
10
909.710000000000
20
487.890000000000
30
0.0
11
924.710000000000
21
502.890000000000
31
0.0
0
LINE
5
8c8
100
AcDbEntity
8
0-5_2_4
6
CONTINUOUS
62
4
100
AcDbLine
10
909.710000000000
20
516.170000000000
30
0.0
11
920.980000000000
21
527.440000000000
31
0.0
0
LINE
5
8c9
100
AcDbEntity
8
0-5_2_4
6
CONTINUOUS
62
4
100
AcDbLine
10
909.710000000000
20
513.340000000000
30
0.0
11
923.810000000000
21
527.440000000000
31
0.0
0
LINE
5
8ca
100
AcDbEntity
8
0-4_2_3
6
CONTINUOUS
62
7
100
AcDbLine
10
226.730000000000
20
300.290000000000
30
0.0
11
227.800000000000
21
296.290000000000
31
0.0
0
LINE
5
8cb
100
AcDbEntity
8
0-4_2_3
6
CONTINUOUS
62
7
100
AcDbLine
10
226.730000000000
20
300.290000000000
30
0.0
11
229.650000000000
21
297.360000000000
31
0.0
0
LINE
5
8cc
100
AcDbEntity
8
0-4_2_3
6
CONTINUOUS
62
7
100
AcDbLine
10
226.730000000000
20
300.290000000000
30
0.0
11
238.270000000000
21
280.290000000000
31
0.0
0
LINE
5
8cd
100
AcDbEntity
8
0-4_2_3
6
CONTINUOUS
62
4
100
AcDbLine
10
355.820000000000
20
325.650000000000
30
0.0
11
374.010000000000
21
355.970000000000
31
0.0
0
LINE
5
8ce
100
AcDbEntity
8
0-4_2_3
6
CONTINUOUS
62
4
100
AcDbLine
10
328.380000000000
20
318.790000000000
30
0.0
11
346.570000000000
21
349.110000000000
31
0.0
0
LINE
5
8cf
100
AcDbEntity
8
0-4_2_3
6
CONTINUOUS
62
4
100
AcDbLine
10
300.940000000000
20
311.930000000000
30
0.0
11
319.130000000000
21
342.250000000000
31
0.0
0
LINE
5
8d0
100
AcDbEntity
8
0-4_2_3
6
CONTINUOUS
62
4
100
AcDbLine
10
273.500000000000
20
305.070000000000
30
0.0
11
291.690000000000
21
335.390000000000
31
0.0
0
LINE
5
8d1
100
AcDbEntity
8
0-4_2_3
6
CONTINUOUS
62
4
100
AcDbLine
10
246.060000000000
20
298.210000000000
30
0.0
11
264.250000000000
21
328.530000000000
31
0.0
0
LINE
5
8d2
100
AcDbEntity
8
0-4_2_3
6
CONTINUOUS
62
4
100
AcDbLine
10
218.620000000000
20
291.350000000000
30
0.0
11
236.810000000000
21
321.670000000000
31
0.0
0
LINE
5
8d3
100
AcDbEntity
8
0-4_2_3
6
CONTINUOUS
62
4
100
AcDbLine
10
197.020000000000
20
311.720000000000
30
0.0
11
227.340000000000
21
293.530000000000
31
0.0
0
LINE
5
8d4
100
AcDbEntity
8
0-4_2_3
6
CONTINUOUS
62
4
100
AcDbLine
10
224.460000000000
20
318.580000000000
30
0.0
11
254.780000000000
21
300.390000000000
31
0.0
0
LINE
5
8d5
100
AcDbEntity
8
0-4_2_3
6
CONTINUOUS
62
4
100
AcDbLine
10
251.900000000000
20
325.440000000000
30
0.0
11
282.220000000000
21
307.250000000000
31
0.0
0
LINE
5
8d6
100
AcDbEntity
8
0-4_2_3
6
CONTINUOUS
62
4
100
AcDbLine
10
279.340000000000
20
332.300000000000
30
0.0
11
309.660000000000
21
314.110000000000
31
0.0
0
LINE
5
8d7
100
AcDbEntity
8
0-4_2_3
6
CONTINUOUS
62
4
100
AcDbLine
10
306.780000000000
20
339.160000000000
30
0.0
11
337.100000000000
21
320.970000000000
31
0.0
0
LINE
5
8d8
100
AcDbEntity
8
0-4_2_3
6
CONTINUOUS
62
4
100
AcDbLine
10
334.220000000000
20
346.020000000000
30
0.0
11
364.540000000000
21
327.830000000000
31
0.0
0
LINE
5
8d9
100
AcDbEntity
8
0-4_2_3
6
CONTINUOUS
62
7
100
AcDbLine
10
276.700000000000
20
372.360000000000
30
0.0
11
276.850000000000
21
371.780000000000
31
0.0
0
LINE
5
8da
100
AcDbEntity
8
0-4_2_3
6
CONTINUOUS
62
7
100
AcDbLine
10
281.700000000000
20
372.990000000000
30
0.0
11
276.850000000000
21
371.780000000000
31
0.0
0
LINE
5
8db
100
AcDbEntity
8
0-4_2_3
6
CONTINUOUS
62
7
100
AcDbLine
10
281.550000000000
20
373.570000000000
30
0.0
11
276.700000000000
21
372.360000000000
31
0.0
0
LINE
5
8dc
100
AcDbEntity
8
0-4_2_3
6
CONTINUOUS
62
4
100
AcDbLine
10
383.260000000000
20
332.510000000000
30
0.0
11
387.760000000000
21
340.020000000000
31
0.0
0
LINE
5
8dd
100
AcDbEntity
8
0-4_2_3
6
CONTINUOUS
62
4
100
AcDbLine
10
361.660000000000
20
352.880000000000
30
0.0
11
388.580000000000
21
336.730000000000
31
0.0
0
LINE
5
8de
100
AcDbEntity
8
0-4_2_3
6
CONTINUOUS
62
3
100
AcDbLine
10
389.260000000000
20
334.010000000000
30
0.0
11
383.200000000000
21
358.270000000000
31
0.0
0
LINE
5
8df
100
AcDbEntity
8
0-4_2_3
6
CONTINUOUS
62
4
100
AcDbLine
10
218.220000000000
20
433.800000000000
30
0.0
11
208.250000000000
21
473.680000000000
31
0.0
0
LINE
5
8e0
100
AcDbEntity
8
0-4_2_3
6
CONTINUOUS
62
7
100
AcDbLine
10
288.440000000000
20
340.660000000000
30
0.0
11
288.290000000000
21
341.240000000000
31
0.0
0
LINE
5
8e1
100
AcDbEntity
8
0-4_2_3
6
CONTINUOUS
62
7
100
AcDbLine
10
359.000000000000
20
368.830000000000
30
0.0
11
358.860000000000
21
369.410000000000
31
0.0
0
LINE
5
8e2
100
AcDbEntity
8
0-4_2_3
6
CONTINUOUS
62
7
100
AcDbLine
10
259.630000000000
20
345.000000000000
30
0.0
11
254.780000000000
21
364.400000000000
31
0.0
0
LINE
5
8e3
100
AcDbEntity
8
0-4_2_3
6
CONTINUOUS
62
7
100
AcDbLine
10
241.830000000000
20
326.330000000000
30
0.0
11
232.120000000000
21
323.900000000000
31
0.0
0
POLYLINE
5
8e4
100
AcDbEntity
8
0-4_2_3
6
CONTINUOUS
62
  7
100
AcDb2dPolyline
66
1
10
0.0
20
0.0
30
0.0
70
0
0
VERTEX
5
8e5
100
AcDbEntity
8
0-4_2_3
6
CONTINUOUS
62
  7
100
AcDbVertex
100
AcDb2dVertex
10
241.830000000000
20
326.330000000000
30
0.0
0
VERTEX
5
8e6
100
AcDbEntity
8
0-4_2_3
6
CONTINUOUS
62
  7
100
AcDbVertex
100
AcDb2dVertex
10
241.970000000000
20
325.740000000000
30
0.0
0
VERTEX
5
8e7
100
AcDbEntity
8
0-4_2_3
6
CONTINUOUS
62
  7
100
AcDbVertex
100
AcDb2dVertex
10
232.270000000000
20
323.320000000000
30
0.0
0
SEQEND
5
8e8
100
AcDbEntity
8
0-4_2_3
0
LINE
5
8e9
100
AcDbEntity
8
0-4_2_3
6
CONTINUOUS
62
7
100
AcDbLine
10
261.330000000000
20
330.590000000000
30
0.0
11
231.950000000000
21
324.480000000000
31
0.0
0
LINE
5
8ea
100
AcDbEntity
8
0-4_2_3
6
CONTINUOUS
62
7
100
AcDbLine
10
238.770000000000
20
361.640000000000
30
0.0
11
281.840000000000
21
372.410000000000
31
0.0
0
LINE
5
8eb
100
AcDbEntity
8
0-4_2_3
6
CONTINUOUS
62
7
100
AcDbLine
10
238.910000000000
20
361.060000000000
30
0.0
11
281.990000000000
21
371.830000000000
31
0.0
0
LINE
5
8ec
100
AcDbEntity
8
0-4_2_3
6
CONTINUOUS
62
7
100
AcDbLine
10
239.640000000000
20
358.150000000000
30
0.0
11
252.250000000000
21
361.300000000000
31
0.0
0
LINE
5
8ed
100
AcDbEntity
8
0-4_2_3
6
CONTINUOUS
62
7
100
AcDbLine
10
252.110000000000
20
361.880000000000
30
0.0
11
252.250000000000
21
361.300000000000
31
0.0
0
LINE
5
8ee
100
AcDbEntity
8
0-4_2_3
6
CONTINUOUS
62
7
100
AcDbLine
10
239.500000000000
20
358.730000000000
30
0.0
11
252.110000000000
21
361.880000000000
31
0.0
0
LINE
5
8ef
100
AcDbEntity
8
0-4_2_3
6
CONTINUOUS
62
7
100
AcDbLine
10
253.180000000000
20
363.390000000000
30
0.0
11
239.210000000000
21
359.890000000000
31
0.0
0
LINE
5
8f0
100
AcDbEntity
8
0-4_2_3
6
CONTINUOUS
62
7
100
AcDbLine
10
239.060000000000
20
360.480000000000
30
0.0
11
253.030000000000
21
363.970000000000
31
0.0
0
LINE
5
8f1
100
AcDbEntity
8
0-4_2_3
6
CONTINUOUS
62
7
100
AcDbLine
10
238.330000000000
20
363.390000000000
30
0.0
11
281.410000000000
21
374.150000000000
31
0.0
0
LINE
5
8f2
100
AcDbEntity
8
0-4_2_3
6
DASHED
62
7
100
AcDbLine
10
274.410000000000
20
371.170000000000
30
0.0
11
276.700000000000
21
372.360000000000
31
0.0
0
POLYLINE
5
8f3
100
AcDbEntity
8
0-4_2_3
6
DASHED
62
  7
100
AcDb2dPolyline
66
1
10
0.0
20
0.0
30
0.0
70
0
0
VERTEX
5
8f4
100
AcDbEntity
8
0-4_2_3
6
DASHED
62
  7
100
AcDbVertex
100
AcDb2dVertex
10
281.560000000000
20
373.570000000000
30
0.0
0
VERTEX
5
8f5
100
AcDbEntity
8
0-4_2_3
6
DASHED
62
  7
100
AcDbVertex
100
AcDb2dVertex
10
289.310000000000
20
374.230000000000
30
0.0
0
VERTEX
5
8f6
100
AcDbEntity
8
0-4_2_3
6
DASHED
62
  7
100
AcDbVertex
100
AcDb2dVertex
10
318.130000000000
20
381.270000000000
30
0.0
0
SEQEND
5
8f7
100
AcDbEntity
8
0-4_2_3
0
LINE
5
8f8
100
AcDbEntity
8
0-4_2_3
6
CENTER2
62
7
100
AcDbLine
10
270.450000000000
20
354.020000000000
30
0.0
11
265.740000000000
21
372.860000000000
31
0.0
0
LINE
5
8f9
100
AcDbEntity
8
0-4_2_3
6
CONTINUOUS
62
4
100
AcDbLine
10
208.250000000000
20
473.680000000000
30
0.0
11
362.450000000000
21
512.230000000000
31
0.0
0
LINE
5
8fa
100
AcDbEntity
8
0-4_2_3
6
CONTINUOUS
62
4
100
AcDbLine
10
372.410000000000
20
472.350000000000
30
0.0
11
362.450000000000
21
512.230000000000
31
0.0
0
LINE
5
8fb
100
AcDbEntity
8
0-4_2_3
6
CONTINUOUS
62
4
100
AcDbLine
10
268.370000000000
20
357.180000000000
30
0.0
11
265.580000000000
21
368.340000000000
31
0.0
0
LINE
5
8fc
100
AcDbEntity
8
0-4_2_3
6
CONTINUOUS
62
4
100
AcDbLine
10
268.000000000000
20
368.950000000000
30
0.0
11
270.790000000000
21
357.790000000000
31
0.0
0
LINE
5
8fd
100
AcDbEntity
8
0-4_2_3
6
CONTINUOUS
62
4
100
AcDbLine
10
261.840000000000
20
367.820000000000
30
0.0
11
271.540000000000
21
370.250000000000
31
0.0
0
LINE
5
8fe
100
AcDbEntity
8
0-4_2_3
6
CONTINUOUS
62
4
100
AcDbLine
10
263.660000000000
20
368.790000000000
30
0.0
11
269.480000000000
21
370.250000000000
31
0.0
0
LINE
5
8ff
100
AcDbEntity
8
0-4_2_3
6
CONTINUOUS
62
4
100
AcDbLine
10
271.540000000000
20
370.250000000000
30
0.0
11
271.640000000000
21
369.860000000000
31
0.0
0
LINE
5
900
100
AcDbEntity
8
0-4_2_3
6
CONTINUOUS
62
4
100
AcDbLine
10
269.480000000000
20
370.250000000000
30
0.0
11
271.060000000000
21
370.120000000000
31
0.0
0
LINE
5
901
100
AcDbEntity
8
0-4_2_3
6
CONTINUOUS
62
4
100
AcDbLine
10
269.070000000000
20
365.690000000000
30
0.0
11
266.040000000000
21
365.450000000000
31
0.0
0
LINE
5
902
100
AcDbEntity
8
0-4_2_3
6
CONTINUOUS
62
4
100
AcDbLine
10
269.320000000000
20
364.720000000000
30
0.0
11
266.290000000000
21
364.480000000000
31
0.0
0
LINE
5
903
100
AcDbEntity
8
0-4_2_3
6
CONTINUOUS
62
4
100
AcDbLine
10
269.560000000000
20
363.750000000000
30
0.0
11
266.530000000000
21
363.510000000000
31
0.0
0
LINE
5
904
100
AcDbEntity
8
0-4_2_3
6
CONTINUOUS
62
4
100
AcDbLine
10
268.830000000000
20
366.660000000000
30
0.0
11
265.800000000000
21
366.420000000000
31
0.0
0
LINE
5
905
100
AcDbEntity
8
0-4_2_3
6
CONTINUOUS
62
4
100
AcDbLine
10
261.840000000000
20
367.820000000000
30
0.0
11
261.940000000000
21
367.430000000000
31
0.0
0
LINE
5
906
100
AcDbEntity
8
0-4_2_3
6
CONTINUOUS
62
4
100
AcDbLine
10
263.660000000000
20
368.790000000000
30
0.0
11
262.330000000000
21
367.940000000000
31
0.0
0
LINE
5
907
100
AcDbEntity
8
0-4_2_3
6
CONTINUOUS
62
4
100
AcDbLine
10
270.040000000000
20
361.810000000000
30
0.0
11
267.010000000000
21
361.570000000000
31
0.0
0
LINE
5
908
100
AcDbEntity
8
0-4_2_3
6
CONTINUOUS
62
4
100
AcDbLine
10
269.800000000000
20
362.780000000000
30
0.0
11
266.770000000000
21
362.540000000000
31
0.0
0
LINE
5
909
100
AcDbEntity
8
0-4_2_3
6
CONTINUOUS
62
4
100
AcDbLine
10
270.290000000000
20
360.840000000000
30
0.0
11
267.260000000000
21
360.600000000000
31
0.0
0
LINE
5
90a
100
AcDbEntity
8
0-4_2_3
6
CONTINUOUS
62
4
100
AcDbLine
10
270.530000000000
20
359.870000000000
30
0.0
11
267.500000000000
21
359.630000000000
31
0.0
0
LINE
5
90b
100
AcDbEntity
8
0-4_2_3
6
CONTINUOUS
62
4
100
AcDbLine
10
269.820000000000
20
356.520000000000
30
0.0
11
268.370000000000
21
357.180000000000
31
0.0
0
LINE
5
90c
100
AcDbEntity
8
0-4_2_3
6
CONTINUOUS
62
4
100
AcDbLine
10
270.790000000000
20
357.790000000000
30
0.0
11
269.820000000000
21
356.520000000000
31
0.0
0
POLYLINE
5
90d
100
AcDbEntity
8
0-4_2_3
6
CONTINUOUS
62
  4
100
AcDb2dPolyline
66
1
10
0.0
20
0.0
30
0.0
70
0
0
VERTEX
5
90e
100
AcDbEntity
8
0-4_2_3
6
CONTINUOUS
62
  4
100
AcDbVertex
100
AcDb2dVertex
10
269.220000000000
20
356.880000000000
30
0.0
0
VERTEX
5
90f
100
AcDbEntity
8
0-4_2_3
6
CONTINUOUS
62
  4
100
AcDbVertex
100
AcDb2dVertex
10
269.580000000000
20
357.490000000000
30
0.0
0
VERTEX
5
910
100
AcDbEntity
8
0-4_2_3
6
CONTINUOUS
62
  4
100
AcDbVertex
100
AcDb2dVertex
10
269.090000000000
20
358.070000000000
30
0.0
0
VERTEX
5
911
100
AcDbEntity
8
0-4_2_3
6
CONTINUOUS
62
  4
100
AcDbVertex
100
AcDb2dVertex
10
269.720000000000
20
358.680000000000
30
0.0
0
VERTEX
5
912
100
AcDbEntity
8
0-4_2_3
6
CONTINUOUS
62
  4
100
AcDbVertex
100
AcDb2dVertex
10
270.790000000000
20
357.790000000000
30
0.0
0
SEQEND
5
913
100
AcDbEntity
8
0-4_2_3
0
LINE
5
914
100
AcDbEntity
8
0-4_2_3
6
CONTINUOUS
62
4
100
AcDbLine
10
261.940000000000
20
367.430000000000
30
0.0
11
271.640000000000
21
369.860000000000
31
0.0
0
LINE
5
915
100
AcDbEntity
8
0-4_2_3
6
CONTINUOUS
62
7
100
AcDbLine
10
238.480000000000
20
362.800000000000
30
0.0
11
281.550000000000
21
373.570000000000
31
0.0
0
LINE
5
916
100
AcDbEntity
8
0-4_2_3
6
DASHED
62
7
100
AcDbLine
10
238.910000000000
20
362.290000000000
30
0.0
11
261.020000000000
21
367.820000000000
31
0.0
0
LINE
5
917
100
AcDbEntity
8
0-4_2_3
6
DASHED
62
7
100
AcDbLine
10
262.220000000000
20
368.580000000000
30
0.0
11
261.020000000000
21
367.820000000000
31
0.0
0
LINE
5
918
100
AcDbEntity
8
0-4_2_3
6
DASHED
62
7
100
AcDbLine
10
262.220000000000
20
368.580000000000
30
0.0
11
266.540000000000
21
369.660000000000
31
0.0
0
LINE
5
919
100
AcDbEntity
8
0-4_2_3
6
DASHED
62
7
100
AcDbLine
10
270.850000000000
20
370.740000000000
30
0.0
11
266.540000000000
21
369.660000000000
31
0.0
0
POLYLINE
5
91a
100
AcDbEntity
8
0-4_2_3
6
DASHED
62
  7
100
AcDb2dPolyline
66
1
10
0.0
20
0.0
30
0.0
70
0
0
VERTEX
5
91b
100
AcDbEntity
8
0-4_2_3
6
DASHED
62
  7
100
AcDbVertex
100
AcDb2dVertex
10
270.850000000000
20
370.740000000000
30
0.0
0
VERTEX
5
91c
100
AcDbEntity
8
0-4_2_3
6
DASHED
62
  7
100
AcDbVertex
100
AcDb2dVertex
10
272.270000000000
20
370.630000000000
30
0.0
0
VERTEX
5
91d
100
AcDbEntity
8
0-4_2_3
6
DASHED
62
  7
100
AcDbVertex
100
AcDb2dVertex
10
274.410000000000
20
371.170000000000
30
0.0
0
SEQEND
5
91e
100
AcDbEntity
8
0-4_2_3
0
LINE
5
91f
100
AcDbEntity
8
0-4_2_3
6
CONTINUOUS
62
7
100
AcDbLine
10
363.140000000000
20
393.660000000000
30
0.0
11
362.880000000000
21
397.790000000000
31
0.0
0
LINE
5
920
100
AcDbEntity
8
0-4_2_3
6
CONTINUOUS
62
7
100
AcDbLine
10
363.140000000000
20
393.660000000000
30
0.0
11
360.850000000000
21
397.110000000000
31
0.0
0
LINE
5
921
100
AcDbEntity
8
0-4_2_3
6
CONTINUOUS
62
7
100
AcDbLine
10
182.760000000000
20
310.320000000000
30
0.0
11
182.490000000000
21
314.450000000000
31
0.0
0
LINE
5
922
100
AcDbEntity
8
0-4_2_3
6
CONTINUOUS
62
7
100
AcDbLine
10
363.140000000000
20
393.660000000000
30
0.0
11
349.940000000000
21
432.670000000000
31
0.0
0
LINE
5
923
100
AcDbEntity
8
0-4_2_3
6
CONTINUOUS
62
7
100
AcDbLine
10
297.650000000000
20
354.110000000000
30
0.0
11
297.380000000000
21
358.240000000000
31
0.0
0
LINE
5
924
100
AcDbEntity
8
0-4_2_3
6
CONTINUOUS
62
7
100
AcDbLine
10
297.650000000000
20
354.110000000000
30
0.0
11
295.350000000000
21
357.550000000000
31
0.0
0
LINE
5
925
100
AcDbEntity
8
0-4_2_3
6
CONTINUOUS
62
7
100
AcDbLine
10
338.440000000000
20
374.310000000000
30
0.0
11
338.180000000000
21
378.440000000000
31
0.0
0
LINE
5
926
100
AcDbEntity
8
0-4_2_3
6
CONTINUOUS
62
7
100
AcDbLine
10
338.440000000000
20
374.310000000000
30
0.0
11
336.150000000000
21
377.750000000000
31
0.0
0
LINE
5
927
100
AcDbEntity
8
0-4_2_3
6
CONTINUOUS
62
7
100
AcDbLine
10
336.180000000000
20
354.330000000000
30
0.0
11
335.910000000000
21
358.460000000000
31
0.0
0
LINE
5
928
100
AcDbEntity
8
0-4_2_3
6
CONTINUOUS
62
7
100
AcDbLine
10
336.180000000000
20
354.330000000000
30
0.0
11
333.890000000000
21
357.770000000000
31
0.0
0
LINE
5
929
100
AcDbEntity
8
0-4_2_3
6
CONTINUOUS
62
7
100
AcDbLine
10
336.180000000000
20
354.330000000000
30
0.0
11
316.660000000000
21
412.030000000000
31
0.0
0
LINE
5
92a
100
AcDbEntity
8
0-4_2_3
6
CONTINUOUS
62
7
100
AcDbLine
10
338.440000000000
20
374.310000000000
30
0.0
11
325.680000000000
21
412.030000000000
31
0.0
0
LINE
5
92b
100
AcDbEntity
8
0-4_2_3
6
CONTINUOUS
62
7
100
AcDbLine
10
252.190000000000
20
364.660000000000
30
0.0
11
251.930000000000
21
368.790000000000
31
0.0
0
LINE
5
92c
100
AcDbEntity
8
0-4_2_3
6
CONTINUOUS
62
7
100
AcDbLine
10
252.190000000000
20
364.660000000000
30
0.0
11
249.900000000000
21
368.110000000000
31
0.0
0
LINE
5
92d
100
AcDbEntity
8
0-4_2_3
6
CONTINUOUS
62
7
100
AcDbLine
10
252.190000000000
20
364.660000000000
30
0.0
11
247.270000000000
21
379.230000000000
31
0.0
0
LINE
5
92e
100
AcDbEntity
8
0-4_2_3
6
CONTINUOUS
62
3
100
AcDbLine
10
323.480000000000
20
353.070000000000
30
0.0
11
324.060000000000
21
346.870000000000
31
0.0
0
LINE
5
92f
100
AcDbEntity
8
0-4_2_3
6
CONTINUOUS
62
3
100
AcDbLine
10
324.180000000000
20
353.140000000000
30
0.0
11
324.750000000000
21
346.940000000000
31
0.0
0
LINE
5
930
100
AcDbEntity
8
0-4_2_3
6
CONTINUOUS
62
3
100
AcDbLine
10
325.430000000000
20
355.360000000000
30
0.0
11
329.020000000000
21
355.610000000000
31
0.0
0
LINE
5
931
100
AcDbEntity
8
0-4_2_3
6
CONTINUOUS
62
3
100
AcDbLine
10
329.070000000000
20
354.920000000000
30
0.0
11
329.020000000000
21
355.610000000000
31
0.0
0
LINE
5
932
100
AcDbEntity
8
0-4_2_3
6
CONTINUOUS
62
3
100
AcDbLine
10
325.470000000000
20
354.660000000000
30
0.0
11
329.070000000000
21
354.920000000000
31
0.0
0
LINE
5
933
100
AcDbEntity
8
0-4_2_3
6
CONTINUOUS
62
3
100
AcDbLine
10
293.290000000000
20
351.340000000000
30
0.0
11
302.650000000000
21
341.000000000000
31
0.0
0
LINE
5
934
100
AcDbEntity
8
0-4_2_3
6
CONTINUOUS
62
3
100
AcDbLine
10
292.800000000000
20
350.850000000000
30
0.0
11
302.160000000000
21
340.500000000000
31
0.0
0
LINE
5
935
100
AcDbEntity
8
0-4_2_3
6
CONTINUOUS
62
3
100
AcDbLine
10
288.160000000000
20
348.530000000000
30
0.0
11
290.140000000000
21
351.130000000000
31
0.0
0
LINE
5
936
100
AcDbEntity
8
0-4_2_3
6
CONTINUOUS
62
3
100
AcDbLine
10
290.700000000000
20
350.710000000000
30
0.0
11
288.720000000000
21
348.110000000000
31
0.0
0
LINE
5
937
100
AcDbEntity
8
0-4_2_3
6
CONTINUOUS
62
3
100
AcDbLine
10
274.940000000000
20
344.190000000000
30
0.0
11
287.560000000000
21
347.350000000000
31
0.0
0
LINE
5
938
100
AcDbEntity
8
0-4_2_3
6
CONTINUOUS
62
3
100
AcDbLine
10
275.140000000000
20
341.990000000000
30
0.0
11
287.820000000000
21
342.910000000000
31
0.0
0
LINE
5
939
100
AcDbEntity
8
0-4_2_3
6
CONTINUOUS
62
3
100
AcDbLine
10
275.190000000000
20
341.290000000000
30
0.0
11
287.880000000000
21
342.210000000000
31
0.0
0
LINE
5
93a
100
AcDbEntity
8
0-4_2_3
6
CONTINUOUS
62
3
100
AcDbLine
10
274.770000000000
20
344.870000000000
30
0.0
11
287.390000000000
21
348.020000000000
31
0.0
0
LINE
5
93b
100
AcDbEntity
8
0-4_2_3
6
CONTINUOUS
62
3
100
AcDbLine
10
323.000000000000
20
345.380000000000
30
0.0
11
314.850000000000
21
343.350000000000
31
0.0
0
LINE
5
93c
100
AcDbEntity
8
0-4_2_3
6
CONTINUOUS
62
3
100
AcDbLine
10
313.690000000000
20
342.220000000000
30
0.0
11
314.850000000000
21
343.350000000000
31
0.0
0
LINE
5
93d
100
AcDbEntity
8
0-4_2_3
6
CONTINUOUS
62
3
100
AcDbLine
10
313.880000000000
20
341.440000000000
30
0.0
11
315.200000000000
21
342.710000000000
31
0.0
0
LINE
5
93e
100
AcDbEntity
8
0-4_2_3
6
CONTINUOUS
62
3
100
AcDbLine
10
323.170000000000
20
344.700000000000
30
0.0
11
315.200000000000
21
342.710000000000
31
0.0
0
LINE
5
93f
100
AcDbEntity
8
0-4_2_3
6
CONTINUOUS
62
3
100
AcDbLine
10
303.980000000000
20
340.630000000000
30
0.0
11
312.130000000000
21
342.670000000000
31
0.0
0
LINE
5
940
100
AcDbEntity
8
0-4_2_3
6
CONTINUOUS
62
3
100
AcDbLine
10
313.690000000000
20
342.220000000000
30
0.0
11
312.130000000000
21
342.670000000000
31
0.0
0
LINE
5
941
100
AcDbEntity
8
0-4_2_3
6
CONTINUOUS
62
3
100
AcDbLine
10
304.150000000000
20
339.950000000000
30
0.0
11
312.120000000000
21
341.940000000000
31
0.0
0
LINE
5
942
100
AcDbEntity
8
0-4_2_3
6
CONTINUOUS
62
3
100
AcDbLine
10
313.880000000000
20
341.440000000000
30
0.0
11
312.120000000000
21
341.940000000000
31
0.0
0
LINE
5
943
100
AcDbEntity
8
0-4_2_3
6
CONTINUOUS
62
7
100
AcDbLine
10
288.290000000000
20
341.240000000000
30
0.0
11
274.320000000000
21
337.750000000000
31
0.0
0
LINE
5
944
100
AcDbEntity
8
0-4_2_3
6
CONTINUOUS
62
7
100
AcDbLine
10
288.440000000000
20
340.660000000000
30
0.0
11
273.890000000000
21
337.020000000000
31
0.0
0
POLYLINE
5
945
100
AcDbEntity
8
0-4_2_3
6
CONTINUOUS
62
  7
100
AcDb2dPolyline
66
1
10
0.0
20
0.0
30
0.0
70
0
0
VERTEX
5
946
100
AcDbEntity
8
0-4_2_3
6
CONTINUOUS
62
  7
100
AcDbVertex
100
AcDb2dVertex
10
377.320000000000
20
357.830000000000
30
0.0
0
VERTEX
5
947
100
AcDbEntity
8
0-4_2_3
6
CONTINUOUS
62
  7
100
AcDbVertex
100
AcDb2dVertex
10
373.680000000000
20
372.380000000000
30
0.0
0
VERTEX
5
948
100
AcDbEntity
8
0-4_2_3
6
CONTINUOUS
62
  7
100
AcDbVertex
100
AcDb2dVertex
10
330.020000000000
20
361.470000000000
30
0.0
0
SEQEND
5
949
100
AcDbEntity
8
0-4_2_3
0
LINE
5
94a
100
AcDbEntity
8
0-4_2_3
6
CONTINUOUS
62
7
100
AcDbLine
10
333.660000000000
20
346.910000000000
30
0.0
11
330.020000000000
21
361.470000000000
31
0.0
0
LINE
5
94b
100
AcDbEntity
8
0-4_2_3
6
CONTINUOUS
62
7
100
AcDbLine
10
377.320000000000
20
357.830000000000
30
0.0
11
333.660000000000
21
346.910000000000
31
0.0
0
LINE
5
94c
100
AcDbEntity
8
0-4_2_3
6
CONTINUOUS
62
7
100
AcDbLine
10
330.020000000000
20
361.470000000000
30
0.0
11
377.320000000000
21
357.830000000000
31
0.0
0
LINE
5
94d
100
AcDbEntity
8
0-4_2_3
6
CONTINUOUS
62
7
100
AcDbLine
10
376.040000000000
20
394.720000000000
30
0.0
11
254.780000000000
21
364.400000000000
31
0.0
0
LINE
5
94e
100
AcDbEntity
8
0-4_2_3
6
CONTINUOUS
62
7
100
AcDbLine
10
380.900000000000
20
375.320000000000
30
0.0
11
376.040000000000
21
394.720000000000
31
0.0
0
LINE
5
94f
100
AcDbEntity
8
0-4_2_3
6
CONTINUOUS
62
7
100
AcDbLine
10
380.900000000000
20
375.320000000000
30
0.0
11
259.630000000000
21
345.000000000000
31
0.0
0
LINE
5
950
100
AcDbEntity
8
0-4_2_3
6
CONTINUOUS
62
4
100
AcDbLine
10
191.180000000000
20
284.500000000000
30
0.0
11
209.370000000000
21
314.810000000000
31
0.0
0
LINE
5
951
100
AcDbEntity
8
0-4_2_3
6
CONTINUOUS
62
4
100
AcDbLine
10
169.580000000000
20
304.860000000000
30
0.0
11
199.900000000000
21
286.670000000000
31
0.0
0
LINE
5
952
100
AcDbEntity
8
0-4_2_3
6
CONTINUOUS
62
4
100
AcDbLine
10
163.740000000000
20
277.640000000000
30
0.0
11
181.930000000000
21
307.950000000000
31
0.0
0
LINE
5
953
100
AcDbEntity
8
0-4_2_3
6
CONTINUOUS
62
7
100
AcDbLine
10
359.000000000000
20
368.830000000000
30
0.0
11
271.990000000000
21
347.070000000000
31
0.0
0
LINE
5
954
100
AcDbEntity
8
0-4_2_3
6
CONTINUOUS
62
7
100
AcDbLine
10
274.320000000000
20
337.750000000000
30
0.0
11
271.990000000000
21
347.070000000000
31
0.0
0
LINE
5
955
100
AcDbEntity
8
0-4_2_3
6
CONTINUOUS
62
7
100
AcDbLine
10
358.860000000000
20
369.410000000000
30
0.0
11
271.270000000000
21
347.510000000000
31
0.0
0
LINE
5
956
100
AcDbEntity
8
0-4_2_3
6
CONTINUOUS
62
7
100
AcDbLine
10
273.890000000000
20
337.020000000000
30
0.0
11
271.270000000000
21
347.510000000000
31
0.0
0
LINE
5
957
100
AcDbEntity
8
0-4_2_3
6
CONTINUOUS
62
7
100
AcDbLine
10
297.650000000000
20
354.110000000000
30
0.0
11
284.190000000000
21
393.880000000000
31
0.0
0
LINE
5
958
100
AcDbEntity
8
0-4_2_3
6
CONTINUOUS
62
7
100
AcDbLine
10
261.200000000000
20
331.170000000000
30
0.0
11
231.830000000000
21
325.070000000000
31
0.0
0
LINE
5
959
100
AcDbEntity
8
0-4_2_3
6
CONTINUOUS
62
7
100
AcDbLine
10
261.660000000000
20
331.910000000000
30
0.0
11
253.900000000000
21
362.950000000000
31
0.0
0
LINE
5
95a
100
AcDbEntity
8
0-4_2_3
6
CONTINUOUS
62
7
100
AcDbLine
10
262.250000000000
20
332.050000000000
30
0.0
11
254.490000000000
21
363.090000000000
31
0.0
0
LINE
5
95b
100
AcDbEntity
8
0-4_2_3
6
CONTINUOUS
62
4
100
AcDbLine
10
318.240000000000
20
344.820000000000
30
0.0
11
308.540000000000
21
342.390000000000
31
0.0
0
LINE
5
95c
100
AcDbEntity
8
0-4_2_3
6
CONTINUOUS
62
4
100
AcDbLine
10
316.180000000000
20
344.820000000000
30
0.0
11
310.350000000000
21
343.360000000000
31
0.0
0
LINE
5
95d
100
AcDbEntity
8
0-4_2_3
6
CONTINUOUS
62
4
100
AcDbLine
10
308.540000000000
20
342.390000000000
30
0.0
11
308.630000000000
21
342.010000000000
31
0.0
0
LINE
5
95e
100
AcDbEntity
8
0-4_2_3
6
CONTINUOUS
62
4
100
AcDbLine
10
310.350000000000
20
343.360000000000
30
0.0
11
309.020000000000
21
342.510000000000
31
0.0
0
LINE
5
95f
100
AcDbEntity
8
0-4_2_3
6
CONTINUOUS
62
4
100
AcDbLine
10
318.240000000000
20
344.820000000000
30
0.0
11
318.330000000000
21
344.430000000000
31
0.0
0
LINE
5
960
100
AcDbEntity
8
0-4_2_3
6
CONTINUOUS
62
4
100
AcDbLine
10
316.180000000000
20
344.820000000000
30
0.0
11
317.750000000000
21
344.700000000000
31
0.0
0
LINE
5
961
100
AcDbEntity
8
0-4_2_3
6
CONTINUOUS
62
4
100
AcDbLine
10
318.330000000000
20
344.430000000000
30
0.0
11
308.630000000000
21
342.010000000000
31
0.0
0
LINE
5
962
100
AcDbEntity
8
0-4_2_3
6
CONTINUOUS
62
4
100
AcDbLine
10
317.030000000000
20
323.070000000000
30
0.0
11
319.840000000000
21
324.290000000000
31
0.0
0
LINE
5
963
100
AcDbEntity
8
0-4_2_3
6
CONTINUOUS
62
4
100
AcDbLine
10
317.980000000000
20
321.330000000000
30
0.0
11
319.820000000000
21
322.130000000000
31
0.0
0
LINE
5
964
100
AcDbEntity
8
0-4_2_3
6
CONTINUOUS
62
4
100
AcDbLine
10
318.920000000000
20
319.590000000000
30
0.0
11
319.800000000000
21
319.970000000000
31
0.0
0
LINE
5
965
100
AcDbEntity
8
0-4_2_3
6
CONTINUOUS
62
4
100
AcDbLine
10
319.550000000000
20
318.960000000000
30
0.0
11
316.190000000000
21
325.140000000000
31
0.0
0
LINE
5
966
100
AcDbEntity
8
0-4_2_3
6
CONTINUOUS
62
4
100
AcDbLine
10
319.550000000000
20
318.960000000000
30
0.0
11
319.600000000000
21
325.990000000000
31
0.0
0
LINE
5
967
100
AcDbEntity
8
0-4_2_3
6
CONTINUOUS
62
4
100
AcDbLine
10
315.800000000000
20
324.680000000000
30
0.0
11
319.980000000000
21
326.500000000000
31
0.0
0
LINE
5
968
100
AcDbEntity
8
0-4_2_3
6
CONTINUOUS
62
4
100
AcDbLine
10
315.310000000000
20
326.620000000000
30
0.0
11
319.500000000000
21
328.440000000000
31
0.0
0
LINE
5
969
100
AcDbEntity
8
0-4_2_3
6
CONTINUOUS
62
4
100
AcDbLine
10
314.830000000000
20
328.560000000000
30
0.0
11
319.010000000000
21
330.380000000000
31
0.0
0
LINE
5
96a
100
AcDbEntity
8
0-4_2_3
6
CONTINUOUS
62
4
100
AcDbLine
10
314.340000000000
20
330.500000000000
30
0.0
11
318.530000000000
21
332.320000000000
31
0.0
0
LINE
5
96b
100
AcDbEntity
8
0-4_2_3
6
CONTINUOUS
62
4
100
AcDbLine
10
313.860000000000
20
332.440000000000
30
0.0
11
318.040000000000
21
334.260000000000
31
0.0
0
LINE
5
96c
100
AcDbEntity
8
0-4_2_3
6
CONTINUOUS
62
4
100
AcDbLine
10
313.370000000000
20
334.380000000000
30
0.0
11
317.560000000000
21
336.200000000000
31
0.0
0
LINE
5
96d
100
AcDbEntity
8
0-4_2_3
6
CONTINUOUS
62
4
100
AcDbLine
10
316.210000000000
20
325.080000000000
30
0.0
11
311.780000000000
21
342.790000000000
31
0.0
0
LINE
5
96e
100
AcDbEntity
8
0-4_2_3
6
CONTINUOUS
62
4
100
AcDbLine
10
319.610000000000
20
325.930000000000
30
0.0
11
315.180000000000
21
343.640000000000
31
0.0
0
LINE
5
96f
100
AcDbEntity
8
0-4_2_3
6
CONTINUOUS
62
4
100
AcDbLine
10
312.890000000000
20
336.320000000000
30
0.0
11
317.070000000000
21
338.140000000000
31
0.0
0
LINE
5
970
100
AcDbEntity
8
0-4_2_3
6
CONTINUOUS
62
4
100
AcDbLine
10
312.400000000000
20
338.260000000000
30
0.0
11
316.590000000000
21
340.080000000000
31
0.0
0
LINE
5
971
100
AcDbEntity
8
0-4_2_3
6
CONTINUOUS
62
4
100
AcDbLine
10
311.920000000000
20
340.200000000000
30
0.0
11
316.100000000000
21
342.020000000000
31
0.0
0
LINE
5
972
100
AcDbEntity
8
0-4_2_3
6
CONTINUOUS
62
7
100
AcDbLine
10
254.780000000000
20
364.400000000000
30
0.0
11
380.900000000000
21
375.320000000000
31
0.0
0
LINE
5
973
100
AcDbEntity
8
0-4_2_3
6
CONTINUOUS
62
7
100
AcDbLine
10
182.760000000000
20
310.320000000000
30
0.0
11
180.460000000000
21
313.770000000000
31
0.0
0
LINE
5
974
100
AcDbEntity
8
0-4_2_3
6
CONTINUOUS
62
7
100
AcDbLine
10
182.760000000000
20
310.320000000000
30
0.0
11
173.360000000000
21
338.100000000000
31
0.0
0
LINE
5
975
100
AcDbEntity
8
0-4_2_3
6
CONTINUOUS
62
3
100
AcDbLine
10
288.270000000000
20
336.700000000000
30
0.0
11
151.450000000000
21
302.500000000000
31
0.0
0
LINE
5
976
100
AcDbEntity
8
0-4_2_3
6
CONTINUOUS
62
3
100
AcDbLine
10
288.440000000000
20
336.020000000000
30
0.0
11
151.450000000000
21
301.770000000000
31
0.0
0
POLYLINE
5
977
100
AcDbEntity
8
0-4_2_3
6
CONTINUOUS
62
  3
100
AcDb2dPolyline
66
1
10
0.0
20
0.0
30
0.0
70
0
0
VERTEX
5
978
100
AcDbEntity
8
0-4_2_3
6
CONTINUOUS
62
  3
100
AcDbVertex
100
AcDb2dVertex
10
291.980000000000
20
208.990000000000
30
0.0
0
VERTEX
5
979
100
AcDbEntity
8
0-4_2_3
6
CONTINUOUS
62
  3
100
AcDbVertex
100
AcDb2dVertex
10
336.030000000000
20
220.000000000000
30
0.0
0
VERTEX
5
97a
100
AcDbEntity
8
0-4_2_3
6
CONTINUOUS
62
  3
100
AcDbVertex
100
AcDb2dVertex
10
312.890000000000
20
312.550000000000
30
0.0
0
SEQEND
5
97b
100
AcDbEntity
8
0-4_2_3
0
LINE
5
97c
100
AcDbEntity
8
0-4_2_3
6
CONTINUOUS
62
3
100
AcDbLine
10
268.290000000000
20
303.770000000000
30
0.0
11
312.330000000000
21
314.780000000000
31
0.0
0
LINE
5
97d
100
AcDbEntity
8
0-4_2_3
6
CONTINUOUS
62
3
100
AcDbLine
10
312.890000000000
20
312.550000000000
30
0.0
11
268.840000000000
21
301.540000000000
31
0.0
0
LINE
5
97e
100
AcDbEntity
8
0-4_2_3
6
CONTINUOUS
62
3
100
AcDbLine
10
270.910000000000
20
283.810000000000
30
0.0
11
266.610000000000
21
300.980000000000
31
0.0
0
POLYLINE
5
97f
100
AcDbEntity
8
0-4_2_3
6
CONTINUOUS
62
  3
100
AcDb2dPolyline
66
1
10
0.0
20
0.0
30
0.0
70
0
0
VERTEX
5
980
100
AcDbEntity
8
0-4_2_3
6
CONTINUOUS
62
  3
100
AcDbVertex
100
AcDb2dVertex
10
268.840000000000
20
301.540000000000
30
0.0
0
VERTEX
5
981
100
AcDbEntity
8
0-4_2_3
6
CONTINUOUS
62
  3
100
AcDbVertex
100
AcDb2dVertex
10
273.140000000000
20
284.370000000000
30
0.0
0
VERTEX
5
982
100
AcDbEntity
8
0-4_2_3
6
CONTINUOUS
62
  3
100
AcDbVertex
100
AcDb2dVertex
10
270.910000000000
20
283.810000000000
30
0.0
0
SEQEND
5
983
100
AcDbEntity
8
0-4_2_3
0
LINE
5
984
100
AcDbEntity
8
0-4_2_3
6
CONTINUOUS
62
3
100
AcDbLine
10
287.690000000000
20
226.160000000000
30
0.0
11
291.980000000000
21
208.990000000000
31
0.0
0
POLYLINE
5
985
100
AcDbEntity
8
0-4_2_3
6
CONTINUOUS
62
  3
100
AcDb2dPolyline
66
1
10
0.0
20
0.0
30
0.0
70
0
0
VERTEX
5
986
100
AcDbEntity
8
0-4_2_3
6
CONTINUOUS
62
  3
100
AcDbVertex
100
AcDb2dVertex
10
289.750000000000
20
208.430000000000
30
0.0
0
VERTEX
5
987
100
AcDbEntity
8
0-4_2_3
6
CONTINUOUS
62
  3
100
AcDbVertex
100
AcDb2dVertex
10
285.460000000000
20
225.600000000000
30
0.0
0
VERTEX
5
988
100
AcDbEntity
8
0-4_2_3
6
CONTINUOUS
62
  3
100
AcDbVertex
100
AcDb2dVertex
10
287.690000000000
20
226.160000000000
30
0.0
0
SEQEND
5
989
100
AcDbEntity
8
0-4_2_3
0
LINE
5
98a
100
AcDbEntity
8
0-4_2_3
6
CONTINUOUS
62
3
100
AcDbLine
10
336.580000000000
20
217.770000000000
30
0.0
11
292.540000000000
21
206.760000000000
31
0.0
0
LINE
5
98b
100
AcDbEntity
8
0-4_2_3
6
CONTINUOUS
62
3
100
AcDbLine
10
315.120000000000
20
313.110000000000
30
0.0
11
338.260000000000
21
220.560000000000
31
0.0
0
LINE
5
98c
100
AcDbEntity
8
0-4_2_3
6
CONTINUOUS
62
3
100
AcDbLine
10
389.260000000000
20
334.010000000000
30
0.0
11
383.200000000000
21
358.270000000000
31
0.0
0
POLYLINE
5
98d
100
AcDbEntity
8
0-4_2_3
6
CONTINUOUS
62
  7
100
AcDb2dPolyline
66
1
10
0.0
20
0.0
30
0.0
70
0
0
VERTEX
5
98e
100
AcDbEntity
8
0-4_2_3
6
CONTINUOUS
62
  7
100
AcDbVertex
100
AcDb2dVertex
10
339.260000000000
20
166.900000000000
30
0.0
0
VERTEX
5
98f
100
AcDbEntity
8
0-4_2_3
6
CONTINUOUS
62
  7
100
AcDbVertex
100
AcDb2dVertex
10
359.260000000000
20
166.900000000000
30
0.0
0
VERTEX
5
990
100
AcDbEntity
8
0-4_2_3
6
CONTINUOUS
62
  7
100
AcDbVertex
100
AcDb2dVertex
10
359.260000000000
20
321.510000000000
30
0.0
0
SEQEND
5
991
100
AcDbEntity
8
0-4_2_3
0
LINE
5
992
100
AcDbEntity
8
0-4_2_3
6
CONTINUOUS
62
7
100
AcDbLine
10
339.260000000000
20
321.510000000000
30
0.0
11
359.260000000000
21
321.510000000000
31
0.0
0
LINE
5
993
100
AcDbEntity
8
0-4_2_3
6
CONTINUOUS
62
7
100
AcDbLine
10
339.260000000000
20
192.360000000000
30
0.0
11
344.260000000000
21
192.360000000000
31
0.0
0
LINE
5
994
100
AcDbEntity
8
0-4_2_3
6
CONTINUOUS
62
7
100
AcDbLine
10
344.260000000000
20
182.360000000000
30
0.0
11
344.260000000000
21
192.360000000000
31
0.0
0
LINE
5
995
100
AcDbEntity
8
0-4_2_3
6
CONTINUOUS
62
7
100
AcDbLine
10
339.260000000000
20
182.360000000000
30
0.0
11
344.260000000000
21
182.360000000000
31
0.0
0
LINE
5
996
100
AcDbEntity
8
0-4_2_3
6
CONTINUOUS
62
7
100
AcDbLine
10
344.260000000000
20
183.610000000000
30
0.0
11
342.810000000000
21
189.430000000000
31
0.0
0
LINE
5
997
100
AcDbEntity
8
0-4_2_3
6
CONTINUOUS
62
7
100
AcDbLine
10
339.260000000000
20
166.900000000000
30
0.0
11
339.260000000000
21
182.360000000000
31
0.0
0
LINE
5
998
100
AcDbEntity
8
0-4_2_3
6
CONTINUOUS
62
7
100
AcDbLine
10
339.260000000000
20
192.360000000000
30
0.0
11
339.260000000000
21
321.510000000000
31
0.0
0
LINE
5
999
100
AcDbEntity
8
0-4_2_3
6
CONTINUOUS
62
4
100
AcDbLine
10
339.260000000000
20
237.900000000000
30
0.0
11
359.260000000000
21
259.900000000000
31
0.0
0
LINE
5
99a
100
AcDbEntity
8
0-4_2_3
6
CONTINUOUS
62
4
100
AcDbLine
10
339.260000000000
20
223.040000000000
30
0.0
11
359.260000000000
21
245.040000000000
31
0.0
0
LINE
5
99b
100
AcDbEntity
8
0-4_2_3
6
CONTINUOUS
62
4
100
AcDbLine
10
339.260000000000
20
208.170000000000
30
0.0
11
359.260000000000
21
230.170000000000
31
0.0
0
LINE
5
99c
100
AcDbEntity
8
0-4_2_3
6
CONTINUOUS
62
4
100
AcDbLine
10
339.260000000000
20
193.300000000000
30
0.0
11
359.260000000000
21
215.300000000000
31
0.0
0
LINE
5
99d
100
AcDbEntity
8
0-4_2_3
6
CONTINUOUS
62
4
100
AcDbLine
10
342.290000000000
20
166.900000000000
30
0.0
11
359.260000000000
21
185.570000000000
31
0.0
0
LINE
5
99e
100
AcDbEntity
8
0-4_2_3
6
CONTINUOUS
62
4
100
AcDbLine
10
355.800000000000
20
166.900000000000
30
0.0
11
359.260000000000
21
170.710000000000
31
0.0
0
LINE
5
99f
100
AcDbEntity
8
0-4_2_3
6
CONTINUOUS
62
4
100
AcDbLine
10
339.260000000000
20
178.440000000000
30
0.0
11
342.830000000000
21
182.360000000000
31
0.0
0
LINE
5
9a0
100
AcDbEntity
8
0-4_2_3
6
CONTINUOUS
62
4
100
AcDbLine
10
344.260000000000
20
183.940000000000
30
0.0
11
359.260000000000
21
200.440000000000
31
0.0
0
LINE
5
9a1
100
AcDbEntity
8
0-4_2_3
6
CONTINUOUS
62
4
100
AcDbLine
10
339.260000000000
20
267.640000000000
30
0.0
11
359.260000000000
21
289.640000000000
31
0.0
0
LINE
5
9a2
100
AcDbEntity
8
0-4_2_3
6
CONTINUOUS
62
4
100
AcDbLine
10
339.260000000000
20
252.770000000000
30
0.0
11
359.260000000000
21
274.770000000000
31
0.0
0
LINE
5
9a3
100
AcDbEntity
8
0-4_2_3
6
CONTINUOUS
62
4
100
AcDbLine
10
339.260000000000
20
297.370000000000
30
0.0
11
359.260000000000
21
319.370000000000
31
0.0
0
LINE
5
9a4
100
AcDbEntity
8
0-4_2_3
6
CONTINUOUS
62
4
100
AcDbLine
10
339.260000000000
20
282.500000000000
30
0.0
11
359.260000000000
21
304.500000000000
31
0.0
0
LINE
5
9a5
100
AcDbEntity
8
0-4_2_3
6
CONTINUOUS
62
4
100
AcDbLine
10
339.260000000000
20
312.230000000000
30
0.0
11
347.700000000000
21
321.510000000000
31
0.0
0
LINE
5
9a6
100
AcDbEntity
8
0-4_2_3
6
CONTINUOUS
62
7
100
AcDbLine
10
339.260000000000
20
317.390000000000
30
0.0
11
315.530000000000
21
311.460000000000
31
0.0
0
LINE
5
9a7
100
AcDbEntity
8
0-4_2_3
6
CONTINUOUS
62
7
100
AcDbLine
10
360.260000000000
20
285.230000000000
30
0.0
11
360.860000000000
21
285.230000000000
31
0.0
0
LINE
5
9a8
100
AcDbEntity
8
0-4_2_3
6
CONTINUOUS
62
7
100
AcDbLine
10
360.260000000000
20
275.230000000000
30
0.0
11
360.260000000000
21
285.230000000000
31
0.0
0
LINE
5
9a9
100
AcDbEntity
8
0-4_2_3
6
CONTINUOUS
62
7
100
AcDbLine
10
360.860000000000
20
275.230000000000
30
0.0
11
360.860000000000
21
285.230000000000
31
0.0
0
LINE
5
9aa
100
AcDbEntity
8
0-4_2_3
6
CONTINUOUS
62
7
100
AcDbLine
10
362.060000000000
20
325.100000000000
30
0.0
11
362.060000000000
21
275.230000000000
31
0.0
0
LINE
5
9ab
100
AcDbEntity
8
0-4_2_3
6
CONTINUOUS
62
7
100
AcDbLine
10
361.460000000000
20
275.230000000000
30
0.0
11
361.460000000000
21
325.100000000000
31
0.0
0
LINE
5
9ac
100
AcDbEntity
8
0-4_2_3
6
CONTINUOUS
62
7
100
AcDbLine
10
387.520000000000
20
331.930000000000
30
0.0
11
362.520000000000
21
325.680000000000
31
0.0
0
LINE
5
9ad
100
AcDbEntity
8
0-4_2_3
6
CONTINUOUS
62
7
100
AcDbLine
10
387.370000000000
20
332.510000000000
30
0.0
11
362.370000000000
21
326.260000000000
31
0.0
0
POLYLINE
5
9ae
100
AcDbEntity
8
0-4_2_3
6
CONTINUOUS
62
  7
100
AcDb2dPolyline
66
1
10
0.0
20
0.0
30
0.0
70
0
0
VERTEX
5
9af
100
AcDbEntity
8
0-4_2_3
6
CONTINUOUS
62
  7
100
AcDbVertex
100
AcDb2dVertex
10
388.260000000000
20
331.350000000000
30
0.0
0
VERTEX
5
9b0
100
AcDbEntity
8
0-4_2_3
6
CONTINUOUS
62
  7
100
AcDbVertex
100
AcDb2dVertex
10
388.260000000000
20
312.040000000000
30
0.0
0
VERTEX
5
9b1
100
AcDbEntity
8
0-4_2_3
6
CONTINUOUS
62
  7
100
AcDbVertex
100
AcDb2dVertex
10
388.860000000000
20
312.040000000000
30
0.0
0
SEQEND
5
9b2
100
AcDbEntity
8
0-4_2_3
0
LINE
5
9b3
100
AcDbEntity
8
0-4_2_3
6
CONTINUOUS
62
7
100
AcDbLine
10
388.860000000000
20
331.350000000000
30
0.0
11
388.860000000000
21
312.040000000000
31
0.0
0
LINE
5
9b4
100
AcDbEntity
8
0-4_2_3
6
CONTINUOUS
62
7
100
AcDbLine
10
386.660000000000
20
327.040000000000
30
0.0
11
386.660000000000
21
312.040000000000
31
0.0
0
POLYLINE
5
9b5
100
AcDbEntity
8
0-4_2_3
6
CONTINUOUS
62
  7
100
AcDb2dPolyline
66
1
10
0.0
20
0.0
30
0.0
70
0
0
VERTEX
5
9b6
100
AcDbEntity
8
0-4_2_3
6
CONTINUOUS
62
  7
100
AcDbVertex
100
AcDb2dVertex
10
386.660000000000
20
327.040000000000
30
0.0
0
VERTEX
5
9b7
100
AcDbEntity
8
0-4_2_3
6
CONTINUOUS
62
  7
100
AcDbVertex
100
AcDb2dVertex
10
387.260000000000
20
327.040000000000
30
0.0
0
VERTEX
5
9b8
100
AcDbEntity
8
0-4_2_3
6
CONTINUOUS
62
  7
100
AcDbVertex
100
AcDb2dVertex
10
387.260000000000
20
312.040000000000
30
0.0
0
SEQEND
5
9b9
100
AcDbEntity
8
0-4_2_3
0
LINE
5
9ba
100
AcDbEntity
8
0-4_2_3
6
CONTINUOUS
62
4
100
AcDbLine
10
339.260000000000
20
289.930000000000
30
0.0
11
319.260000000000
21
311.930000000000
31
0.0
0
LINE
5
9bb
100
AcDbEntity
8
0-4_2_3
6
CONTINUOUS
62
4
100
AcDbLine
10
339.260000000000
20
230.470000000000
30
0.0
11
334.460000000000
21
235.760000000000
31
0.0
0
LINE
5
9bc
100
AcDbEntity
8
0-4_2_3
6
CONTINUOUS
62
4
100
AcDbLine
10
339.260000000000
20
245.340000000000
30
0.0
11
329.330000000000
21
256.260000000000
31
0.0
0
LINE
5
9bd
100
AcDbEntity
8
0-4_2_3
6
CONTINUOUS
62
4
100
AcDbLine
10
339.260000000000
20
260.200000000000
30
0.0
11
324.210000000000
21
276.770000000000
31
0.0
0
LINE
5
9be
100
AcDbEntity
8
0-4_2_3
6
CONTINUOUS
62
4
100
AcDbLine
10
339.260000000000
20
275.070000000000
30
0.0
11
319.080000000000
21
297.270000000000
31
0.0
0
LINE
5
9bf
100
AcDbEntity
8
0-4_2_3
6
CONTINUOUS
62
4
100
AcDbLine
10
339.260000000000
20
304.800000000000
30
0.0
11
329.940000000000
21
315.060000000000
31
0.0
0
LINE
5
9c0
100
AcDbEntity
8
0-4_2_3
6
CONTINUOUS
62
7
100
AcDbLine
10
359.260000000000
20
230.170000000000
30
0.0
11
360.330000000000
21
226.170000000000
31
0.0
0
LINE
5
9c1
100
AcDbEntity
8
0-4_2_3
6
CONTINUOUS
62
7
100
AcDbLine
10
359.260000000000
20
230.170000000000
30
0.0
11
362.190000000000
21
227.240000000000
31
0.0
0
LINE
5
9c2
100
AcDbEntity
8
0-4_2_3
6
CONTINUOUS
62
7
100
AcDbLine
10
359.260000000000
20
230.170000000000
30
0.0
11
370.810000000000
21
210.170000000000
31
0.0
0
LINE
5
9c3
100
AcDbEntity
8
0-4_2_3
6
CONTINUOUS
62
7
100
AcDbLine
10
296.120000000000
20
171.570000000000
30
0.0
11
297.190000000000
21
167.570000000000
31
0.0
0
LINE
5
9c4
100
AcDbEntity
8
0-4_2_3
6
CONTINUOUS
62
7
100
AcDbLine
10
296.120000000000
20
171.570000000000
30
0.0
11
299.050000000000
21
168.650000000000
31
0.0
0
LINE
5
9c5
100
AcDbEntity
8
0-4_2_3
6
CONTINUOUS
62
7
100
AcDbLine
10
296.120000000000
20
171.570000000000
30
0.0
11
307.670000000000
21
151.570000000000
31
0.0
0
LINE
5
9c6
100
AcDbEntity
8
0-4_2_3
6
DASHED
62
7
100
AcDbLine
10
383.660000000000
20
358.900000000000
30
0.0
11
389.840000000000
21
334.160000000000
31
0.0
0
LINE
5
9c7
100
AcDbEntity
8
0-4_2_3
6
DASHED
62
7
100
AcDbLine
10
385.620000000000
20
358.870000000000
30
0.0
11
389.840000000000
21
334.160000000000
31
0.0
0
POLYLINE
5
9c8
100
AcDbEntity
8
0-4_2_3
6
DASHED
62
  7
100
AcDb2dPolyline
66
1
10
0.0
20
0.0
30
0.0
70
0
0
VERTEX
5
9c9
100
AcDbEntity
8
0-4_2_3
6
DASHED
62
  7
100
AcDbVertex
100
AcDb2dVertex
10
318.130000000000
20
381.270000000000
30
0.0
0
VERTEX
5
9ca
100
AcDbEntity
8
0-4_2_3
6
DASHED
62
  7
100
AcDbVertex
100
AcDb2dVertex
10
376.460000000000
20
395.520000000000
30
0.0
0
VERTEX
5
9cb
100
AcDbEntity
8
0-4_2_3
6
DASHED
62
  7
100
AcDbVertex
100
AcDb2dVertex
10
385.620000000000
20
358.870000000000
30
0.0
0
SEQEND
5
9cc
100
AcDbEntity
8
0-4_2_3
0
LINE
5
9cd
100
AcDbEntity
8
0-4_2_3
6
CONTINUOUS
62
7
100
AcDbLine
10
389.120000000000
20
399.240000000000
30
0.0
11
281.550000000000
21
373.570000000000
31
0.0
0
LINE
5
9ce
100
AcDbEntity
8
0-4_2_3
6
CONTINUOUS
62
7
100
AcDbLine
10
389.860000000000
20
398.660000000000
30
0.0
11
389.860000000000
21
312.040000000000
31
0.0
0
LINE
5
9cf
100
AcDbEntity
8
0-4_2_3
6
CONTINUOUS
62
7
100
AcDbLine
10
388.980000000000
20
399.830000000000
30
0.0
11
281.410000000000
21
374.160000000000
31
0.0
0
LINE
5
9d0
100
AcDbEntity
8
0-4_2_3
6
CONTINUOUS
62
7
100
AcDbLine
10
390.460000000000
20
312.040000000000
30
0.0
11
390.460000000000
21
398.660000000000
31
0.0
0
LINE
5
9d1
100
AcDbEntity
8
0-4_2_3
6
CONTINUOUS
62
7
100
AcDbLine
10
342.810000000000
20
189.430000000000
30
0.0
11
182.730000000000
21
149.410000000000
31
0.0
0
LINE
5
9d2
100
AcDbEntity
8
0-4_2_3
6
CONTINUOUS
62
7
100
AcDbLine
10
344.260000000000
20
183.610000000000
30
0.0
11
184.190000000000
21
143.590000000000
31
0.0
0
LINE
5
9d3
100
AcDbEntity
8
0-4_2_3
6
CONTINUOUS
62
3
100
AcDbLine
10
389.260000000000
20
334.010000000000
30
0.0
11
156.920000000000
21
275.930000000000
31
0.0
0
LINE
5
9d4
100
AcDbEntity
8
0-4_2_3
6
CONTINUOUS
62
4
100
AcDbLine
10
153.820000000000
20
291.000000000000
30
0.0
11
172.460000000000
21
279.810000000000
31
0.0
0
LINE
5
9d5
100
AcDbEntity
8
0-4_2_3
6
CONTINUOUS
62
4
100
AcDbLine
10
152.440000000000
20
297.670000000000
30
0.0
11
154.490000000000
21
301.090000000000
31
0.0
0
LINE
5
9d6
100
AcDbEntity
8
0-4_2_3
6
CONTINUOUS
62
3
100
AcDbLine
10
383.200000000000
20
358.270000000000
30
0.0
11
151.870000000000
21
300.440000000000
31
0.0
0
LINE
5
9d7
100
AcDbEntity
8
0-4_2_3
6
DASHED
62
7
100
AcDbLine
10
383.660000000000
20
358.900000000000
30
0.0
11
151.770000000000
21
300.930000000000
31
0.0
0
POLYLINE
5
9d8
100
AcDbEntity
8
F-F
6
CONTINUOUS
62
  3
100
AcDb2dPolyline
66
1
10
0.0
20
0.0
30
0.0
70
0
0
VERTEX
5
9d9
100
AcDbEntity
8
F-F
6
CONTINUOUS
62
  3
100
AcDbVertex
100
AcDb2dVertex
10
71.720000000000
20
59.100000000000
30
0.0
0
VERTEX
5
9da
100
AcDbEntity
8
F-F
6
CONTINUOUS
62
  3
100
AcDbVertex
100
AcDb2dVertex
10
71.720000000000
20
75.100000000000
30
0.0
0
VERTEX
5
9db
100
AcDbEntity
8
F-F
6
CONTINUOUS
62
  3
100
AcDbVertex
100
AcDb2dVertex
10
87.720000000000
20
75.100000000000
30
0.0
0
VERTEX
5
9dc
100
AcDbEntity
8
F-F
6
CONTINUOUS
62
  3
100
AcDbVertex
100
AcDb2dVertex
10
87.720000000000
20
59.100000000000
30
0.0
0
VERTEX
5
9dd
100
AcDbEntity
8
F-F
6
CONTINUOUS
62
  3
100
AcDbVertex
100
AcDb2dVertex
10
71.720000000000
20
59.100000000000
30
0.0
0
SEQEND
5
9de
100
AcDbEntity
8
F-F
0
LINE
5
9df
100
AcDbEntity
8
F-F
6
CONTINUOUS
62
3
100
AcDbLine
10
73.320000000000
20
61.260000000000
30
0.0
11
73.320000000000
21
73.500000000000
31
0.0
0
LINE
5
9e0
100
AcDbEntity
8
F-F
6
CONTINUOUS
62
3
100
AcDbLine
10
86.120000000000
20
60.700000000000
30
0.0
11
73.880000000000
21
60.700000000000
31
0.0
0
POLYLINE
5
9e1
100
AcDbEntity
8
F-F
6
CONTINUOUS
62
  3
100
AcDb2dPolyline
66
1
10
0.0
20
0.0
30
0.0
70
0
0
VERTEX
5
9e2
100
AcDbEntity
8
F-F
6
CONTINUOUS
62
  3
100
AcDbVertex
100
AcDb2dVertex
10
73.320000000000
20
73.500000000000
30
0.0
0
VERTEX
5
9e3
100
AcDbEntity
8
F-F
6
CONTINUOUS
62
  3
100
AcDbVertex
100
AcDb2dVertex
10
85.550000000000
20
73.500000000000
30
0.0
0
VERTEX
5
9e4
100
AcDbEntity
8
F-F
6
CONTINUOUS
62
  3
100
AcDbVertex
100
AcDb2dVertex
10
73.320000000000
20
61.260000000000
30
0.0
0
SEQEND
5
9e5
100
AcDbEntity
8
F-F
0
LINE
5
9e6
100
AcDbEntity
8
F-F
6
CONTINUOUS
62
3
100
AcDbLine
10
86.120000000000
20
72.930000000000
30
0.0
11
73.880000000000
21
60.700000000000
31
0.0
0
LINE
5
9e7
100
AcDbEntity
8
F-F
6
CONTINUOUS
62
3
100
AcDbLine
10
86.120000000000
20
72.930000000000
30
0.0
11
86.120000000000
21
60.700000000000
31
0.0
0
LINE
5
9e8
100
AcDbEntity
8
F-F
6
CONTINUOUS
62
4
100
AcDbLine
10
71.720000000000
20
74.940000000000
30
0.0
11
87.720000000000
21
74.940000000000
31
0.0
0
LINE
5
9e9
100
AcDbEntity
8
F-F
6
CONTINUOUS
62
4
100
AcDbLine
10
71.720000000000
20
74.620000000000
30
0.0
11
87.720000000000
21
74.620000000000
31
0.0
0
LINE
5
9ea
100
AcDbEntity
8
F-F
6
CONTINUOUS
62
4
100
AcDbLine
10
71.720000000000
20
74.300000000000
30
0.0
11
87.720000000000
21
74.300000000000
31
0.0
0
LINE
5
9eb
100
AcDbEntity
8
F-F
6
CONTINUOUS
62
4
100
AcDbLine
10
71.720000000000
20
73.980000000000
30
0.0
11
87.720000000000
21
73.980000000000
31
0.0
0
LINE
5
9ec
100
AcDbEntity
8
F-F
6
CONTINUOUS
62
4
100
AcDbLine
10
71.720000000000
20
73.660000000000
30
0.0
11
87.720000000000
21
73.660000000000
31
0.0
0
LINE
5
9ed
100
AcDbEntity
8
F-F
6
CONTINUOUS
62
4
100
AcDbLine
10
71.720000000000
20
60.540000000000
30
0.0
11
87.720000000000
21
60.540000000000
31
0.0
0
LINE
5
9ee
100
AcDbEntity
8
F-F
6
CONTINUOUS
62
4
100
AcDbLine
10
71.720000000000
20
60.220000000000
30
0.0
11
87.720000000000
21
60.220000000000
31
0.0
0
LINE
5
9ef
100
AcDbEntity
8
F-F
6
CONTINUOUS
62
4
100
AcDbLine
10
71.720000000000
20
59.900000000000
30
0.0
11
87.720000000000
21
59.900000000000
31
0.0
0
LINE
5
9f0
100
AcDbEntity
8
F-F
6
CONTINUOUS
62
4
100
AcDbLine
10
71.720000000000
20
59.580000000000
30
0.0
11
87.720000000000
21
59.580000000000
31
0.0
0
LINE
5
9f1
100
AcDbEntity
8
F-F
6
CONTINUOUS
62
4
100
AcDbLine
10
71.720000000000
20
59.260000000000
30
0.0
11
87.720000000000
21
59.260000000000
31
0.0
0
LINE
5
9f2
100
AcDbEntity
8
F-F
6
CONTINUOUS
62
4
100
AcDbLine
10
71.720000000000
20
61.500000000000
30
0.0
11
73.320000000000
21
61.500000000000
31
0.0
0
LINE
5
9f3
100
AcDbEntity
8
F-F
6
CONTINUOUS
62
4
100
AcDbLine
10
71.720000000000
20
61.820000000000
30
0.0
11
73.320000000000
21
61.820000000000
31
0.0
0
LINE
5
9f4
100
AcDbEntity
8
F-F
6
CONTINUOUS
62
4
100
AcDbLine
10
71.720000000000
20
62.140000000000
30
0.0
11
73.320000000000
21
62.140000000000
31
0.0
0
LINE
5
9f5
100
AcDbEntity
8
F-F
6
CONTINUOUS
62
4
100
AcDbLine
10
71.720000000000
20
62.460000000000
30
0.0
11
73.320000000000
21
62.460000000000
31
0.0
0
LINE
5
9f6
100
AcDbEntity
8
F-F
6
CONTINUOUS
62
4
100
AcDbLine
10
71.720000000000
20
62.780000000000
30
0.0
11
73.320000000000
21
62.780000000000
31
0.0
0
LINE
5
9f7
100
AcDbEntity
8
F-F
6
CONTINUOUS
62
4
100
AcDbLine
10
71.720000000000
20
63.100000000000
30
0.0
11
73.320000000000
21
63.100000000000
31
0.0
0
LINE
5
9f8
100
AcDbEntity
8
F-F
6
CONTINUOUS
62
4
100
AcDbLine
10
71.720000000000
20
63.420000000000
30
0.0
11
73.320000000000
21
63.420000000000
31
0.0
0
LINE
5
9f9
100
AcDbEntity
8
F-F
6
CONTINUOUS
62
4
100
AcDbLine
10
71.720000000000
20
63.740000000000
30
0.0
11
73.320000000000
21
63.740000000000
31
0.0
0
LINE
5
9fa
100
AcDbEntity
8
F-F
6
CONTINUOUS
62
4
100
AcDbLine
10
71.720000000000
20
64.060000000000
30
0.0
11
73.320000000000
21
64.060000000000
31
0.0
0
LINE
5
9fb
100
AcDbEntity
8
F-F
6
CONTINUOUS
62
4
100
AcDbLine
10
71.720000000000
20
64.380000000000
30
0.0
11
73.320000000000
21
64.380000000000
31
0.0
0
LINE
5
9fc
100
AcDbEntity
8
F-F
6
CONTINUOUS
62
4
100
AcDbLine
10
71.720000000000
20
64.700000000000
30
0.0
11
73.320000000000
21
64.700000000000
31
0.0
0
LINE
5
9fd
100
AcDbEntity
8
F-F
6
CONTINUOUS
62
4
100
AcDbLine
10
71.720000000000
20
65.020000000000
30
0.0
11
73.320000000000
21
65.020000000000
31
0.0
0
LINE
5
9fe
100
AcDbEntity
8
F-F
6
CONTINUOUS
62
4
100
AcDbLine
10
71.720000000000
20
65.340000000000
30
0.0
11
73.320000000000
21
65.340000000000
31
0.0
0
LINE
5
9ff
100
AcDbEntity
8
F-F
6
CONTINUOUS
62
4
100
AcDbLine
10
71.720000000000
20
65.660000000000
30
0.0
11
73.320000000000
21
65.660000000000
31
0.0
0
LINE
5
a00
100
AcDbEntity
8
F-F
6
CONTINUOUS
62
4
100
AcDbLine
10
71.720000000000
20
65.980000000000
30
0.0
11
73.320000000000
21
65.980000000000
31
0.0
0
LINE
5
a01
100
AcDbEntity
8
F-F
6
CONTINUOUS
62
4
100
AcDbLine
10
71.720000000000
20
66.300000000000
30
0.0
11
73.320000000000
21
66.300000000000
31
0.0
0
LINE
5
a02
100
AcDbEntity
8
F-F
6
CONTINUOUS
62
4
100
AcDbLine
10
71.720000000000
20
66.620000000000
30
0.0
11
73.320000000000
21
66.620000000000
31
0.0
0
LINE
5
a03
100
AcDbEntity
8
F-F
6
CONTINUOUS
62
4
100
AcDbLine
10
71.720000000000
20
66.940000000000
30
0.0
11
73.320000000000
21
66.940000000000
31
0.0
0
LINE
5
a04
100
AcDbEntity
8
F-F
6
CONTINUOUS
62
4
100
AcDbLine
10
71.720000000000
20
67.260000000000
30
0.0
11
73.320000000000
21
67.260000000000
31
0.0
0
LINE
5
a05
100
AcDbEntity
8
F-F
6
CONTINUOUS
62
4
100
AcDbLine
10
71.720000000000
20
67.580000000000
30
0.0
11
73.320000000000
21
67.580000000000
31
0.0
0
LINE
5
a06
100
AcDbEntity
8
F-F
6
CONTINUOUS
62
4
100
AcDbLine
10
71.720000000000
20
67.900000000000
30
0.0
11
73.320000000000
21
67.900000000000
31
0.0
0
LINE
5
a07
100
AcDbEntity
8
F-F
6
CONTINUOUS
62
4
100
AcDbLine
10
71.720000000000
20
68.220000000000
30
0.0
11
73.320000000000
21
68.220000000000
31
0.0
0
LINE
5
a08
100
AcDbEntity
8
F-F
6
CONTINUOUS
62
4
100
AcDbLine
10
71.720000000000
20
68.540000000000
30
0.0
11
73.320000000000
21
68.540000000000
31
0.0
0
LINE
5
a09
100
AcDbEntity
8
F-F
6
CONTINUOUS
62
4
100
AcDbLine
10
71.720000000000
20
68.860000000000
30
0.0
11
73.320000000000
21
68.860000000000
31
0.0
0
LINE
5
a0a
100
AcDbEntity
8
F-F
6
CONTINUOUS
62
4
100
AcDbLine
10
71.720000000000
20
69.820000000000
30
0.0
11
73.320000000000
21
69.820000000000
31
0.0
0
LINE
5
a0b
100
AcDbEntity
8
F-F
6
CONTINUOUS
62
4
100
AcDbLine
10
71.720000000000
20
70.780000000000
30
0.0
11
73.320000000000
21
70.780000000000
31
0.0
0
LINE
5
a0c
100
AcDbEntity
8
F-F
6
CONTINUOUS
62
4
100
AcDbLine
10
71.720000000000
20
71.100000000000
30
0.0
11
73.320000000000
21
71.100000000000
31
0.0
0
LINE
5
a0d
100
AcDbEntity
8
F-F
6
CONTINUOUS
62
4
100
AcDbLine
10
71.720000000000
20
71.420000000000
30
0.0
11
73.320000000000
21
71.420000000000
31
0.0
0
LINE
5
a0e
100
AcDbEntity
8
F-F
6
CONTINUOUS
62
4
100
AcDbLine
10
71.720000000000
20
71.740000000000
30
0.0
11
73.320000000000
21
71.740000000000
31
0.0
0
LINE
5
a0f
100
AcDbEntity
8
F-F
6
CONTINUOUS
62
4
100
AcDbLine
10
71.720000000000
20
73.340000000000
30
0.0
11
73.320000000000
21
73.340000000000
31
0.0
0
LINE
5
a10
100
AcDbEntity
8
F-F
6
CONTINUOUS
62
4
100
AcDbLine
10
71.720000000000
20
73.020000000000
30
0.0
11
73.320000000000
21
73.020000000000
31
0.0
0
LINE
5
a11
100
AcDbEntity
8
F-F
6
CONTINUOUS
62
4
100
AcDbLine
10
71.720000000000
20
72.700000000000
30
0.0
11
73.320000000000
21
72.700000000000
31
0.0
0
LINE
5
a12
100
AcDbEntity
8
F-F
6
CONTINUOUS
62
4
100
AcDbLine
10
71.720000000000
20
72.380000000000
30
0.0
11
73.320000000000
21
72.380000000000
31
0.0
0
LINE
5
a13
100
AcDbEntity
8
F-F
6
CONTINUOUS
62
4
100
AcDbLine
10
71.720000000000
20
72.060000000000
30
0.0
11
73.320000000000
21
72.060000000000
31
0.0
0
LINE
5
a14
100
AcDbEntity
8
F-F
6
CONTINUOUS
62
4
100
AcDbLine
10
71.720000000000
20
70.140000000000
30
0.0
11
73.320000000000
21
70.140000000000
31
0.0
0
LINE
5
a15
100
AcDbEntity
8
F-F
6
CONTINUOUS
62
4
100
AcDbLine
10
71.720000000000
20
70.460000000000
30
0.0
11
73.320000000000
21
70.460000000000
31
0.0
0
LINE
5
a16
100
AcDbEntity
8
F-F
6
CONTINUOUS
62
4
100
AcDbLine
10
71.720000000000
20
69.500000000000
30
0.0
11
73.320000000000
21
69.500000000000
31
0.0
0
LINE
5
a17
100
AcDbEntity
8
F-F
6
CONTINUOUS
62
4
100
AcDbLine
10
71.720000000000
20
69.180000000000
30
0.0
11
73.320000000000
21
69.180000000000
31
0.0
0
LINE
5
a18
100
AcDbEntity
8
F-F
6
CONTINUOUS
62
4
100
AcDbLine
10
73.870000000000
20
61.820000000000
30
0.0
11
75.000000000000
21
61.820000000000
31
0.0
0
LINE
5
a19
100
AcDbEntity
8
F-F
6
CONTINUOUS
62
4
100
AcDbLine
10
73.550000000000
20
61.500000000000
30
0.0
11
74.680000000000
21
61.500000000000
31
0.0
0
LINE
5
a1a
100
AcDbEntity
8
F-F
6
CONTINUOUS
62
4
100
AcDbLine
10
71.720000000000
20
61.180000000000
30
0.0
11
74.360000000000
21
61.180000000000
31
0.0
0
LINE
5
a1b
100
AcDbEntity
8
F-F
6
CONTINUOUS
62
4
100
AcDbLine
10
71.720000000000
20
60.860000000000
30
0.0
11
74.040000000000
21
60.860000000000
31
0.0
0
LINE
5
a1c
100
AcDbEntity
8
F-F
6
CONTINUOUS
62
4
100
AcDbLine
10
75.790000000000
20
63.740000000000
30
0.0
11
76.920000000000
21
63.740000000000
31
0.0
0
LINE
5
a1d
100
AcDbEntity
8
F-F
6
CONTINUOUS
62
4
100
AcDbLine
10
75.470000000000
20
63.420000000000
30
0.0
11
76.600000000000
21
63.420000000000
31
0.0
0
LINE
5
a1e
100
AcDbEntity
8
F-F
6
CONTINUOUS
62
4
100
AcDbLine
10
75.150000000000
20
63.100000000000
30
0.0
11
76.280000000000
21
63.100000000000
31
0.0
0
LINE
5
a1f
100
AcDbEntity
8
F-F
6
CONTINUOUS
62
4
100
AcDbLine
10
74.830000000000
20
62.780000000000
30
0.0
11
75.960000000000
21
62.780000000000
31
0.0
0
LINE
5
a20
100
AcDbEntity
8
F-F
6
CONTINUOUS
62
4
100
AcDbLine
10
74.510000000000
20
62.460000000000
30
0.0
11
75.640000000000
21
62.460000000000
31
0.0
0
LINE
5
a21
100
AcDbEntity
8
F-F
6
CONTINUOUS
62
4
100
AcDbLine
10
74.190000000000
20
62.140000000000
30
0.0
11
75.320000000000
21
62.140000000000
31
0.0
0
LINE
5
a22
100
AcDbEntity
8
F-F
6
CONTINUOUS
62
4
100
AcDbLine
10
73.320000000000
20
73.500000000000
30
0.0
11
73.320000000000
21
73.820000000000
31
0.0
0
LINE
5
a23
100
AcDbEntity
8
F-F
6
CONTINUOUS
62
4
100
AcDbLine
10
86.120000000000
20
61.500000000000
30
0.0
11
87.720000000000
21
61.500000000000
31
0.0
0
LINE
5
a24
100
AcDbEntity
8
F-F
6
CONTINUOUS
62
4
100
AcDbLine
10
86.120000000000
20
61.820000000000
30
0.0
11
87.720000000000
21
61.820000000000
31
0.0
0
LINE
5
a25
100
AcDbEntity
8
F-F
6
CONTINUOUS
62
4
100
AcDbLine
10
86.120000000000
20
62.140000000000
30
0.0
11
87.720000000000
21
62.140000000000
31
0.0
0
LINE
5
a26
100
AcDbEntity
8
F-F
6
CONTINUOUS
62
4
100
AcDbLine
10
86.120000000000
20
62.460000000000
30
0.0
11
87.720000000000
21
62.460000000000
31
0.0
0
LINE
5
a27
100
AcDbEntity
8
F-F
6
CONTINUOUS
62
4
100
AcDbLine
10
86.120000000000
20
62.780000000000
30
0.0
11
87.720000000000
21
62.780000000000
31
0.0
0
LINE
5
a28
100
AcDbEntity
8
F-F
6
CONTINUOUS
62
4
100
AcDbLine
10
86.120000000000
20
63.100000000000
30
0.0
11
87.720000000000
21
63.100000000000
31
0.0
0
LINE
5
a29
100
AcDbEntity
8
F-F
6
CONTINUOUS
62
4
100
AcDbLine
10
86.120000000000
20
63.420000000000
30
0.0
11
87.720000000000
21
63.420000000000
31
0.0
0
LINE
5
a2a
100
AcDbEntity
8
F-F
6
CONTINUOUS
62
4
100
AcDbLine
10
86.120000000000
20
63.740000000000
30
0.0
11
87.720000000000
21
63.740000000000
31
0.0
0
LINE
5
a2b
100
AcDbEntity
8
F-F
6
CONTINUOUS
62
4
100
AcDbLine
10
86.120000000000
20
64.060000000000
30
0.0
11
87.720000000000
21
64.060000000000
31
0.0
0
LINE
5
a2c
100
AcDbEntity
8
F-F
6
CONTINUOUS
62
4
100
AcDbLine
10
86.120000000000
20
64.380000000000
30
0.0
11
87.720000000000
21
64.380000000000
31
0.0
0
LINE
5
a2d
100
AcDbEntity
8
F-F
6
CONTINUOUS
62
4
100
AcDbLine
10
86.120000000000
20
64.700000000000
30
0.0
11
87.720000000000
21
64.700000000000
31
0.0
0
LINE
5
a2e
100
AcDbEntity
8
F-F
6
CONTINUOUS
62
4
100
AcDbLine
10
86.120000000000
20
65.020000000000
30
0.0
11
87.720000000000
21
65.020000000000
31
0.0
0
LINE
5
a2f
100
AcDbEntity
8
F-F
6
CONTINUOUS
62
4
100
AcDbLine
10
86.120000000000
20
65.340000000000
30
0.0
11
87.720000000000
21
65.340000000000
31
0.0
0
LINE
5
a30
100
AcDbEntity
8
F-F
6
CONTINUOUS
62
4
100
AcDbLine
10
86.120000000000
20
65.980000000000
30
0.0
11
87.720000000000
21
65.980000000000
31
0.0
0
LINE
5
a31
100
AcDbEntity
8
F-F
6
CONTINUOUS
62
4
100
AcDbLine
10
86.120000000000
20
66.300000000000
30
0.0
11
87.720000000000
21
66.300000000000
31
0.0
0
LINE
5
a32
100
AcDbEntity
8
F-F
6
CONTINUOUS
62
4
100
AcDbLine
10
86.120000000000
20
66.620000000000
30
0.0
11
87.720000000000
21
66.620000000000
31
0.0
0
LINE
5
a33
100
AcDbEntity
8
F-F
6
CONTINUOUS
62
4
100
AcDbLine
10
86.120000000000
20
66.940000000000
30
0.0
11
87.720000000000
21
66.940000000000
31
0.0
0
LINE
5
a34
100
AcDbEntity
8
F-F
6
CONTINUOUS
62
4
100
AcDbLine
10
86.120000000000
20
67.260000000000
30
0.0
11
87.720000000000
21
67.260000000000
31
0.0
0
LINE
5
a35
100
AcDbEntity
8
F-F
6
CONTINUOUS
62
4
100
AcDbLine
10
86.120000000000
20
67.580000000000
30
0.0
11
87.720000000000
21
67.580000000000
31
0.0
0
LINE
5
a36
100
AcDbEntity
8
F-F
6
CONTINUOUS
62
4
100
AcDbLine
10
86.120000000000
20
67.900000000000
30
0.0
11
87.720000000000
21
67.900000000000
31
0.0
0
LINE
5
a37
100
AcDbEntity
8
F-F
6
CONTINUOUS
62
4
100
AcDbLine
10
86.120000000000
20
68.220000000000
30
0.0
11
87.720000000000
21
68.220000000000
31
0.0
0
LINE
5
a38
100
AcDbEntity
8
F-F
6
CONTINUOUS
62
4
100
AcDbLine
10
86.120000000000
20
68.540000000000
30
0.0
11
87.720000000000
21
68.540000000000
31
0.0
0
LINE
5
a39
100
AcDbEntity
8
F-F
6
CONTINUOUS
62
4
100
AcDbLine
10
86.120000000000
20
68.860000000000
30
0.0
11
87.720000000000
21
68.860000000000
31
0.0
0
LINE
5
a3a
100
AcDbEntity
8
F-F
6
CONTINUOUS
62
4
100
AcDbLine
10
86.120000000000
20
69.820000000000
30
0.0
11
87.720000000000
21
69.820000000000
31
0.0
0
LINE
5
a3b
100
AcDbEntity
8
F-F
6
CONTINUOUS
62
4
100
AcDbLine
10
86.120000000000
20
70.780000000000
30
0.0
11
87.720000000000
21
70.780000000000
31
0.0
0
LINE
5
a3c
100
AcDbEntity
8
F-F
6
CONTINUOUS
62
4
100
AcDbLine
10
86.120000000000
20
71.100000000000
30
0.0
11
87.720000000000
21
71.100000000000
31
0.0
0
LINE
5
a3d
100
AcDbEntity
8
F-F
6
CONTINUOUS
62
4
100
AcDbLine
10
86.120000000000
20
71.420000000000
30
0.0
11
87.720000000000
21
71.420000000000
31
0.0
0
LINE
5
a3e
100
AcDbEntity
8
F-F
6
CONTINUOUS
62
4
100
AcDbLine
10
86.120000000000
20
71.740000000000
30
0.0
11
87.720000000000
21
71.740000000000
31
0.0
0
LINE
5
a3f
100
AcDbEntity
8
F-F
6
CONTINUOUS
62
4
100
AcDbLine
10
86.120000000000
20
72.700000000000
30
0.0
11
87.720000000000
21
72.700000000000
31
0.0
0
LINE
5
a40
100
AcDbEntity
8
F-F
6
CONTINUOUS
62
4
100
AcDbLine
10
86.120000000000
20
72.380000000000
30
0.0
11
87.720000000000
21
72.380000000000
31
0.0
0
LINE
5
a41
100
AcDbEntity
8
F-F
6
CONTINUOUS
62
4
100
AcDbLine
10
86.120000000000
20
72.060000000000
30
0.0
11
87.720000000000
21
72.060000000000
31
0.0
0
LINE
5
a42
100
AcDbEntity
8
F-F
6
CONTINUOUS
62
4
100
AcDbLine
10
86.120000000000
20
70.140000000000
30
0.0
11
87.720000000000
21
70.140000000000
31
0.0
0
LINE
5
a43
100
AcDbEntity
8
F-F
6
CONTINUOUS
62
4
100
AcDbLine
10
86.120000000000
20
70.460000000000
30
0.0
11
87.720000000000
21
70.460000000000
31
0.0
0
LINE
5
a44
100
AcDbEntity
8
F-F
6
CONTINUOUS
62
4
100
AcDbLine
10
86.120000000000
20
69.500000000000
30
0.0
11
87.720000000000
21
69.500000000000
31
0.0
0
LINE
5
a45
100
AcDbEntity
8
F-F
6
CONTINUOUS
62
4
100
AcDbLine
10
86.120000000000
20
69.180000000000
30
0.0
11
87.720000000000
21
69.180000000000
31
0.0
0
LINE
5
a46
100
AcDbEntity
8
F-F
6
CONTINUOUS
62
4
100
AcDbLine
10
86.120000000000
20
60.860000000000
30
0.0
11
87.720000000000
21
60.860000000000
31
0.0
0
LINE
5
a47
100
AcDbEntity
8
F-F
6
CONTINUOUS
62
4
100
AcDbLine
10
86.120000000000
20
61.180000000000
30
0.0
11
87.720000000000
21
61.180000000000
31
0.0
0
LINE
5
a48
100
AcDbEntity
8
F-F
6
CONTINUOUS
62
4
100
AcDbLine
10
85.390000000000
20
73.340000000000
30
0.0
11
87.720000000000
21
73.340000000000
31
0.0
0
LINE
5
a49
100
AcDbEntity
8
F-F
6
CONTINUOUS
62
4
100
AcDbLine
10
85.070000000000
20
73.020000000000
30
0.0
11
87.720000000000
21
73.020000000000
31
0.0
0
LINE
5
a4a
100
AcDbEntity
8
F-F
6
CONTINUOUS
62
4
100
AcDbLine
10
77.070000000000
20
65.020000000000
30
0.0
11
78.200000000000
21
65.020000000000
31
0.0
0
LINE
5
a4b
100
AcDbEntity
8
F-F
6
CONTINUOUS
62
4
100
AcDbLine
10
76.750000000000
20
64.700000000000
30
0.0
11
77.880000000000
21
64.700000000000
31
0.0
0
LINE
5
a4c
100
AcDbEntity
8
F-F
6
CONTINUOUS
62
4
100
AcDbLine
10
76.430000000000
20
64.380000000000
30
0.0
11
77.560000000000
21
64.380000000000
31
0.0
0
LINE
5
a4d
100
AcDbEntity
8
F-F
6
CONTINUOUS
62
4
100
AcDbLine
10
76.110000000000
20
64.060000000000
30
0.0
11
77.240000000000
21
64.060000000000
31
0.0
0
LINE
5
a4e
100
AcDbEntity
8
F-F
6
CONTINUOUS
62
4
100
AcDbLine
10
78.350000000000
20
66.300000000000
30
0.0
11
79.480000000000
21
66.300000000000
31
0.0
0
LINE
5
a4f
100
AcDbEntity
8
F-F
6
CONTINUOUS
62
4
100
AcDbLine
10
78.030000000000
20
65.980000000000
30
0.0
11
79.160000000000
21
65.980000000000
31
0.0
0
LINE
5
a50
100
AcDbEntity
8
F-F
6
CONTINUOUS
62
4
100
AcDbLine
10
77.710000000000
20
65.660000000000
30
0.0
11
78.840000000000
21
65.660000000000
31
0.0
0
LINE
5
a51
100
AcDbEntity
8
F-F
6
CONTINUOUS
62
4
100
AcDbLine
10
77.390000000000
20
65.340000000000
30
0.0
11
78.520000000000
21
65.340000000000
31
0.0
0
LINE
5
a52
100
AcDbEntity
8
F-F
6
CONTINUOUS
62
4
100
AcDbLine
10
79.630000000000
20
67.580000000000
30
0.0
11
80.760000000000
21
67.580000000000
31
0.0
0
LINE
5
a53
100
AcDbEntity
8
F-F
6
CONTINUOUS
62
4
100
AcDbLine
10
79.310000000000
20
67.260000000000
30
0.0
11
80.440000000000
21
67.260000000000
31
0.0
0
LINE
5
a54
100
AcDbEntity
8
F-F
6
CONTINUOUS
62
4
100
AcDbLine
10
78.990000000000
20
66.940000000000
30
0.0
11
80.120000000000
21
66.940000000000
31
0.0
0
LINE
5
a55
100
AcDbEntity
8
F-F
6
CONTINUOUS
62
4
100
AcDbLine
10
78.670000000000
20
66.620000000000
30
0.0
11
79.800000000000
21
66.620000000000
31
0.0
0
LINE
5
a56
100
AcDbEntity
8
F-F
6
CONTINUOUS
62
4
100
AcDbLine
10
80.910000000000
20
68.860000000000
30
0.0
11
82.040000000000
21
68.860000000000
31
0.0
0
LINE
5
a57
100
AcDbEntity
8
F-F
6
CONTINUOUS
62
4
100
AcDbLine
10
80.590000000000
20
68.540000000000
30
0.0
11
81.720000000000
21
68.540000000000
31
0.0
0
LINE
5
a58
100
AcDbEntity
8
F-F
6
CONTINUOUS
62
4
100
AcDbLine
10
80.270000000000
20
68.220000000000
30
0.0
11
81.400000000000
21
68.220000000000
31
0.0
0
LINE
5
a59
100
AcDbEntity
8
F-F
6
CONTINUOUS
62
4
100
AcDbLine
10
79.950000000000
20
67.900000000000
30
0.0
11
81.080000000000
21
67.900000000000
31
0.0
0
LINE
5
a5a
100
AcDbEntity
8
F-F
6
CONTINUOUS
62
4
100
AcDbLine
10
82.190000000000
20
70.140000000000
30
0.0
11
83.320000000000
21
70.140000000000
31
0.0
0
LINE
5
a5b
100
AcDbEntity
8
F-F
6
CONTINUOUS
62
4
100
AcDbLine
10
81.870000000000
20
69.820000000000
30
0.0
11
83.000000000000
21
69.820000000000
31
0.0
0
LINE
5
a5c
100
AcDbEntity
8
F-F
6
CONTINUOUS
62
4
100
AcDbLine
10
81.550000000000
20
69.500000000000
30
0.0
11
82.680000000000
21
69.500000000000
31
0.0
0
LINE
5
a5d
100
AcDbEntity
8
F-F
6
CONTINUOUS
62
4
100
AcDbLine
10
81.230000000000
20
69.180000000000
30
0.0
11
82.360000000000
21
69.180000000000
31
0.0
0
LINE
5
a5e
100
AcDbEntity
8
F-F
6
CONTINUOUS
62
4
100
AcDbLine
10
83.470000000000
20
71.420000000000
30
0.0
11
84.600000000000
21
71.420000000000
31
0.0
0
LINE
5
a5f
100
AcDbEntity
8
F-F
6
CONTINUOUS
62
4
100
AcDbLine
10
83.150000000000
20
71.100000000000
30
0.0
11
84.280000000000
21
71.100000000000
31
0.0
0
LINE
5
a60
100
AcDbEntity
8
F-F
6
CONTINUOUS
62
4
100
AcDbLine
10
82.830000000000
20
70.780000000000
30
0.0
11
83.960000000000
21
70.780000000000
31
0.0
0
LINE
5
a61
100
AcDbEntity
8
F-F
6
CONTINUOUS
62
4
100
AcDbLine
10
82.510000000000
20
70.460000000000
30
0.0
11
83.640000000000
21
70.460000000000
31
0.0
0
LINE
5
a62
100
AcDbEntity
8
F-F
6
CONTINUOUS
62
4
100
AcDbLine
10
84.750000000000
20
72.700000000000
30
0.0
11
85.880000000000
21
72.700000000000
31
0.0
0
LINE
5
a63
100
AcDbEntity
8
F-F
6
CONTINUOUS
62
4
100
AcDbLine
10
84.430000000000
20
72.380000000000
30
0.0
11
85.560000000000
21
72.380000000000
31
0.0
0
LINE
5
a64
100
AcDbEntity
8
F-F
6
CONTINUOUS
62
4
100
AcDbLine
10
84.110000000000
20
72.060000000000
30
0.0
11
85.240000000000
21
72.060000000000
31
0.0
0
LINE
5
a65
100
AcDbEntity
8
F-F
6
CONTINUOUS
62
4
100
AcDbLine
10
83.790000000000
20
71.740000000000
30
0.0
11
84.920000000000
21
71.740000000000
31
0.0
0
LINE
5
a66
100
AcDbEntity
8
F-F
6
CONTINUOUS
62
4
100
AcDbLine
10
86.120000000000
20
65.660000000000
30
0.0
11
87.720000000000
21
65.660000000000
31
0.0
0
LINE
5
a67
100
AcDbEntity
8
0-2_2_1
6
CONTINUOUS
62
7
100
AcDbLine
10
1368.980000000000
20
914.160000000000
30
0.0
11
1337.450000000000
21
906.270000000000
31
0.0
0
LINE
5
a68
100
AcDbEntity
8
0-2_2_1
6
CONTINUOUS
62
7
100
AcDbLine
10
1368.830000000000
20
914.740000000000
30
0.0
11
1337.300000000000
21
906.860000000000
31
0.0
0
LINE
5
a69
100
AcDbEntity
8
0-2_2_1
6
CONTINUOUS
62
7
100
AcDbLine
10
1362.230000000000
20
911.850000000000
30
0.0
11
1340.990000000000
21
906.540000000000
31
0.0
0
LINE
5
a6a
100
AcDbEntity
8
0-2_2_1
6
CONTINUOUS
62
7
100
AcDbLine
10
1362.380000000000
20
911.270000000000
30
0.0
11
1341.130000000000
21
905.960000000000
31
0.0
0
LINE
5
a6b
100
AcDbEntity
8
0-2_2_1
6
CONTINUOUS
62
7
100
AcDbLine
10
1363.110000000000
20
908.360000000000
30
0.0
11
1346.710000000000
21
904.260000000000
31
0.0
0
LINE
5
a6c
100
AcDbEntity
8
0-2_2_1
6
CONTINUOUS
62
7
100
AcDbLine
10
1363.250000000000
20
907.780000000000
30
0.0
11
1346.860000000000
21
903.680000000000
31
0.0
0
LINE
5
a6d
100
AcDbEntity
8
0-2_2_1
6
CONTINUOUS
62
4
100
AcDbLine
10
1319.260000000000
20
972.840000000000
30
0.0
11
1352.240000000000
21
981.080000000000
31
0.0
0
LINE
5
a6e
100
AcDbEntity
8
0-2_2_1
6
CONTINUOUS
62
4
100
AcDbLine
10
1331.910000000000
20
922.220000000000
30
0.0
11
1319.260000000000
21
972.840000000000
31
0.0
0
POLYLINE
5
a6f
100
AcDbEntity
8
0-2_2_1
6
CONTINUOUS
62
  7
100
AcDb2dPolyline
66
1
10
0.0
20
0.0
30
0.0
70
0
0
VERTEX
5
a70
100
AcDbEntity
8
0-2_2_1
6
CONTINUOUS
62
  7
100
AcDbVertex
100
AcDb2dVertex
10
1374.560000000000
20
908.360000000000
30
0.0
0
VERTEX
5
a71
100
AcDbEntity
8
0-2_2_1
6
CONTINUOUS
62
  7
100
AcDbVertex
100
AcDb2dVertex
10
1390.950000000000
20
904.260000000000
30
0.0
0
VERTEX
5
a72
100
AcDbEntity
8
0-2_2_1
6
CONTINUOUS
62
  7
100
AcDbVertex
100
AcDb2dVertex
10
1390.810000000000
20
903.680000000000
30
0.0
0
SEQEND
5
a73
100
AcDbEntity
8
0-2_2_1
0
LINE
5
a74
100
AcDbEntity
8
0-2_2_1
6
CONTINUOUS
62
7
100
AcDbLine
10
1374.410000000000
20
907.780000000000
30
0.0
11
1390.810000000000
21
903.680000000000
31
0.0
0
POLYLINE
5
a75
100
AcDbEntity
8
0-2_2_1
6
CONTINUOUS
62
  7
100
AcDb2dPolyline
66
1
10
0.0
20
0.0
30
0.0
70
0
0
VERTEX
5
a76
100
AcDbEntity
8
0-2_2_1
6
CONTINUOUS
62
  7
100
AcDbVertex
100
AcDb2dVertex
10
1375.430000000000
20
911.850000000000
30
0.0
0
VERTEX
5
a77
100
AcDbEntity
8
0-2_2_1
6
CONTINUOUS
62
  7
100
AcDbVertex
100
AcDb2dVertex
10
1396.670000000000
20
906.540000000000
30
0.0
0
VERTEX
5
a78
100
AcDbEntity
8
0-2_2_1
6
CONTINUOUS
62
  7
100
AcDbVertex
100
AcDb2dVertex
10
1396.530000000000
20
905.960000000000
30
0.0
0
SEQEND
5
a79
100
AcDbEntity
8
0-2_2_1
0
LINE
5
a7a
100
AcDbEntity
8
0-2_2_1
6
CONTINUOUS
62
7
100
AcDbLine
10
1375.280000000000
20
911.270000000000
30
0.0
11
1396.530000000000
21
905.960000000000
31
0.0
0
LINE
5
a7b
100
AcDbEntity
8
0-2_2_1
6
CONTINUOUS
62
7
100
AcDbLine
10
1368.690000000000
20
914.160000000000
30
0.0
11
1400.220000000000
21
906.270000000000
31
0.0
0
LINE
5
a7c
100
AcDbEntity
8
0-2_2_1
6
CONTINUOUS
62
7
100
AcDbLine
10
1368.830000000000
20
914.740000000000
30
0.0
11
1400.360000000000
21
906.860000000000
31
0.0
0
LINE
5
a7d
100
AcDbEntity
8
0-2_2_1
6
CONTINUOUS
62
7
100
AcDbLine
10
1383.770000000000
20
908.530000000000
30
0.0
11
1399.780000000000
21
904.530000000000
31
0.0
0
LINE
5
a7e
100
AcDbEntity
8
0-2_2_1
6
CONTINUOUS
62
7
100
AcDbLine
10
1383.630000000000
20
907.950000000000
30
0.0
11
1383.770000000000
21
908.530000000000
31
0.0
0
LINE
5
a7f
100
AcDbEntity
8
0-2_2_1
6
CONTINUOUS
62
7
100
AcDbLine
10
1383.630000000000
20
907.950000000000
30
0.0
11
1399.630000000000
21
903.940000000000
31
0.0
0
ARC
5
a80
100
AcDbEntity
8
0-5_2_4
6
CONTINUOUS
62
3
100
AcDbCircle
10
1027.410000000000
20
371.910000000000
30
0.0
40
2.299999732846
100
AcDbArc
50
270.000000000000
51
360.000000000000
0
ARC
5
a81
100
AcDbEntity
8
0-5_2_4
6
CONTINUOUS
62
3
100
AcDbCircle
10
1027.410000000000
20
417.310000000000
30
0.0
40
2.299999732846
100
AcDbArc
50
360.000000000000
51
450.000000000000
0
ARC
5
a82
100
AcDbEntity
8
0-5_2_4
6
CONTINUOUS
62
3
100
AcDbCircle
10
932.010000000000
20
417.310000000000
30
0.0
40
2.299999732846
100
AcDbArc
50
90.000000000000
51
180.000000000000
0
ARC
5
a83
100
AcDbEntity
8
0-5_2_4
6
CONTINUOUS
62
3
100
AcDbCircle
10
932.010000000000
20
371.910000000000
30
0.0
40
2.299999732846
100
AcDbArc
50
180.000000000000
51
270.000000000000
0
ARC
5
a84
100
AcDbEntity
8
0-5_2_4
6
CONTINUOUS
62
7
100
AcDbCircle
10
925.110000000000
20
320.210000000000
30
0.0
40
1.999999969650
100
AcDbArc
50
270.000000000000
51
0.000000000000
0
ARC
5
a85
100
AcDbEntity
8
0-5_2_4
6
CONTINUOUS
62
7
100
AcDbCircle
10
925.110000000000
20
320.210000000000
30
0.0
40
2.599999883128
100
AcDbArc
50
270.000000000000
51
0.000000000000
0
ARC
5
a86
100
AcDbEntity
8
0-5_2_4
6
DASHED
62
7
100
AcDbCircle
10
868.710000000000
20
314.610000000000
30
0.0
40
1.999999969650
100
AcDbArc
50
90.000000000000
51
180.000000000000
0
ARC
5
a87
100
AcDbEntity
8
0-5_2_4
6
DASHED
62
7
100
AcDbCircle
10
926.710000000000
20
276.610000000000
30
0.0
40
1.999999969650
100
AcDbArc
50
270.000000000000
51
0.000000000000
0
ARC
5
a88
100
AcDbEntity
8
0-5_2_4
6
CONTINUOUS
62
3
100
AcDbCircle
10
927.410000000000
20
246.310000000000
30
0.0
40
2.299999732846
100
AcDbArc
50
360.000000000000
51
450.000000000000
0
ARC
5
a89
100
AcDbEntity
8
0-5_2_4
6
CONTINUOUS
62
3
100
AcDbCircle
10
882.010000000000
20
246.310000000000
30
0.0
40
2.299999732846
100
AcDbArc
50
90.000000000000
51
180.000000000000
0
ARC
5
a8a
100
AcDbEntity
8
0-5_2_4
6
CONTINUOUS
62
3
100
AcDbCircle
10
882.010000000000
20
150.910000000000
30
0.0
40
2.299999732846
100
AcDbArc
50
180.000000000000
51
270.000000000000
0
ARC
5
a8b
100
AcDbEntity
8
0-5_2_4
6
CONTINUOUS
62
3
100
AcDbCircle
10
927.410000000000
20
150.910000000000
30
0.0
40
2.299999732846
100
AcDbArc
50
270.000000000000
51
360.000000000000
0
ARC
5
a8c
100
AcDbEntity
8
0-5_2_4
6
CONTINUOUS
62
7
100
AcDbCircle
10
785.510000000000
20
275.110000000000
30
0.0
40
0.900019030923
100
AcDbArc
50
90.000000000000
51
270.000000000000
0
ARC
5
a8d
100
AcDbEntity
8
0-5_2_4
6
CONTINUOUS
62
7
100
AcDbCircle
10
785.510000000000
20
275.110000000000
30
0.0
40
0.300006343641
100
AcDbArc
50
90.000000000000
51
270.000000000000
0
ARC
5
a8e
100
AcDbEntity
8
0-5_2_4
6
CONTINUOUS
62
7
100
AcDbCircle
10
835.510000000000
20
295.110000000000
30
0.0
40
1.500031718206
100
AcDbArc
50
90.000000000000
51
270.000000000000
0
ARC
5
a8f
100
AcDbEntity
8
0-5_2_4
6
CONTINUOUS
62
7
100
AcDbCircle
10
835.510000000000
20
295.110000000000
30
0.0
40
0.900019030923
100
AcDbArc
50
90.000000000000
51
270.000000000000
0
ARC
5
a90
100
AcDbEntity
8
0-5_2_4
6
CONTINUOUS
62
7
100
AcDbCircle
10
864.910000000000
20
297.210000000000
30
0.0
40
0.600000010249
100
AcDbArc
50
270.000000000000
51
0.000000000000
0
ARC
5
a91
100
AcDbEntity
8
0-5_2_4
6
CONTINUOUS
62
7
100
AcDbCircle
10
864.910000000000
20
297.210000000000
30
0.0
40
1.200000020498
100
AcDbArc
50
270.000000000000
51
0.000000000000
0
ARC
5
a92
100
AcDbEntity
8
0-5_2_4
6
CONTINUOUS
62
7
100
AcDbCircle
10
864.910000000000
20
294.210000000000
30
0.0
40
0.600000010249
100
AcDbArc
50
360.000000000000
51
450.000000000000
0
ARC
5
a93
100
AcDbEntity
8
0-5_2_4
6
CONTINUOUS
62
7
100
AcDbCircle
10
864.910000000000
20
294.210000000000
30
0.0
40
1.200000020498
100
AcDbArc
50
360.000000000000
51
450.000000000000
0
ARC
5
a94
100
AcDbEntity
8
0-5_2_4
6
CONTINUOUS
62
7
100
AcDbCircle
10
864.910000000000
20
275.410000000000
30
0.0
40
0.600000010249
100
AcDbArc
50
270.000000000000
51
0.000000000000
0
ARC
5
a95
100
AcDbEntity
8
0-5_2_4
6
CONTINUOUS
62
7
100
AcDbCircle
10
864.910000000000
20
275.410000000000
30
0.0
40
1.200000020498
100
AcDbArc
50
270.000000000000
51
0.000000000000
0
ARC
5
a96
100
AcDbEntity
8
0-5_2_4
6
CONTINUOUS
62
7
100
AcDbCircle
10
824.510000000000
20
283.810000000000
30
0.0
40
17.506841074388
100
AcDbArc
50
325.959320068359
51
34.040817260742
0
ARC
5
a97
100
AcDbEntity
8
0-5_2_4
6
CONTINUOUS
62
7
100
AcDbCircle
10
851.510000000000
20
316.310000000000
30
0.0
40
1.900023660768
100
AcDbArc
50
90.000000000000
51
270.000000000000
0
ARC
5
a98
100
AcDbEntity
8
0-5_2_4
6
CONTINUOUS
62
7
100
AcDbCircle
10
851.510000000000
20
316.310000000000
30
0.0
40
1.300010973486
100
AcDbArc
50
90.000000000000
51
270.000000000000
0
ARC
5
a99
100
AcDbEntity
8
0-5_2_4
6
CONTINUOUS
62
7
100
AcDbCircle
10
864.910000000000
20
315.410000000000
30
0.0
40
0.600000010249
100
AcDbArc
50
360.000000000000
51
450.000000000000
0
ARC
5
a9a
100
AcDbEntity
8
0-5_2_4
6
CONTINUOUS
62
7
100
AcDbCircle
10
864.910000000000
20
315.410000000000
30
0.0
40
1.200000020498
100
AcDbArc
50
360.000000000000
51
450.000000000000
0
ARC
5
a9b
100
AcDbEntity
8
0-6_2_5
6
CONTINUOUS
62
7
100
AcDbCircle
10
1268.610000000000
20
356.120000000000
30
0.0
40
0.900016418100
100
AcDbArc
50
255.962615966797
51
75.962615966797
0
ARC
5
a9c
100
AcDbEntity
8
0-6_2_5
6
CONTINUOUS
62
7
100
AcDbCircle
10
1268.610000000000
20
356.120000000000
30
0.0
40
0.299989457059
100
AcDbArc
50
255.968353271484
51
75.968353271484
0
ARC
5
a9d
100
AcDbEntity
8
0-6_2_5
6
CONTINUOUS
62
7
100
AcDbCircle
10
1248.770000000000
20
359.230000000000
30
0.0
40
1.500007428623
100
AcDbArc
50
75.963073730469
51
255.963073730469
0
ARC
5
a9e
100
AcDbEntity
8
0-6_2_5
6
CONTINUOUS
62
7
100
AcDbCircle
10
1248.770000000000
20
359.230000000000
30
0.0
40
0.900016418100
100
AcDbArc
50
75.962615966797
51
255.962615966797
0
ARC
5
a9f
100
AcDbEntity
8
0-6_2_5
6
CONTINUOUS
62
7
100
AcDbCircle
10
1168.470000000000
20
379.300000000000
30
0.0
40
1.500007428623
100
AcDbArc
50
75.963073730469
51
255.963073730469
0
ARC
5
aa0
100
AcDbEntity
8
0-6_2_5
6
CONTINUOUS
62
7
100
AcDbCircle
10
1168.470000000000
20
379.300000000000
30
0.0
40
0.899980419197
100
AcDbArc
50
75.965286254883
51
255.965286254883
0
ARC
5
aa1
100
AcDbEntity
8
0-6_2_5
6
CONTINUOUS
62
7
100
AcDbCircle
10
1269.360000000000
20
355.010000000000
30
0.0
40
0.600000010249
100
AcDbArc
50
255.959167480469
51
345.963760375977
0
ARC
5
aa2
100
AcDbEntity
8
0-6_2_5
6
CONTINUOUS
62
7
100
AcDbCircle
10
1269.360000000000
20
355.010000000000
30
0.0
40
1.200000020498
100
AcDbArc
50
255.959167480469
51
345.963760375977
0
ARC
5
aa3
100
AcDbEntity
8
0-6_2_5
6
DASHED
62
7
100
AcDbCircle
10
1368.830000000000
20
331.790000000000
30
0.0
40
4.999999924124
100
AcDbArc
50
255.963348388672
51
284.036651611328
0
ARC
5
aa4
100
AcDbEntity
8
0-6_2_5
6
DASHED
62
7
100
AcDbCircle
10
1368.830000000000
20
330.760000000000
30
0.0
40
4.999999924124
100
AcDbArc
50
255.963348388672
51
284.036651611328
0
ARC
5
aa5
100
AcDbEntity
8
0-2_2_1
6
CONTINUOUS
62
7
100
AcDbCircle
10
1337.670000000000
20
905.400000000000
30
0.0
40
1.500031718206
100
AcDbArc
50
104.036499023438
51
284.036499023438
0
ARC
5
aa6
100
AcDbEntity
8
0-2_2_1
6
CONTINUOUS
62
7
100
AcDbCircle
10
1337.670000000000
20
905.400000000000
30
0.0
40
0.900019030923
100
AcDbArc
50
104.036499023438
51
284.036499023438
0
ARC
5
aa7
100
AcDbEntity
8
0-2_2_1
6
CONTINUOUS
62
7
100
AcDbCircle
10
1272.540000000000
20
867.780000000000
30
0.0
40
0.600000010249
100
AcDbArc
50
119.036804199219
51
284.036499023438
0
ARC
5
aa8
100
AcDbEntity
8
0-2_2_1
6
CONTINUOUS
62
7
100
AcDbCircle
10
1272.540000000000
20
867.780000000000
30
0.0
40
1.200000020498
100
AcDbArc
50
119.036804199219
51
284.036499023438
0
ARC
5
aa9
100
AcDbEntity
8
0-00
6
CONTINUOUS
62
3
100
AcDbCircle
10
199.090000000000
20
827.990000000000
30
0.0
40
2.299999732846
100
AcDbArc
50
104.036209106445
51
194.036209106445
0
ARC
5
aaa
100
AcDbEntity
8
0-00
6
CONTINUOUS
62
3
100
AcDbCircle
10
243.140000000000
20
839.000000000000
30
0.0
40
2.299999732846
100
AcDbArc
50
14.036209106445
51
104.036209106445
0
ARC
5
aab
100
AcDbEntity
8
0-00
6
CONTINUOUS
62
3
100
AcDbCircle
10
266.280000000000
20
746.450000000000
30
0.0
40
2.299999732846
100
AcDbArc
50
284.036209106445
51
374.036209106445
0
ARC
5
aac
100
AcDbEntity
8
0-00
6
CONTINUOUS
62
3
100
AcDbCircle
10
222.230000000000
20
735.440000000000
30
0.0
40
2.299999732846
100
AcDbArc
50
194.036209106445
51
284.036209106445
0
ARC
5
aad
100
AcDbEntity
8
0-00
6
CONTINUOUS
62
7
100
AcDbCircle
10
210.080000000000
20
898.670000000000
30
0.0
40
0.899958935980
100
AcDbArc
50
284.037155151367
51
104.037155151367
0
ARC
5
aae
100
AcDbEntity
8
0-00
6
CONTINUOUS
62
7
100
AcDbCircle
10
210.080000000000
20
898.670000000000
30
0.0
40
0.299937684443
100
AcDbArc
50
284.039001464844
51
104.039001464844
0
ARC
5
aaf
100
AcDbEntity
8
0-00
6
CONTINUOUS
62
7
100
AcDbCircle
10
160.360000000000
20
850.160000000000
30
0.0
40
0.899986419014
100
AcDbArc
50
104.036239624023
51
284.036239624023
0
ARC
5
ab0
100
AcDbEntity
8
0-00
6
CONTINUOUS
62
7
100
AcDbCircle
10
160.360000000000
20
850.160000000000
30
0.0
40
0.299995481069
100
AcDbArc
50
104.036239624023
51
284.036239624023
0
ARC
5
ab1
100
AcDbEntity
8
0-00
6
CONTINUOUS
62
7
100
AcDbCircle
10
167.300000000000
20
886.730000000000
30
0.0
40
0.899960871405
100
AcDbArc
50
104.036239624023
51
284.036239624023
0
ARC
5
ab2
100
AcDbEntity
8
0-00
6
CONTINUOUS
62
7
100
AcDbCircle
10
167.300000000000
20
886.730000000000
30
0.0
40
0.299995481069
100
AcDbArc
50
104.036239624023
51
284.036239624023
0
ARC
5
ab3
100
AcDbEntity
8
0-00
6
CONTINUOUS
62
7
100
AcDbCircle
10
181.630000000000
20
888.770000000000
30
0.0
40
0.600000010249
100
AcDbArc
50
14.035949707031
51
104.036239624023
0
ARC
5
ab4
100
AcDbEntity
8
0-00
6
CONTINUOUS
62
7
100
AcDbCircle
10
181.630000000000
20
888.770000000000
30
0.0
40
1.200000020498
100
AcDbArc
50
14.035949707031
51
104.036239624023
0
ARC
5
ab5
100
AcDbEntity
8
0-00
6
CONTINUOUS
62
7
100
AcDbCircle
10
167.300000000000
20
886.730000000000
30
0.0
40
2.699933806204
100
AcDbArc
50
104.036239624023
51
284.036239624023
0
ARC
5
ab6
100
AcDbEntity
8
0-00
6
CONTINUOUS
62
7
100
AcDbCircle
10
167.300000000000
20
886.730000000000
30
0.0
40
2.099942602138
100
AcDbArc
50
104.036239624023
51
284.036239624023
0
ARC
5
ab7
100
AcDbEntity
8
0-00
6
CONTINUOUS
62
3
100
AcDbCircle
10
250.970000000000
20
872.710000000000
30
0.0
40
1.399999959401
100
AcDbArc
50
284.036148071289
51
365.290145874023
0
ARC
5
ab8
100
AcDbEntity
8
0-00
6
CONTINUOUS
62
3
100
AcDbCircle
10
250.970000000000
20
872.710000000000
30
0.0
40
2.099999890715
100
AcDbArc
50
284.036148071289
51
365.290145874023
0
ARC
5
ab9
100
AcDbEntity
8
0-00
6
CONTINUOUS
62
3
100
AcDbCircle
10
253.880000000000
20
879.230000000000
30
0.0
40
1.399999959401
100
AcDbArc
50
94.036178588867
51
185.290435791016
0
ARC
5
aba
100
AcDbEntity
8
0-00
6
CONTINUOUS
62
3
100
AcDbCircle
10
253.880000000000
20
879.230000000000
30
0.0
40
2.099999890715
100
AcDbArc
50
94.036178588867
51
185.290435791016
0
ARC
5
abb
100
AcDbEntity
8
0-00
6
CONTINUOUS
62
3
100
AcDbCircle
10
231.950000000000
20
867.950000000000
30
0.0
40
1.399999959401
100
AcDbArc
50
225.000244140625
51
284.036148071289
0
ARC
5
abc
100
AcDbEntity
8
0-00
6
CONTINUOUS
62
3
100
AcDbCircle
10
231.950000000000
20
867.950000000000
30
0.0
40
2.099999890715
100
AcDbArc
50
225.000244140625
51
284.036148071289
0
ARC
5
abd
100
AcDbEntity
8
0-00
6
CONTINUOUS
62
3
100
AcDbCircle
10
220.120000000000
20
875.830000000000
30
0.0
40
1.399999959401
100
AcDbArc
50
44.999221801758
51
142.696273803711
0
ARC
5
abe
100
AcDbEntity
8
0-00
6
CONTINUOUS
62
3
100
AcDbCircle
10
220.120000000000
20
875.830000000000
30
0.0
40
2.099999890715
100
AcDbArc
50
44.999221801758
51
142.696273803711
0
ARC
5
abf
100
AcDbEntity
8
0-00
6
CONTINUOUS
62
3
100
AcDbCircle
10
215.360000000000
20
875.350000000000
30
0.0
40
1.399999959401
100
AcDbArc
50
284.036148071289
51
322.696273803711
0
ARC
5
ac0
100
AcDbEntity
8
0-00
6
CONTINUOUS
62
3
100
AcDbCircle
10
215.360000000000
20
875.350000000000
30
0.0
40
2.099999890715
100
AcDbArc
50
284.036148071289
51
322.696273803711
0
ARC
5
ac1
100
AcDbEntity
8
0-00
6
CONTINUOUS
62
3
100
AcDbCircle
10
203.520000000000
20
869.070000000000
30
0.0
40
1.120000006229
100
AcDbArc
50
104.036148071289
51
266.199996948242
0
ARC
5
ac2
100
AcDbEntity
8
0-00
6
CONTINUOUS
62
3
100
AcDbCircle
10
203.520000000000
20
869.070000000000
30
0.0
40
1.820000034315
100
AcDbArc
50
104.036148071289
51
266.199996948242
0
ARC
5
ac3
100
AcDbEntity
8
0-00
6
CONTINUOUS
62
3
100
AcDbCircle
10
215.900000000000
20
865.380000000000
30
0.0
40
2.799999918801
100
AcDbArc
50
284.036148071289
51
86.201034545898
0
ARC
5
ac4
100
AcDbEntity
8
0-00
6
CONTINUOUS
62
3
100
AcDbCircle
10
215.900000000000
20
865.380000000000
30
0.0
40
3.500000333972
100
AcDbArc
50
284.036148071289
51
86.201034545898
0
ARC
5
ac5
100
AcDbEntity
8
0-00
6
CONTINUOUS
62
7
100
AcDbCircle
10
189.390000000000
20
857.730000000000
30
0.0
40
0.600000010249
100
AcDbArc
50
281.749282836914
51
14.036239624023
0
ARC
5
ac6
100
AcDbEntity
8
0-00
6
CONTINUOUS
62
7
100
AcDbCircle
10
189.390000000000
20
857.730000000000
30
0.0
40
1.200000020498
100
AcDbArc
50
281.749282836914
51
14.036239624023
0
ARC
5
ac7
100
AcDbEntity
8
0-00
6
CONTINUOUS
62
4
100
AcDbCircle
10
242.220000000000
20
867.470000000000
30
0.0
40
4.017474503680
100
AcDbArc
50
55.732177734375
51
152.345916748047
0
ARC
5
ac8
100
AcDbEntity
8
0-00
6
CONTINUOUS
62
3
100
AcDbCircle
10
436.050000000000
20
827.990000000000
30
0.0
40
2.299999732846
100
AcDbArc
50
345.963973999023
51
435.963973999023
0
ARC
5
ac9
100
AcDbEntity
8
0-00
6
CONTINUOUS
62
3
100
AcDbCircle
10
392.010000000000
20
839.000000000000
30
0.0
40
2.299999732846
100
AcDbArc
50
75.963973999023
51
165.963973999023
0
ARC
5
aca
100
AcDbEntity
8
0-00
6
CONTINUOUS
62
3
100
AcDbCircle
10
368.870000000000
20
746.450000000000
30
0.0
40
2.299999732846
100
AcDbArc
50
165.963973999023
51
255.963973999023
0
ARC
5
acb
100
AcDbEntity
8
0-00
6
CONTINUOUS
62
3
100
AcDbCircle
10
412.910000000000
20
735.440000000000
30
0.0
40
2.299999732846
100
AcDbArc
50
255.963973999023
51
345.963973999023
0
ARC
5
acc
100
AcDbEntity
8
0-00
6
CONTINUOUS
62
7
100
AcDbCircle
10
425.060000000000
20
898.670000000000
30
0.0
40
0.899958935980
100
AcDbArc
50
75.962677001953
51
-104.037322998047
0
ARC
5
acd
100
AcDbEntity
8
0-00
6
CONTINUOUS
62
7
100
AcDbCircle
10
425.060000000000
20
898.670000000000
30
0.0
40
0.299937684443
100
AcDbArc
50
75.960525512695
51
-104.039474487305
0
ARC
5
ace
100
AcDbEntity
8
0-00
6
CONTINUOUS
62
7
100
AcDbCircle
10
474.780000000000
20
850.160000000000
30
0.0
40
0.899986419014
100
AcDbArc
50
255.963760375977
51
435.963760375977
0
ARC
5
acf
100
AcDbEntity
8
0-00
6
CONTINUOUS
62
7
100
AcDbCircle
10
474.780000000000
20
850.160000000000
30
0.0
40
0.299995481069
100
AcDbArc
50
255.963760375977
51
435.963760375977
0
ARC
5
ad0
100
AcDbEntity
8
0-00
6
CONTINUOUS
62
7
100
AcDbCircle
10
467.850000000000
20
886.730000000000
30
0.0
40
0.899960871405
100
AcDbArc
50
255.963760375977
51
435.963760375977
0
ARC
5
ad1
100
AcDbEntity
8
0-00
6
CONTINUOUS
62
7
100
AcDbCircle
10
467.850000000000
20
886.730000000000
30
0.0
40
0.299995481069
100
AcDbArc
50
255.963760375977
51
435.963760375977
0
ARC
5
ad2
100
AcDbEntity
8
0-00
6
CONTINUOUS
62
7
100
AcDbCircle
10
453.510000000000
20
888.770000000000
30
0.0
40
0.600000010249
100
AcDbArc
50
75.963760375977
51
165.964050292969
0
ARC
5
ad3
100
AcDbEntity
8
0-00
6
CONTINUOUS
62
7
100
AcDbCircle
10
453.510000000000
20
888.770000000000
30
0.0
40
1.200000020498
100
AcDbArc
50
75.963760375977
51
165.964050292969
0
ARC
5
ad4
100
AcDbEntity
8
0-00
6
CONTINUOUS
62
7
100
AcDbCircle
10
467.850000000000
20
886.730000000000
30
0.0
40
2.699933806204
100
AcDbArc
50
255.963760375977
51
435.963760375977
0
ARC
5
ad5
100
AcDbEntity
8
0-00
6
CONTINUOUS
62
7
100
AcDbCircle
10
467.850000000000
20
886.730000000000
30
0.0
40
2.099942602138
100
AcDbArc
50
255.963760375977
51
435.963760375977
0
ARC
5
ad6
100
AcDbEntity
8
0-00
6
CONTINUOUS
62
3
100
AcDbCircle
10
384.170000000000
20
872.710000000000
30
0.0
40
1.399999959401
100
AcDbArc
50
174.710006713867
51
255.964004516602
0
ARC
5
ad7
100
AcDbEntity
8
0-00
6
CONTINUOUS
62
3
100
AcDbCircle
10
384.170000000000
20
872.710000000000
30
0.0
40
2.099999890715
100
AcDbArc
50
174.709915161133
51
255.963912963867
0
ARC
5
ad8
100
AcDbEntity
8
0-00
6
CONTINUOUS
62
3
100
AcDbCircle
10
381.260000000000
20
879.230000000000
30
0.0
40
1.399999959401
100
AcDbArc
50
354.709716796875
51
445.963973999023
0
ARC
5
ad9
100
AcDbEntity
8
0-00
6
CONTINUOUS
62
3
100
AcDbCircle
10
381.260000000000
20
879.230000000000
30
0.0
40
2.099999890715
100
AcDbArc
50
354.709625244141
51
445.963882446289
0
ARC
5
ada
100
AcDbEntity
8
0-00
6
CONTINUOUS
62
3
100
AcDbCircle
10
403.190000000000
20
867.950000000000
30
0.0
40
1.399999959401
100
AcDbArc
50
255.964004516602
51
314.999908447266
0
ARC
5
adb
100
AcDbEntity
8
0-00
6
CONTINUOUS
62
3
100
AcDbCircle
10
403.190000000000
20
867.950000000000
30
0.0
40
2.099999890715
100
AcDbArc
50
255.963912963867
51
314.999816894531
0
ARC
5
adc
100
AcDbEntity
8
0-00
6
CONTINUOUS
62
3
100
AcDbCircle
10
415.020000000000
20
875.830000000000
30
0.0
40
1.399999959401
100
AcDbArc
50
37.303878784180
51
135.000930786133
0
ARC
5
add
100
AcDbEntity
8
0-00
6
CONTINUOUS
62
3
100
AcDbCircle
10
415.020000000000
20
875.830000000000
30
0.0
40
2.099999890715
100
AcDbArc
50
37.303787231445
51
135.000839233398
0
ARC
5
ade
100
AcDbEntity
8
0-00
6
CONTINUOUS
62
3
100
AcDbCircle
10
419.790000000000
20
875.350000000000
30
0.0
40
1.399999959401
100
AcDbArc
50
217.303878784180
51
255.964004516602
0
ARC
5
adf
100
AcDbEntity
8
0-00
6
CONTINUOUS
62
3
100
AcDbCircle
10
419.790000000000
20
875.350000000000
30
0.0
40
2.099999890715
100
AcDbArc
50
217.303787231445
51
255.963912963867
0
ARC
5
ae0
100
AcDbEntity
8
0-00
6
CONTINUOUS
62
3
100
AcDbCircle
10
431.630000000000
20
869.070000000000
30
0.0
40
1.120000006229
100
AcDbArc
50
273.799911499023
51
435.963760375977
0
ARC
5
ae1
100
AcDbEntity
8
0-00
6
CONTINUOUS
62
3
100
AcDbCircle
10
431.630000000000
20
869.070000000000
30
0.0
40
1.820000034315
100
AcDbArc
50
273.799911499023
51
435.963760375977
0
ARC
5
ae2
100
AcDbEntity
8
0-00
6
CONTINUOUS
62
3
100
AcDbCircle
10
419.240000000000
20
865.380000000000
30
0.0
40
2.799999918801
100
AcDbArc
50
93.799118041992
51
-104.035995483398
0
ARC
5
ae3
100
AcDbEntity
8
0-00
6
CONTINUOUS
62
3
100
AcDbCircle
10
419.240000000000
20
865.380000000000
30
0.0
40
3.500000333972
100
AcDbArc
50
93.799072265625
51
-104.036041259766
0
ARC
5
ae4
100
AcDbEntity
8
0-00
6
CONTINUOUS
62
7
100
AcDbCircle
10
445.750000000000
20
857.730000000000
30
0.0
40
0.600000010249
100
AcDbArc
50
165.963760375977
51
-101.749282836914
0
ARC
5
ae5
100
AcDbEntity
8
0-00
6
CONTINUOUS
62
7
100
AcDbCircle
10
445.750000000000
20
857.730000000000
30
0.0
40
1.200000020498
100
AcDbArc
50
165.963760375977
51
-101.749282836914
0
ARC
5
ae6
100
AcDbEntity
8
0-00
6
CONTINUOUS
62
4
100
AcDbCircle
10
392.920000000000
20
867.470000000000
30
0.0
40
4.017474503680
100
AcDbArc
50
27.654083251953
51
124.267822265625
0
ARC
5
ae7
100
AcDbEntity
8
0-1_2_0
6
CONTINUOUS
62
3
100
AcDbCircle
10
811.230000000000
20
747.990000000000
30
0.0
40
2.299999732846
100
AcDbArc
50
104.036209106445
51
194.036209106445
0
ARC
5
ae8
100
AcDbEntity
8
0-1_2_0
6
CONTINUOUS
62
3
100
AcDbCircle
10
855.280000000000
20
759.000000000000
30
0.0
40
2.299999732846
100
AcDbArc
50
14.036209106445
51
104.036209106445
0
ARC
5
ae9
100
AcDbEntity
8
0-1_2_0
6
CONTINUOUS
62
3
100
AcDbCircle
10
878.410000000000
20
666.450000000000
30
0.0
40
2.299999732846
100
AcDbArc
50
284.036209106445
51
374.036209106445
0
ARC
5
aea
100
AcDbEntity
8
0-1_2_0
6
CONTINUOUS
62
3
100
AcDbCircle
10
834.370000000000
20
655.440000000000
30
0.0
40
2.299999732846
100
AcDbArc
50
194.036209106445
51
284.036209106445
0
ARC
5
aeb
100
AcDbEntity
8
0-1_2_0
6
CONTINUOUS
62
7
100
AcDbCircle
10
822.220000000000
20
818.670000000000
30
0.0
40
0.899958935980
100
AcDbArc
50
284.037155151367
51
104.037155151367
0
ARC
5
aec
100
AcDbEntity
8
0-1_2_0
6
CONTINUOUS
62
7
100
AcDbCircle
10
822.220000000000
20
818.670000000000
30
0.0
40
0.299937684443
100
AcDbArc
50
284.039001464844
51
104.039001464844
0
ARC
5
aed
100
AcDbEntity
8
0-1_2_0
6
CONTINUOUS
62
7
100
AcDbCircle
10
772.500000000000
20
770.160000000000
30
0.0
40
0.899986419014
100
AcDbArc
50
104.036239624023
51
284.036239624023
0
ARC
5
aee
100
AcDbEntity
8
0-1_2_0
6
CONTINUOUS
62
7
100
AcDbCircle
10
772.500000000000
20
770.160000000000
30
0.0
40
0.299995481069
100
AcDbArc
50
104.036239624023
51
284.036239624023
0
ARC
5
aef
100
AcDbEntity
8
0-1_2_0
6
CONTINUOUS
62
7
100
AcDbCircle
10
779.440000000000
20
806.730000000000
30
0.0
40
0.899960871405
100
AcDbArc
50
104.036239624023
51
284.036239624023
0
ARC
5
af0
100
AcDbEntity
8
0-1_2_0
6
CONTINUOUS
62
7
100
AcDbCircle
10
779.440000000000
20
806.730000000000
30
0.0
40
0.299995481069
100
AcDbArc
50
104.036239624023
51
284.036239624023
0
ARC
5
af1
100
AcDbEntity
8
0-1_2_0
6
CONTINUOUS
62
7
100
AcDbCircle
10
793.770000000000
20
808.770000000000
30
0.0
40
0.600000010249
100
AcDbArc
50
14.035949707031
51
104.036239624023
0
ARC
5
af2
100
AcDbEntity
8
0-1_2_0
6
CONTINUOUS
62
7
100
AcDbCircle
10
793.770000000000
20
808.770000000000
30
0.0
40
1.200000020498
100
AcDbArc
50
14.035949707031
51
104.036239624023
0
ARC
5
af3
100
AcDbEntity
8
0-1_2_0
6
CONTINUOUS
62
7
100
AcDbCircle
10
779.440000000000
20
806.730000000000
30
0.0
40
2.699933806204
100
AcDbArc
50
104.036239624023
51
284.036239624023
0
ARC
5
af4
100
AcDbEntity
8
0-1_2_0
6
CONTINUOUS
62
7
100
AcDbCircle
10
779.440000000000
20
806.730000000000
30
0.0
40
2.099942602138
100
AcDbArc
50
104.036239624023
51
284.036239624023
0
ARC
5
af5
100
AcDbEntity
8
0-1_2_0
6
CONTINUOUS
62
3
100
AcDbCircle
10
1027.410000000000
20
885.690000000000
30
0.0
40
2.299999732846
100
AcDbArc
50
270.000000000000
51
360.000000000000
0
ARC
5
af6
100
AcDbEntity
8
0-1_2_0
6
CONTINUOUS
62
3
100
AcDbCircle
10
1027.410000000000
20
931.090000000000
30
0.0
40
2.299999732846
100
AcDbArc
50
360.000000000000
51
450.000000000000
0
ARC
5
af7
100
AcDbEntity
8
0-1_2_0
6
CONTINUOUS
62
3
100
AcDbCircle
10
932.010000000000
20
931.090000000000
30
0.0
40
2.299999732846
100
AcDbArc
50
90.000000000000
51
180.000000000000
0
ARC
5
af8
100
AcDbEntity
8
0-1_2_0
6
CONTINUOUS
62
3
100
AcDbCircle
10
932.010000000000
20
885.690000000000
30
0.0
40
2.299999732846
100
AcDbArc
50
180.000000000000
51
270.000000000000
0
ARC
5
af9
100
AcDbEntity
8
0-1_2_0
6
CONTINUOUS
62
7
100
AcDbCircle
10
926.810000000000
20
963.870000000000
30
0.0
40
0.300006319448
100
AcDbArc
50
360.000000000000
51
540.000000000000
0
ARC
5
afa
100
AcDbEntity
8
0-1_2_0
6
CONTINUOUS
62
7
100
AcDbCircle
10
926.810000000000
20
963.870000000000
30
0.0
40
0.900019030923
100
AcDbArc
50
360.000000000000
51
540.000000000000
0
ARC
5
afb
100
AcDbEntity
8
0-1_2_0
6
DASHED
62
7
100
AcDbCircle
10
924.710000000000
20
809.140000000000
30
0.0
40
3.999999939299
100
AcDbArc
50
284.035903930664
51
0.000000000000
0
ARC
5
afc
100
AcDbEntity
8
0-1_2_0
6
CONTINUOUS
62
3
100
AcDbCircle
10
863.110000000000
20
792.710000000000
30
0.0
40
1.399999959401
100
AcDbArc
50
284.036148071289
51
365.290145874023
0
ARC
5
afd
100
AcDbEntity
8
0-1_2_0
6
CONTINUOUS
62
3
100
AcDbCircle
10
863.110000000000
20
792.710000000000
30
0.0
40
2.099999890715
100
AcDbArc
50
284.036148071289
51
365.290145874023
0
ARC
5
afe
100
AcDbEntity
8
0-1_2_0
6
CONTINUOUS
62
3
100
AcDbCircle
10
866.020000000000
20
799.230000000000
30
0.0
40
1.399999959401
100
AcDbArc
50
94.036178588867
51
185.290435791016
0
ARC
5
aff
100
AcDbEntity
8
0-1_2_0
6
CONTINUOUS
62
3
100
AcDbCircle
10
866.020000000000
20
799.230000000000
30
0.0
40
2.099999890715
100
AcDbArc
50
94.036178588867
51
185.290435791016
0
ARC
5
b00
100
AcDbEntity
8
0-1_2_0
6
CONTINUOUS
62
3
100
AcDbCircle
10
844.090000000000
20
787.950000000000
30
0.0
40
1.399999959401
100
AcDbArc
50
225.000244140625
51
284.036148071289
0
ARC
5
b01
100
AcDbEntity
8
0-1_2_0
6
CONTINUOUS
62
3
100
AcDbCircle
10
844.090000000000
20
787.950000000000
30
0.0
40
2.099999890715
100
AcDbArc
50
225.000244140625
51
284.036148071289
0
ARC
5
b02
100
AcDbEntity
8
0-1_2_0
6
CONTINUOUS
62
3
100
AcDbCircle
10
832.260000000000
20
795.830000000000
30
0.0
40
1.399999959401
100
AcDbArc
50
44.999221801758
51
142.696273803711
0
ARC
5
b03
100
AcDbEntity
8
0-1_2_0
6
CONTINUOUS
62
3
100
AcDbCircle
10
832.260000000000
20
795.830000000000
30
0.0
40
2.099999890715
100
AcDbArc
50
44.999221801758
51
142.696273803711
0
ARC
5
b04
100
AcDbEntity
8
0-1_2_0
6
CONTINUOUS
62
3
100
AcDbCircle
10
827.500000000000
20
795.350000000000
30
0.0
40
1.399999959401
100
AcDbArc
50
284.036148071289
51
322.696273803711
0
ARC
5
b05
100
AcDbEntity
8
0-1_2_0
6
CONTINUOUS
62
3
100
AcDbCircle
10
827.500000000000
20
795.350000000000
30
0.0
40
2.099999890715
100
AcDbArc
50
284.036148071289
51
322.696273803711
0
ARC
5
b06
100
AcDbEntity
8
0-1_2_0
6
CONTINUOUS
62
3
100
AcDbCircle
10
815.660000000000
20
789.070000000000
30
0.0
40
1.120000006229
100
AcDbArc
50
104.036148071289
51
266.199996948242
0
ARC
5
b07
100
AcDbEntity
8
0-1_2_0
6
CONTINUOUS
62
3
100
AcDbCircle
10
815.660000000000
20
789.070000000000
30
0.0
40
1.820000034315
100
AcDbArc
50
104.036148071289
51
266.199996948242
0
ARC
5
b08
100
AcDbEntity
8
0-1_2_0
6
CONTINUOUS
62
3
100
AcDbCircle
10
828.040000000000
20
785.380000000000
30
0.0
40
2.799999918801
100
AcDbArc
50
284.036148071289
51
86.201034545898
0
ARC
5
b09
100
AcDbEntity
8
0-1_2_0
6
CONTINUOUS
62
3
100
AcDbCircle
10
828.040000000000
20
785.380000000000
30
0.0
40
3.500000333972
100
AcDbArc
50
284.036148071289
51
86.201034545898
0
ARC
5
b0a
100
AcDbEntity
8
0-1_2_0
6
CONTINUOUS
62
7
100
AcDbCircle
10
801.530000000000
20
777.730000000000
30
0.0
40
0.600000010249
100
AcDbArc
50
281.749282836914
51
14.036239624023
0
ARC
5
b0b
100
AcDbEntity
8
0-1_2_0
6
CONTINUOUS
62
7
100
AcDbCircle
10
801.530000000000
20
777.730000000000
30
0.0
40
1.200000020498
100
AcDbArc
50
281.749282836914
51
14.036239624023
0
ARC
5
b0c
100
AcDbEntity
8
0-1_2_0
6
CONTINUOUS
62
7
100
AcDbCircle
10
926.510000000000
20
845.720000000000
30
0.0
40
0.600000010249
100
AcDbArc
50
283.426910400391
51
0.000000000000
0
ARC
5
b0d
100
AcDbEntity
8
0-1_2_0
6
CONTINUOUS
62
7
100
AcDbCircle
10
926.510000000000
20
845.720000000000
30
0.0
40
1.200000020498
100
AcDbArc
50
283.426910400391
51
0.000000000000
0
ARC
5
b0e
100
AcDbEntity
8
0-1_2_0
6
CONTINUOUS
62
4
100
AcDbCircle
10
854.360000000000
20
787.470000000000
30
0.0
40
4.017474503680
100
AcDbArc
50
55.732177734375
51
152.345916748047
0
ARC
5
b0f
100
AcDbEntity
8
0-2_2_1
6
CONTINUOUS
62
7
100
AcDbCircle
10
1362.740000000000
20
909.810000000000
30
0.0
40
1.500151617779
100
AcDbArc
50
284.039459228516
51
104.039459228516
0
ARC
5
b10
100
AcDbEntity
8
0-2_2_1
6
CONTINUOUS
62
7
100
AcDbCircle
10
1362.740000000000
20
909.810000000000
30
0.0
40
2.100106532627
100
AcDbArc
50
284.040176391602
51
104.040176391602
0
ARC
5
b11
100
AcDbEntity
8
0-2_2_1
6
CONTINUOUS
62
7
100
AcDbCircle
10
1465.120000000000
20
867.780000000000
30
0.0
40
0.600000010249
100
AcDbArc
50
255.963760375977
51
420.963455200195
0
ARC
5
b12
100
AcDbEntity
8
0-2_2_1
6
CONTINUOUS
62
7
100
AcDbCircle
10
1465.120000000000
20
867.780000000000
30
0.0
40
1.200000020498
100
AcDbArc
50
255.963760375977
51
420.963455200195
0
ARC
5
b13
100
AcDbEntity
8
0-2_2_1
6
CONTINUOUS
62
7
100
AcDbCircle
10
1374.920000000000
20
909.810000000000
30
0.0
40
1.500151617779
100
AcDbArc
50
75.960540771484
51
-104.039459228516
0
ARC
5
b14
100
AcDbEntity
8
0-2_2_1
6
CONTINUOUS
62
7
100
AcDbCircle
10
1374.920000000000
20
909.810000000000
30
0.0
40
2.100106532627
100
AcDbArc
50
75.959823608398
51
-104.040176391602
0
ARC
5
b15
100
AcDbEntity
8
0-6_2_5
6
CONTINUOUS
62
7
100
AcDbCircle
10
1469.050000000000
20
356.120000000000
30
0.0
40
0.900016418100
100
AcDbArc
50
104.037384033203
51
-75.962615966797
0
ARC
5
b16
100
AcDbEntity
8
0-6_2_5
6
CONTINUOUS
62
7
100
AcDbCircle
10
1469.050000000000
20
356.120000000000
30
0.0
40
0.299989457059
100
AcDbArc
50
104.031646728516
51
-75.968353271484
0
ARC
5
b17
100
AcDbEntity
8
0-6_2_5
6
CONTINUOUS
62
7
100
AcDbCircle
10
1488.890000000000
20
359.230000000000
30
0.0
40
1.500007428623
100
AcDbArc
50
284.036926269531
51
464.036926269531
0
ARC
5
b18
100
AcDbEntity
8
0-6_2_5
6
CONTINUOUS
62
7
100
AcDbCircle
10
1488.890000000000
20
359.230000000000
30
0.0
40
0.900016418100
100
AcDbArc
50
284.037384033203
51
464.037384033203
0
ARC
5
b19
100
AcDbEntity
8
0-6_2_5
6
CONTINUOUS
62
7
100
AcDbCircle
10
1569.200000000000
20
379.300000000000
30
0.0
40
1.500007428623
100
AcDbArc
50
284.036926269531
51
464.036926269531
0
ARC
5
b1a
100
AcDbEntity
8
0-6_2_5
6
CONTINUOUS
62
7
100
AcDbCircle
10
1569.200000000000
20
379.300000000000
30
0.0
40
0.899980419197
100
AcDbArc
50
284.034713745117
51
464.034713745117
0
ARC
5
b1b
100
AcDbEntity
8
0-6_2_5
6
CONTINUOUS
62
7
100
AcDbCircle
10
1468.300000000000
20
355.010000000000
30
0.0
40
0.600000010249
100
AcDbArc
50
194.036239624023
51
284.040832519531
0
ARC
5
b1c
100
AcDbEntity
8
0-6_2_5
6
CONTINUOUS
62
7
100
AcDbCircle
10
1468.300000000000
20
355.010000000000
30
0.0
40
1.200000020498
100
AcDbArc
50
194.036239624023
51
284.040832519531
0
ARC
5
b1d
100
AcDbEntity
8
0-5_2_4
6
CONTINUOUS
62
7
100
AcDbCircle
10
926.810000000000
20
437.310000000000
30
0.0
40
0.300006319448
100
AcDbArc
50
360.000000000000
51
540.000000000000
0
ARC
5
b1e
100
AcDbEntity
8
0-5_2_4
6
CONTINUOUS
62
7
100
AcDbCircle
10
926.810000000000
20
437.310000000000
30
0.0
40
0.900019030923
100
AcDbArc
50
360.000000000000
51
540.000000000000
0
ARC
5
b1f
100
AcDbEntity
8
0-4_2_3
6
CONTINUOUS
62
7
100
AcDbCircle
10
281.770000000000
20
372.700000000000
30
0.0
40
0.899958935980
100
AcDbArc
50
284.037155151367
51
104.037155151367
0
ARC
5
b20
100
AcDbEntity
8
0-4_2_3
6
CONTINUOUS
62
7
100
AcDbCircle
10
281.770000000000
20
372.700000000000
30
0.0
40
0.299937684443
100
AcDbArc
50
284.039001464844
51
104.039001464844
0
ARC
5
b21
100
AcDbEntity
8
0-4_2_3
6
CONTINUOUS
62
7
100
AcDbCircle
10
232.050000000000
20
324.190000000000
30
0.0
40
0.899986419014
100
AcDbArc
50
104.036239624023
51
284.036239624023
0
ARC
5
b22
100
AcDbEntity
8
0-4_2_3
6
CONTINUOUS
62
7
100
AcDbCircle
10
232.050000000000
20
324.190000000000
30
0.0
40
0.299995481069
100
AcDbArc
50
104.036239624023
51
284.036239624023
0
ARC
5
b23
100
AcDbEntity
8
0-4_2_3
6
CONTINUOUS
62
7
100
AcDbCircle
10
238.990000000000
20
360.770000000000
30
0.0
40
0.899960871405
100
AcDbArc
50
104.036239624023
51
284.036239624023
0
ARC
5
b24
100
AcDbEntity
8
0-4_2_3
6
CONTINUOUS
62
7
100
AcDbCircle
10
238.990000000000
20
360.770000000000
30
0.0
40
0.299995481069
100
AcDbArc
50
104.036239624023
51
284.036239624023
0
ARC
5
b25
100
AcDbEntity
8
0-4_2_3
6
CONTINUOUS
62
7
100
AcDbCircle
10
253.320000000000
20
362.800000000000
30
0.0
40
0.600000010249
100
AcDbArc
50
14.035949707031
51
104.036239624023
0
ARC
5
b26
100
AcDbEntity
8
0-4_2_3
6
CONTINUOUS
62
7
100
AcDbCircle
10
253.320000000000
20
362.800000000000
30
0.0
40
1.200000020498
100
AcDbArc
50
14.035949707031
51
104.036239624023
0
ARC
5
b27
100
AcDbEntity
8
0-4_2_3
6
CONTINUOUS
62
7
100
AcDbCircle
10
238.990000000000
20
360.770000000000
30
0.0
40
2.699933806204
100
AcDbArc
50
104.036239624023
51
284.036239624023
0
ARC
5
b28
100
AcDbEntity
8
0-4_2_3
6
CONTINUOUS
62
7
100
AcDbCircle
10
238.990000000000
20
360.770000000000
30
0.0
40
2.099942602138
100
AcDbArc
50
104.036239624023
51
284.036239624023
0
ARC
5
b29
100
AcDbEntity
8
0-4_2_3
6
CONTINUOUS
62
3
100
AcDbCircle
10
322.660000000000
20
346.740000000000
30
0.0
40
1.399999959401
100
AcDbArc
50
284.036148071289
51
365.290145874023
0
ARC
5
b2a
100
AcDbEntity
8
0-4_2_3
6
CONTINUOUS
62
3
100
AcDbCircle
10
322.660000000000
20
346.740000000000
30
0.0
40
2.099999890715
100
AcDbArc
50
284.036148071289
51
365.290145874023
0
ARC
5
b2b
100
AcDbEntity
8
0-4_2_3
6
CONTINUOUS
62
3
100
AcDbCircle
10
325.570000000000
20
353.270000000000
30
0.0
40
1.399999959401
100
AcDbArc
50
94.036178588867
51
185.290435791016
0
ARC
5
b2c
100
AcDbEntity
8
0-4_2_3
6
CONTINUOUS
62
3
100
AcDbCircle
10
325.570000000000
20
353.270000000000
30
0.0
40
2.099999890715
100
AcDbArc
50
94.036178588867
51
185.290435791016
0
ARC
5
b2d
100
AcDbEntity
8
0-4_2_3
6
CONTINUOUS
62
3
100
AcDbCircle
10
303.640000000000
20
341.990000000000
30
0.0
40
1.399999959401
100
AcDbArc
50
225.000244140625
51
284.036148071289
0
ARC
5
b2e
100
AcDbEntity
8
0-4_2_3
6
CONTINUOUS
62
3
100
AcDbCircle
10
303.640000000000
20
341.990000000000
30
0.0
40
2.099999890715
100
AcDbArc
50
225.000244140625
51
284.036148071289
0
ARC
5
b2f
100
AcDbEntity
8
0-4_2_3
6
CONTINUOUS
62
3
100
AcDbCircle
10
291.810000000000
20
349.860000000000
30
0.0
40
1.399999959401
100
AcDbArc
50
44.999221801758
51
142.696273803711
0
ARC
5
b30
100
AcDbEntity
8
0-4_2_3
6
CONTINUOUS
62
3
100
AcDbCircle
10
291.810000000000
20
349.860000000000
30
0.0
40
2.099999890715
100
AcDbArc
50
44.999221801758
51
142.696273803711
0
ARC
5
b31
100
AcDbEntity
8
0-4_2_3
6
CONTINUOUS
62
3
100
AcDbCircle
10
287.050000000000
20
349.380000000000
30
0.0
40
1.399999959401
100
AcDbArc
50
284.036148071289
51
322.696273803711
0
ARC
5
b32
100
AcDbEntity
8
0-4_2_3
6
CONTINUOUS
62
3
100
AcDbCircle
10
287.050000000000
20
349.380000000000
30
0.0
40
2.099999890715
100
AcDbArc
50
284.036148071289
51
322.696273803711
0
ARC
5
b33
100
AcDbEntity
8
0-4_2_3
6
CONTINUOUS
62
3
100
AcDbCircle
10
275.210000000000
20
343.100000000000
30
0.0
40
1.120000006229
100
AcDbArc
50
104.036148071289
51
266.199996948242
0
ARC
5
b34
100
AcDbEntity
8
0-4_2_3
6
CONTINUOUS
62
3
100
AcDbCircle
10
275.210000000000
20
343.100000000000
30
0.0
40
1.820000034315
100
AcDbArc
50
104.036148071289
51
266.199996948242
0
ARC
5
b35
100
AcDbEntity
8
0-4_2_3
6
CONTINUOUS
62
3
100
AcDbCircle
10
287.590000000000
20
339.420000000000
30
0.0
40
2.799999918801
100
AcDbArc
50
284.036148071289
51
86.201034545898
0
ARC
5
b36
100
AcDbEntity
8
0-4_2_3
6
CONTINUOUS
62
3
100
AcDbCircle
10
287.590000000000
20
339.420000000000
30
0.0
40
3.500000333972
100
AcDbArc
50
284.036148071289
51
86.201034545898
0
ARC
5
b37
100
AcDbEntity
8
0-4_2_3
6
CONTINUOUS
62
7
100
AcDbCircle
10
261.080000000000
20
331.760000000000
30
0.0
40
0.600000010249
100
AcDbArc
50
281.749282836914
51
14.036239624023
0
ARC
5
b38
100
AcDbEntity
8
0-4_2_3
6
CONTINUOUS
62
7
100
AcDbCircle
10
261.080000000000
20
331.760000000000
30
0.0
40
1.200000020498
100
AcDbArc
50
281.749282836914
51
14.036239624023
0
ARC
5
b39
100
AcDbEntity
8
0-4_2_3
6
CONTINUOUS
62
4
100
AcDbCircle
10
313.910000000000
20
341.500000000000
30
0.0
40
4.017474503680
100
AcDbArc
50
55.732177734375
51
152.345916748047
0
ARC
5
b3a
100
AcDbEntity
8
0-4_2_3
6
CONTINUOUS
62
3
100
AcDbCircle
10
312.890000000000
20
312.550000000000
30
0.0
40
2.299999732846
100
AcDbArc
50
14.036697387695
51
104.036697387695
0
ARC
5
b3b
100
AcDbEntity
8
0-4_2_3
6
CONTINUOUS
62
3
100
AcDbCircle
10
268.840000000000
20
301.540000000000
30
0.0
40
2.299999732846
100
AcDbArc
50
104.036697387695
51
194.036697387695
0
ARC
5
b3c
100
AcDbEntity
8
0-4_2_3
6
CONTINUOUS
62
3
100
AcDbCircle
10
291.980000000000
20
208.990000000000
30
0.0
40
2.299999732846
100
AcDbArc
50
194.036697387695
51
284.036697387695
0
ARC
5
b3d
100
AcDbEntity
8
0-4_2_3
6
CONTINUOUS
62
3
100
AcDbCircle
10
336.030000000000
20
220.000000000000
30
0.0
40
2.299999732846
100
AcDbArc
50
284.036697387695
51
374.036697387695
0
ARC
5
b3e
100
AcDbEntity
8
0-4_2_3
6
CONTINUOUS
62
7
100
AcDbCircle
10
361.160000000000
20
275.230000000000
30
0.0
40
0.899981870765
100
AcDbArc
50
180.000000000000
51
0.000000000000
0
ARC
5
b3f
100
AcDbEntity
8
0-4_2_3
6
CONTINUOUS
62
7
100
AcDbCircle
10
361.160000000000
20
275.230000000000
30
0.0
40
0.299993956922
100
AcDbArc
50
180.000000000000
51
0.000000000000
0
ARC
5
b40
100
AcDbEntity
8
0-4_2_3
6
CONTINUOUS
62
7
100
AcDbCircle
10
362.660000000000
20
325.100000000000
30
0.0
40
0.600000010249
100
AcDbArc
50
104.036239624023
51
180.000000000000
0
ARC
5
b41
100
AcDbEntity
8
0-4_2_3
6
CONTINUOUS
62
7
100
AcDbCircle
10
362.660000000000
20
325.100000000000
30
0.0
40
1.200000020498
100
AcDbArc
50
104.036239624023
51
180.000000000000
0
ARC
5
b42
100
AcDbEntity
8
0-4_2_3
6
CONTINUOUS
62
7
100
AcDbCircle
10
387.660000000000
20
331.350000000000
30
0.0
40
0.600000010249
100
AcDbArc
50
360.000000000000
51
464.038543701172
0
ARC
5
b43
100
AcDbEntity
8
0-4_2_3
6
CONTINUOUS
62
7
100
AcDbCircle
10
387.660000000000
20
331.350000000000
30
0.0
40
1.200000020498
100
AcDbArc
50
360.000000000000
51
464.038543701172
0
ARC
5
b44
100
AcDbEntity
8
0-4_2_3
6
CONTINUOUS
62
7
100
AcDbCircle
10
388.560000000000
20
312.040000000000
30
0.0
40
1.899986500610
100
AcDbArc
50
180.000000000000
51
0.000000000000
0
ARC
5
b45
100
AcDbEntity
8
0-4_2_3
6
CONTINUOUS
62
7
100
AcDbCircle
10
388.560000000000
20
312.040000000000
30
0.0
40
1.299998586766
100
AcDbArc
50
180.000000000000
51
0.000000000000
0
ARC
5
b46
100
AcDbEntity
8
0-4_2_3
6
CONTINUOUS
62
7
100
AcDbCircle
10
389.260000000000
20
398.660000000000
30
0.0
40
0.600000010249
100
AcDbArc
50
360.000000000000
51
463.424606323242
0
ARC
5
b47
100
AcDbEntity
8
0-4_2_3
6
CONTINUOUS
62
7
100
AcDbCircle
10
389.260000000000
20
398.660000000000
30
0.0
40
1.200000020498
100
AcDbArc
50
360.000000000000
51
463.424606323242
0
CIRCLE
5
b48
100
AcDbEntity
8
F-F
6
CONTINUOUS
62
3
100
AcDbCircle
10
79.720000000000
20
67.100000000000
30
0.0
40
11.313709759210
0
CIRCLE
5
b49
100
AcDbEntity
8
F-F
6
CONTINUOUS
62
3
100
AcDbCircle
10
79.720000000000
20
67.100000000000
30
0.0
40
12.913709270428
0
CIRCLE
5
b4a
100
AcDbEntity
8
F-F
6
CONTINUOUS
62
4
100
AcDbCircle
10
79.720000000000
20
67.100000000000
30
0.0
40
11.473710561919
0
CIRCLE
5
b4b
100
AcDbEntity
8
F-F
6
CONTINUOUS
62
4
100
AcDbCircle
10
79.720000000000
20
67.100000000000
30
0.0
40
11.793707522317
0
CIRCLE
5
b4c
100
AcDbEntity
8
F-F
6
CONTINUOUS
62
4
100
AcDbCircle
10
79.720000000000
20
67.100000000000
30
0.0
40
12.113709127734
0
CIRCLE
5
b4d
100
AcDbEntity
8
F-F
6
CONTINUOUS
62
4
100
AcDbCircle
10
79.720000000000
20
67.100000000000
30
0.0
40
12.433706862302
0
CIRCLE
5
b4e
100
AcDbEntity
8
F-F
6
CONTINUOUS
62
4
100
AcDbCircle
10
79.720000000000
20
67.100000000000
30
0.0
40
12.753706145210
0
ARC
5
b4f
100
AcDbEntity
8
0-2_2_1
6
CONTINUOUS
62
7
100
AcDbCircle
10
1400.000000000000
20
905.400000000000
30
0.0
40
1.500031718206
100
AcDbArc
50
255.963760375977
51
435.963760375977
0
ARC
5
b50
100
AcDbEntity
8
0-2_2_1
6
CONTINUOUS
62
7
100
AcDbCircle
10
1400.000000000000
20
905.400000000000
30
0.0
40
0.900019030923
100
AcDbArc
50
255.962219238281
51
435.962219238281
0
TEXT
5
b51
100
AcDbEntity
8
0-5_2_4
62
3
370
-3
100
AcDbText
10
863.264
20
450.579
30
0.0
40
8.205
1
外壁材
41
0.942
50
0.000
100
AcDbText
0
TEXT
5
b52
100
AcDbEntity
8
0-5_2_4
62
3
370
-3
100
AcDbText
10
794.808
20
390.668
30
0.0
40
8.205
1
壁取合雨押（流れ）
41
0.942
50
0.000
100
AcDbText
0
TEXT
5
b53
100
AcDbEntity
8
0-5_2_4
62
3
370
-3
100
AcDbText
10
679.540
20
208.411
30
0.0
40
8.205
1
アスファルトルーフィング９４０
41
0.942
50
0.000
100
AcDbText
0
TEXT
5
b54
100
AcDbEntity
8
0-5_2_4
62
3
370
-3
100
AcDbText
10
814.051
20
235.438
30
0.0
40
8.205
1
野地板材
41
0.942
50
0.000
100
AcDbText
0
TEXT
5
b55
100
AcDbEntity
8
F-F
62
3
370
-3
100
AcDbText
10
532.090
20
75.752
30
0.0
40
4.923
1
変　　　　　　更　　　　　　記　　　　　　事
41
0.999
50
0.000
100
AcDbText
0
TEXT
5
b56
100
AcDbEntity
8
F-F
62
3
370
-3
100
AcDbText
10
815.825
20
74.952
30
0.0
40
4.923
1
受領　　日附
41
0.999
50
0.000
100
AcDbText
0
TEXT
5
b57
100
AcDbEntity
8
F-F
62
3
370
-3
100
AcDbText
10
1014.042
20
45.520
30
0.0
40
4.923
1
施工者
41
0.999
50
0.000
100
AcDbText
0
TEXT
5
b58
100
AcDbEntity
8
F-F
62
3
370
-3
100
AcDbText
10
1014.042
20
75.150
30
0.0
40
4.923
1
設計者
41
0.999
50
0.000
100
AcDbText
0
TEXT
5
b59
100
AcDbEntity
8
F-F
62
3
370
-3
100
AcDbText
10
1219.525
20
44.977
30
0.0
40
4.923
1
作図
41
0.999
50
0.000
100
AcDbText
0
TEXT
5
b5a
100
AcDbEntity
8
F-F
62
3
370
-3
100
AcDbText
10
1291.352
20
45.508
30
0.0
40
4.923
1
図面名
41
0.999
50
0.000
100
AcDbText
0
TEXT
5
b5b
100
AcDbEntity
8
F-F
62
3
370
-3
100
AcDbText
10
1219.525
20
74.607
30
0.0
40
4.923
1
日附
41
0.999
50
0.000
100
AcDbText
0
TEXT
5
b5c
100
AcDbEntity
8
F-F
62
3
370
-3
100
AcDbText
10
1291.352
20
75.137
30
0.0
40
4.923
1
工事件名
41
0.999
50
0.000
100
AcDbText
0
TEXT
5
b5d
100
AcDbEntity
8
F-F
62
3
370
-3
100
AcDbText
10
1241.661
20
74.355
30
0.0
40
4.923
1
年　月　日
41
0.999
50
0.000
100
AcDbText
0
TEXT
5
b5e
100
AcDbEntity
8
F-F
62
3
370
-3
100
AcDbText
10
1241.661
20
44.725
30
0.0
40
4.923
1
年　月　日
41
0.999
50
0.000
100
AcDbText
0
TEXT
5
b5f
100
AcDbEntity
8
F-F
62
3
370
-3
100
AcDbText
10
1543.695
20
75.137
30
0.0
40
4.923
1
設計番号
41
0.999
50
0.000
100
AcDbText
0
TEXT
5
b60
100
AcDbEntity
8
F-F
62
3
370
-3
100
AcDbText
10
1543.695
20
45.508
30
0.0
40
4.923
1
縮　尺
41
0.999
50
0.000
100
AcDbText
0
MTEXT
5
b61
100
AcDbEntity
8
F-F
62
3
370
-3
100
AcDbMText
10
387.012
20
67.821
30
0.0
40
4.649
41
0.000
71
7
72
1
1
\W1.134;{\W0.817;. }　{\W0.817;.}　{\W0.817; }
7
STANDARD
11
1.00000
21
0.00000
31
0.0
0
MTEXT
5
b62
100
AcDbEntity
8
F-F
62
3
370
-3
100
AcDbMText
10
387.012
20
57.944
30
0.0
40
4.649
41
0.000
71
7
72
1
1
\W1.134;{\W0.817;. }　{\W0.817;.}　{\W0.817; }
7
STANDARD
11
1.00000
21
0.00000
31
0.0
0
MTEXT
5
b63
100
AcDbEntity
8
F-F
62
3
370
-3
100
AcDbMText
10
387.012
20
48.068
30
0.0
40
4.649
41
0.000
71
7
72
1
1
\W1.134;{\W0.817;. }　{\W0.817;.}　{\W0.817; }
7
STANDARD
11
1.00000
21
0.00000
31
0.0
0
MTEXT
5
b64
100
AcDbEntity
8
F-F
62
3
370
-3
100
AcDbMText
10
387.012
20
38.191
30
0.0
40
4.649
41
0.000
71
7
72
1
1
\W1.134;{\W0.817;. }　{\W0.817;.}　{\W0.817; }
7
STANDARD
11
1.00000
21
0.00000
31
0.0
0
MTEXT
5
b65
100
AcDbEntity
8
F-F
62
3
370
-3
100
AcDbMText
10
387.012
20
28.314
30
0.0
40
4.649
41
0.000
71
7
72
1
1
\W1.134;{\W0.817;. }　{\W0.817;.}　{\W0.817; }
7
STANDARD
11
1.00000
21
0.00000
31
0.0
0
TEXT
5
b66
100
AcDbEntity
8
F-F
62
3
370
-3
100
AcDbText
10
1034.383
20
62.373
30
0.0
40
6.564
1
　　　　　　　　　　
41
0.963
50
0.000
100
AcDbText
0
TEXT
5
b67
100
AcDbEntity
8
F-F
62
3
370
-3
100
AcDbText
10
1034.383
20
32.743
30
0.0
40
6.564
1
　　　　　　　　　　
41
0.963
50
0.000
100
AcDbText
0
TEXT
5
b68
100
AcDbEntity
8
F-F
62
3
370
-3
100
AcDbText
10
1317.846
20
63.920
30
0.0
40
6.564
1
　　　　　　　　　　　　　
41
0.963
50
0.000
100
AcDbText
0
TEXT
5
b69
100
AcDbEntity
8
F-F
62
3
370
-3
100
AcDbText
10
378.040
20
75.687
30
0.0
40
4.923
1
年　月　日
41
0.999
50
0.000
100
AcDbText
0
TEXT
5
b6a
100
AcDbEntity
8
F-F
62
3
370
-3
100
AcDbText
10
872.996
20
74.368
30
0.0
40
4.923
1
年　　月　　日
41
0.999
50
0.000
100
AcDbText
0
MTEXT
5
b6b
100
AcDbEntity
8
F-F
62
3
370
-3
100
AcDbMText
10
885.548
20
63.398
30
0.0
40
4.649
41
0.000
71
7
72
1
1
\W1.134;{\W0.817;.}　{\W0.817; }　{\W0.817;.}
7
STANDARD
11
1.00000
21
0.00000
31
0.0
0
TEXT
5
b6c
100
AcDbEntity
8
F-F
62
3
370
-3
100
AcDbText
10
815.825
20
45.322
30
0.0
40
4.923
1
受領　　日附
41
0.999
50
0.000
100
AcDbText
0
TEXT
5
b6d
100
AcDbEntity
8
F-F
62
3
370
-3
100
AcDbText
10
872.996
20
44.738
30
0.0
40
4.923
1
年　　月　　日
41
0.999
50
0.000
100
AcDbText
0
MTEXT
5
b6e
100
AcDbEntity
8
F-F
62
3
370
-3
100
AcDbMText
10
885.548
20
33.768
30
0.0
40
4.649
41
0.000
71
7
72
1
1
\W1.134;{\W0.817;.}　{\W0.817; }　{\W0.817;.}
7
STANDARD
11
1.00000
21
0.00000
31
0.0
0
MTEXT
5
b6f
100
AcDbEntity
8
F-F
62
3
370
-3
100
AcDbMText
10
1248.433
20
61.685
30
0.0
40
4.649
41
0.000
71
7
72
1
1
\W1.134;{\W0.817;.}　　{\W0.817;.}　
7
STANDARD
11
1.00000
21
0.00000
31
0.0
0
TEXT
5
b70
100
AcDbEntity
8
F-F
62
3
370
-3
100
AcDbText
10
1567.012
20
41.647
30
0.0
40
6.564
1
Ａ１－１／２　
41
0.963
50
0.000
100
AcDbText
0
TEXT
5
b71
100
AcDbEntity
8
F-F
62
3
370
-3
100
AcDbText
10
1567.012
20
26.832
30
0.0
40
6.564
1
Ａ３－１／４　
41
0.963
50
0.000
100
AcDbText
0
TEXT
5
b72
100
AcDbEntity
8
0-5_2_4
62
3
370
-3
100
AcDbText
10
975.302
20
281.253
30
0.0
40
8.205
41
0.942
50
90.000
1
１２０内外
72
1
11
976.213
21
308.065
31
0.0
100
AcDbText
73
1
0
TEXT
5
b73
100
AcDbEntity
8
0-5_2_4
62
3
370
-3
100
AcDbText
10
738.894
20
369.921
30
0.0
40
8.205
1
木下地防腐処理品（別途）
41
0.942
50
0.000
100
AcDbText
0
TEXT
5
b74
100
AcDbEntity
8
0-5_2_4
62
3
370
-3
100
AcDbText
10
750.562
20
308.527
30
0.0
40
8.205
1
通し捨板
41
0.942
50
0.000
100
AcDbText
0
TEXT
5
b75
100
AcDbEntity
8
0-5_2_4
62
3
370
-3
100
AcDbText
10
761.331
20
326.246
30
0.0
40
8.205
1
シール（別途）
41
0.942
50
0.000
100
AcDbText
0
TEXT
5
b76
100
AcDbEntity
8
0-2_2_1
62
3
370
-3
100
AcDbText
10
1283.286
20
987.343
30
0.0
40
9.846
41
0.804
50
14.036
1
100
72
1
11
1293.483
21
988.764
31
0.0
100
AcDbText
73
1
0
TEXT
5
b77
100
AcDbEntity
8
0-2_2_1
62
3
370
-3
100
AcDbText
10
1497.179
20
782.332
30
0.0
40
8.205
1
野地板材
41
0.942
50
0.000
100
AcDbText
0
TEXT
5
b78
100
AcDbEntity
8
0-2_2_1
62
3
370
-3
100
AcDbText
10
1300.354
20
791.014
30
0.0
40
8.205
1
野地板受材ｔ＝１．６（別途）
41
0.942
50
0.000
100
AcDbText
0
TEXT
5
b79
100
AcDbEntity
8
0-6_2_5
62
3
370
-3
100
AcDbText
10
1282.008
20
449.622
30
0.0
40
9.846
41
0.653
50
345.964
1
200
72
1
11
1291.675
21
446.078
31
0.0
100
AcDbText
73
1
0
TEXT
5
b7a
100
AcDbEntity
8
0-6_2_5
62
3
370
-3
100
AcDbText
10
1227.788
20
442.562
30
0.0
40
9.846
41
0.804
50
345.964
1
100
72
1
11
1237.455
21
439.017
31
0.0
100
AcDbText
73
1
0
TEXT
5
b7b
100
AcDbEntity
8
0-6_2_5
62
3
370
-3
100
AcDbText
10
1328.807
20
417.307
30
0.0
40
9.846
41
0.804
50
345.964
1
100
72
1
11
1338.474
21
413.763
31
0.0
100
AcDbText
73
1
0
TEXT
5
b7c
100
AcDbEntity
8
0-2_2_1
62
3
370
-3
100
AcDbText
10
1395.512
20
963.580
30
0.0
40
8.205
1
降り棟化粧カバー
41
0.942
50
0.000
100
AcDbText
0
TEXT
5
b7d
100
AcDbEntity
8
0-2_2_1
62
3
370
-3
100
AcDbText
10
1432.393
20
939.465
30
0.0
40
8.205
1
降り棟捨板
41
0.942
50
0.000
100
AcDbText
0
TEXT
5
b7e
100
AcDbEntity
8
0-2_2_1
62
3
370
-3
100
AcDbText
10
1153.321
20
769.577
30
0.0
40
8.205
1
アスファルトルーフィング９４０
41
0.942
50
0.000
100
AcDbText
0
TEXT
5
b7f
100
AcDbEntity
8
0-6_2_5
62
3
370
-3
100
AcDbText
10
1295.722
20
252.592
30
0.0
40
8.205
1
野地板受材ｔ＝１．６（別途）
41
0.942
50
0.000
100
AcDbText
0
TEXT
5
b80
100
AcDbEntity
8
0-6_2_5
62
3
370
-3
100
AcDbText
10
1120.956
20
289.274
30
0.0
40
8.205
1
アスファルトルーフィング９４０
41
0.942
50
0.000
100
AcDbText
0
TEXT
5
b81
100
AcDbEntity
8
0-6_2_5
62
3
370
-3
100
AcDbText
10
1514.329
20
281.637
30
0.0
40
8.205
1
野地板材
41
0.942
50
0.000
100
AcDbText
0
TEXT
5
b82
100
AcDbEntity
8
0-6_2_5
62
3
370
-3
100
AcDbText
10
1460.286
20
409.329
30
0.0
40
8.205
1
あやめハゼ折り
41
0.942
50
0.000
100
AcDbText
0
MTEXT
5
b83
100
AcDbEntity
8
0-6_2_5
62
3
370
-3
100
AcDbMText
10
1403.340
20
440.399
30
0.0
40
7.749
41
0.000
71
7
72
1
1
\W1.069;降り谷（継手重ね部{\W0.770; 300mm}以上）
7
STANDARD
11
1.00000
21
0.00000
31
0.0
0
TEXT
5
b84
100
AcDbEntity
8
0-00
62
3
370
-3
100
AcDbText
10
155.253
20
794.751
30
0.0
40
8.205
1
野地板材
41
0.942
50
0.000
100
AcDbText
0
TEXT
5
b85
100
AcDbEntity
8
0-00
62
3
370
-3
100
AcDbText
10
242.293
20
803.625
30
0.0
40
8.205
1
アスファルトルーフィング９４０
41
0.942
50
0.000
100
AcDbText
0
TEXT
5
b86
100
AcDbEntity
8
0-00
62
3
370
-3
100
AcDbText
10
177.391
20
1013.598
30
0.0
40
8.205
41
0.942
50
14.036
1
１５０内外
72
1
11
203.624
21
1019.216
31
0.0
100
AcDbText
73
1
0
TEXT
5
b87
100
AcDbEntity
8
0-00
62
3
370
-3
100
AcDbText
10
176.566
20
924.376
30
0.0
40
8.205
1
通し捨水切
41
0.942
50
0.000
100
AcDbText
0
TEXT
5
b88
100
AcDbEntity
8
0-00
62
3
370
-3
100
AcDbText
10
136.458
20
943.114
30
0.0
40
8.205
1
木下地防腐処理品（別途）
41
0.942
50
0.000
100
AcDbText
0
TEXT
5
b89
100
AcDbEntity
8
0-00
62
3
370
-3
100
AcDbText
10
133.739
20
913.107
30
0.0
40
8.205
1
通し唐草
41
0.942
50
0.000
100
AcDbText
0
TEXT
5
b8a
100
AcDbEntity
8
0-00
62
3
370
-3
100
AcDbText
10
406.122
20
1026.506
30
0.0
40
8.205
41
0.942
50
345.964
1
１５０内外
72
1
11
431.913
21
1019.118
31
0.0
100
AcDbText
73
1
0
TEXT
5
b8b
100
AcDbEntity
8
0-1_2_0
62
3
370
-3
100
AcDbText
10
867.952
20
1009.735
30
0.0
40
8.205
1
外壁材
41
0.942
50
360.000
100
AcDbText
0
TEXT
5
b8c
100
AcDbEntity
8
0-1_2_0
62
3
370
-3
100
AcDbText
10
767.392
20
714.751
30
0.0
40
8.205
1
野地板材
41
0.942
50
0.000
100
AcDbText
0
TEXT
5
b8d
100
AcDbEntity
8
0-1_2_0
62
3
370
-3
100
AcDbText
10
854.432
20
723.625
30
0.0
40
8.205
1
アスファルトルーフィング９４０
41
0.942
50
0.000
100
AcDbText
0
TEXT
5
b8e
100
AcDbEntity
8
0-1_2_0
62
3
370
-3
100
AcDbText
10
807.837
20
884.045
30
0.0
40
8.205
1
壁取合雨押（水上）
41
0.942
50
0.000
100
AcDbText
0
TEXT
5
b8f
100
AcDbEntity
8
0-1_2_0
62
3
370
-3
100
AcDbText
10
789.529
20
933.598
30
0.0
40
8.205
41
0.942
50
14.036
1
１５０内外
72
1
11
815.762
21
939.216
31
0.0
100
AcDbText
73
1
0
TEXT
5
b90
100
AcDbEntity
8
0-1_2_0
62
3
370
-3
100
AcDbText
10
975.301
20
804.622
30
0.0
40
8.205
41
0.942
50
90.000
1
１００内外
72
1
11
976.213
21
831.434
31
0.0
100
AcDbText
73
1
0
TEXT
5
b91
100
AcDbEntity
8
0-1_2_0
62
3
370
-3
100
AcDbText
10
788.704
20
844.377
30
0.0
40
8.205
1
通し捨水切
41
0.942
50
0.000
100
AcDbText
0
TEXT
5
b92
100
AcDbEntity
8
0-1_2_0
62
3
370
-3
100
AcDbText
10
748.597
20
863.114
30
0.0
40
8.205
1
木下地防腐処理品（別途）
41
0.942
50
0.000
100
AcDbText
0
TEXT
5
b93
100
AcDbEntity
8
0-1_2_0
62
3
370
-3
100
AcDbText
10
745.877
20
833.107
30
0.0
40
8.205
1
通し唐草
41
0.942
50
360.000
100
AcDbText
0
TEXT
5
b94
100
AcDbEntity
8
0-1_2_0
62
3
370
-3
100
AcDbText
10
1052.591
20
863.551
30
0.0
40
8.205
41
0.942
50
90.000
1
立上り１２０以上
72
1
11
1053.503
21
906.451
31
0.0
100
AcDbText
73
1
0
TEXT
5
b95
100
AcDbEntity
8
0-5_2_4
62
3
370
-3
100
AcDbText
10
1057.692
20
336.995
30
0.0
40
8.205
41
0.942
50
90.000
1
立上り１２０以上
72
1
11
1058.603
21
379.895
31
0.0
100
AcDbText
73
1
0
TEXT
5
b96
100
AcDbEntity
8
0-5_2_4
62
3
370
-3
100
AcDbText
10
775.240
20
344.244
30
0.0
40
8.205
1
バックアップ材
41
0.942
50
0.000
100
AcDbText
0
TEXT
5
b97
100
AcDbEntity
8
0-4_2_3
62
3
370
-3
100
AcDbText
10
226.944
20
268.784
30
0.0
40
8.205
1
野地板材
41
0.942
50
0.000
100
AcDbText
0
TEXT
5
b98
100
AcDbEntity
8
0-4_2_3
62
3
370
-3
100
AcDbText
10
249.081
20
487.631
30
0.0
40
8.205
41
0.942
50
14.036
1
１５０内外
72
1
11
275.314
21
493.249
31
0.0
100
AcDbText
73
1
0
TEXT
5
b99
100
AcDbEntity
8
0-4_2_3
62
3
370
-3
100
AcDbText
10
248.256
20
398.409
30
0.0
40
8.205
1
通し捨水切
41
0.942
50
0.000
100
AcDbText
0
TEXT
5
b9a
100
AcDbEntity
8
0-4_2_3
62
3
370
-3
100
AcDbText
10
208.149
20
417.147
30
0.0
40
8.205
1
木下地防腐処理品（別途）
41
0.942
50
0.000
100
AcDbText
0
TEXT
5
b9b
100
AcDbEntity
8
0-4_2_3
62
3
370
-3
100
AcDbText
10
205.429
20
387.140
30
0.0
40
8.205
1
通し唐草
41
0.942
50
0.000
100
AcDbText
0
TEXT
5
b9c
100
AcDbEntity
8
0-4_2_3
62
3
370
-3
100
AcDbText
10
372.200
20
200.683
30
0.0
40
8.205
1
鼻隠し
41
0.942
50
0.000
100
AcDbText
0
TEXT
5
b9d
100
AcDbEntity
8
0-4_2_3
62
3
370
-3
100
AcDbText
10
297.645
20
141.281
30
0.0
40
8.205
1
軒天
41
0.942
50
0.000
100
AcDbText
0
TEXT
5
b9e
100
AcDbEntity
8
F-F
62
3
370
-3
100
AcDbText
10
166.668
20
28.767
30
0.0
40
6.564
1
電話（０５４）２６３－２２８０（代表）
41
0.963
50
0.000
100
AcDbText
0
TEXT
5
b9f
100
AcDbEntity
8
F-F
62
2
370
-3
100
AcDbText
10
122.770
20
61.158
30
0.0
40
13.127
1
小　池　弥　太　郎　商　店
41
0.963
50
0.000
100
AcDbText
0
TEXT
5
ba0
100
AcDbEntity
8
F-F
62
3
370
-3
100
AcDbText
10
166.664
20
43.600
30
0.0
40
6.564
1
静岡県静岡市葵区流通センター１６番
41
0.963
50
0.000
100
AcDbText
0
TEXT
5
ba1
100
AcDbEntity
8
F-F
62
3
370
-3
100
AcDbText
10
100.135
20
68.249
30
0.0
40
4.923
1
株
41
0.999
50
0.000
100
AcDbText
0
TEXT
5
ba2
100
AcDbEntity
8
F-F
62
3
370
-3
100
AcDbText
10
107.285
20
60.999
30
0.0
40
4.923
1
社
41
0.999
50
0.000
100
AcDbText
0
TEXT
5
ba3
100
AcDbEntity
8
F-F
62
3
370
-3
100
AcDbText
10
100.085
20
60.999
30
0.0
40
4.923
1
会
41
0.999
50
0.000
100
AcDbText
0
TEXT
5
ba4
100
AcDbEntity
8
F-F
62
3
370
-3
100
AcDbText
10
106.885
20
68.049
30
0.0
40
4.923
1
式
41
0.999
50
0.000
100
AcDbText
0
TEXT
5
ba5
100
AcDbEntity
8
0-2_2_1
62
3
370
-3
100
AcDbText
10
1329.222
20
978.211
30
0.0
40
9.846
41
0.620
50
14.037
1
34
72
1
11
1336.108
21
978.805
31
0.0
100
AcDbText
73
1
0
TEXT
5
ba6
100
AcDbEntity
8
0-00
62
3
370
-3
100
AcDbText
10
251.369
20
964.715
30
0.0
40
8.205
1
棟　包　み
41
0.942
50
0.000
100
AcDbText
0
TEXT
5
ba7
100
AcDbEntity
8
0-4_2_3
62
3
370
-3
100
AcDbText
10
298.982
20
438.604
30
0.0
40
8.205
1
片　棟　包　み
41
0.942
50
0.000
100
AcDbText
0
TEXT
5
ba8
100
AcDbEntity
8
0-00
62
3
370
-3
100
AcDbText
10
231.386
20
1119.453
30
0.0
40
8.205
1
ｅルーフ横葺２２０　棟包み納め図
41
0.942
50
0.000
100
AcDbText
0
MTEXT
5
ba9
100
AcDbEntity
8
0-00
62
3
370
-3
100
AcDbMText
10
69.727
20
867.796
30
0.0
40
7.749
41
0.000
71
7
72
1
1
\W1.069;ｅルーフ横葺{\W0.770;220}
7
STANDARD
11
1.00000
21
0.00000
31
0.0
0
TEXT
5
baa
100
AcDbEntity
8
0-1_2_0
62
3
370
-3
100
AcDbText
10
757.016
20
1119.453
30
0.0
40
8.205
1
ｅルーフ横葺２２０　壁取合部（水上）納め図
41
0.942
50
0.000
100
AcDbText
0
MTEXT
5
bab
100
AcDbEntity
8
0-1_2_0
62
3
370
-3
100
AcDbMText
10
653.634
20
792.930
30
0.0
40
7.749
41
0.000
71
7
72
1
1
\W1.069;ｅルーフ横葺{\W0.770;220}
7
STANDARD
11
1.00000
21
0.00000
31
0.0
0
TEXT
5
bac
100
AcDbEntity
8
0-2_2_1
62
3
370
-3
100
AcDbText
10
1282.646
20
1119.453
30
0.0
40
8.205
1
ｅルーフ横葺２２０　降り棟コーナー部　納め図
41
0.942
50
0.000
100
AcDbText
0
MTEXT
5
bad
100
AcDbEntity
8
0-2_2_1
62
3
370
-3
100
AcDbMText
10
1156.897
20
904.241
30
0.0
40
7.749
41
0.000
71
7
72
1
1
\W1.069;ｅルーフ横葺{\W0.770;220}
7
STANDARD
11
1.00000
21
0.00000
31
0.0
0
TEXT
5
bae
100
AcDbEntity
8
0-4_2_3
62
3
370
-3
100
AcDbText
10
231.386
20
589.080
30
0.0
40
8.205
1
ｅルーフ横葺２２０　片棟部納め図
41
0.942
50
0.000
100
AcDbText
0
MTEXT
5
baf
100
AcDbEntity
8
0-4_2_3
62
3
370
-3
100
AcDbMText
10
141.418
20
341.829
30
0.0
40
7.749
41
0.000
71
7
72
1
1
\W1.069;ｅルーフ横葺{\W0.770;220}
7
STANDARD
11
1.00000
21
0.00000
31
0.0
0
TEXT
5
bb0
100
AcDbEntity
8
0-5_2_4
62
3
370
-3
100
AcDbText
10
757.016
20
589.080
30
0.0
40
8.205
1
ｅルーフ横葺２２０　壁取合部（流れ）納め図
41
0.942
50
0.000
100
AcDbText
0
MTEXT
5
bb1
100
AcDbEntity
8
0-5_2_4
62
3
370
-3
100
AcDbMText
10
654.511
20
342.360
30
0.0
40
7.749
41
0.000
71
7
72
1
1
\W1.069;ｅルーフ横葺{\W0.770;220}
7
STANDARD
11
1.00000
21
0.00000
31
0.0
0
TEXT
5
bb2
100
AcDbEntity
8
0-6_2_5
62
3
370
-3
100
AcDbText
10
1282.646
20
589.080
30
0.0
40
8.205
1
ｅルーフ横葺２２０　降り谷部　納め図
41
0.942
50
0.000
100
AcDbText
0
MTEXT
5
bb3
100
AcDbEntity
8
0-6_2_5
62
3
370
-3
100
AcDbMText
10
1175.263
20
407.771
30
0.0
40
7.749
41
0.000
71
7
72
1
1
\W1.069;ｅルーフ横葺{\W0.770;220}
7
STANDARD
11
1.00000
21
0.00000
31
0.0
0
TEXT
5
bb4
100
AcDbEntity
8
F-F
62
3
370
-3
100
AcDbText
10
1222.716
20
31.565
30
0.0
40
4.923
1
MA 2015-06-12
41
0.671
50
0.000
100
AcDbText
0
TEXT
5
bb5
100
AcDbEntity
8
F-F
62
3
370
-3
100
AcDbText
10
1317.846
20
34.290
30
0.0
40
6.564
1
ｅルーフ横葺２２０　参考納め図（２）
41
0.963
50
0.000
100
AcDbText
0
TEXT
5
bb6
100
AcDbEntity
8
F-F
62
3
370
-3
100
AcDbText
10
1550.894
20
62.052
30
0.0
40
6.564
1
ＥＲ２２０－０２
41
0.963
50
0.000
100
AcDbText
0
POLYLINE
5
bb7
100
AcDbEntity
  8
0-5_2_4
6
CONTINUOUS
62
3
100
AcDb2dPolyline
66
1
10
0
20
0
70
1
40
0.800
41
0.800
0
VERTEX
5
bb8
100
AcDbEntity
  8
0-5_2_4
6
CONTINUOUS
62
3
100
AcDbVertex
100
AcDb2dVertex
10
977.398
20
369.613
30
0.0
42
1.000
0
VERTEX
5
bb9
100
AcDbEntity
  8
0-5_2_4
6
CONTINUOUS
62
3
100
AcDbVertex
100
AcDb2dVertex
10
978.198
20
369.613
30
0.0
42
1.000
0
SEQEND
5
bba
100
AcDbEntity
  8
0-5_2_4
0
POLYLINE
5
bbb
100
AcDbEntity
  8
0-5_2_4
6
CONTINUOUS
62
3
100
AcDb2dPolyline
66
1
10
0
20
0
70
1
40
0.800
41
0.800
0
VERTEX
5
bbc
100
AcDbEntity
  8
0-5_2_4
6
CONTINUOUS
62
3
100
AcDbVertex
100
AcDb2dVertex
10
977.398
20
248.612
30
0.0
42
1.000
0
VERTEX
5
bbd
100
AcDbEntity
  8
0-5_2_4
6
CONTINUOUS
62
3
100
AcDbVertex
100
AcDb2dVertex
10
978.198
20
248.612
30
0.0
42
1.000
0
SEQEND
5
bbe
100
AcDbEntity
  8
0-5_2_4
0
POLYLINE
5
bbf
100
AcDbEntity
  8
0-2_2_1
6
CONTINUOUS
62
3
100
AcDb2dPolyline
66
1
10
0
20
0
70
1
40
0.800
41
0.800
0
VERTEX
5
bc0
100
AcDbEntity
  8
0-2_2_1
6
CONTINUOUS
62
3
100
AcDbVertex
100
AcDb2dVertex
10
1318.859
20
972.839
30
0.0
42
1.000
0
VERTEX
5
bc1
100
AcDbEntity
  8
0-2_2_1
6
CONTINUOUS
62
3
100
AcDbVertex
100
AcDb2dVertex
10
1319.659
20
972.839
30
0.0
42
1.000
0
SEQEND
5
bc2
100
AcDbEntity
  8
0-2_2_1
0
POLYLINE
5
bc3
100
AcDbEntity
  8
0-2_2_1
6
CONTINUOUS
62
3
100
AcDb2dPolyline
66
1
10
0
20
0
70
1
40
0.800
41
0.800
0
VERTEX
5
bc4
100
AcDbEntity
  8
0-2_2_1
6
CONTINUOUS
62
3
100
AcDbVertex
100
AcDb2dVertex
10
1351.844
20
981.085
30
0.0
42
1.000
0
VERTEX
5
bc5
100
AcDbEntity
  8
0-2_2_1
6
CONTINUOUS
62
3
100
AcDbVertex
100
AcDb2dVertex
10
1352.644
20
981.085
30
0.0
42
1.000
0
SEQEND
5
bc6
100
AcDbEntity
  8
0-2_2_1
0
POLYLINE
5
bc7
100
AcDbEntity
  8
0-2_2_1
6
CONTINUOUS
62
3
100
AcDb2dPolyline
66
1
10
0
20
0
70
1
40
0.800
41
0.800
0
VERTEX
5
bc8
100
AcDbEntity
  8
0-2_2_1
6
CONTINUOUS
62
3
100
AcDbVertex
100
AcDb2dVertex
10
1341.464
20
999.105
30
0.0
42
1.000
0
VERTEX
5
bc9
100
AcDbEntity
  8
0-2_2_1
6
CONTINUOUS
62
3
100
AcDbVertex
100
AcDb2dVertex
10
1342.264
20
999.105
30
0.0
42
1.000
0
SEQEND
5
bca
100
AcDbEntity
  8
0-2_2_1
0
POLYLINE
5
bcb
100
AcDbEntity
  8
0-2_2_1
6
CONTINUOUS
62
3
100
AcDb2dPolyline
66
1
10
0
20
0
70
1
40
0.800
41
0.800
0
VERTEX
5
bcc
100
AcDbEntity
  8
0-2_2_1
6
CONTINUOUS
62
3
100
AcDbVertex
100
AcDb2dVertex
10
1244.159
20
974.779
30
0.0
42
1.000
0
VERTEX
5
bcd
100
AcDbEntity
  8
0-2_2_1
6
CONTINUOUS
62
3
100
AcDbVertex
100
AcDb2dVertex
10
1244.959
20
974.779
30
0.0
42
1.000
0
SEQEND
5
bce
100
AcDbEntity
  8
0-2_2_1
0
POLYLINE
5
bcf
100
AcDbEntity
  8
0-6_2_5
6
CONTINUOUS
62
3
100
AcDb2dPolyline
66
1
10
0
20
0
70
1
40
0.800
41
0.800
0
VERTEX
5
bd0
100
AcDbEntity
  8
0-6_2_5
6
CONTINUOUS
62
3
100
AcDbVertex
100
AcDb2dVertex
10
1184.308
20
450.450
30
0.0
42
1.000
0
VERTEX
5
bd1
100
AcDbEntity
  8
0-6_2_5
6
CONTINUOUS
62
3
100
AcDbVertex
100
AcDb2dVertex
10
1185.108
20
450.450
30
0.0
42
1.000
0
SEQEND
5
bd2
100
AcDbEntity
  8
0-6_2_5
0
POLYLINE
5
bd3
100
AcDbEntity
  8
0-6_2_5
6
CONTINUOUS
62
3
100
AcDb2dPolyline
66
1
10
0
20
0
70
1
40
0.800
41
0.800
0
VERTEX
5
bd4
100
AcDbEntity
  8
0-6_2_5
6
CONTINUOUS
62
3
100
AcDbVertex
100
AcDb2dVertex
10
1287.607
20
424.625
30
0.0
42
1.000
0
VERTEX
5
bd5
100
AcDbEntity
  8
0-6_2_5
6
CONTINUOUS
62
3
100
AcDbVertex
100
AcDb2dVertex
10
1288.407
20
424.625
30
0.0
42
1.000
0
SEQEND
5
bd6
100
AcDbEntity
  8
0-6_2_5
0
POLYLINE
5
bd7
100
AcDbEntity
  8
0-6_2_5
6
CONTINUOUS
62
3
100
AcDb2dPolyline
66
1
10
0
20
0
70
1
40
0.800
41
0.800
0
VERTEX
5
bd8
100
AcDbEntity
  8
0-6_2_5
6
CONTINUOUS
62
3
100
AcDbVertex
100
AcDb2dVertex
10
1386.345
20
399.940
30
0.0
42
1.000
0
VERTEX
5
bd9
100
AcDbEntity
  8
0-6_2_5
6
CONTINUOUS
62
3
100
AcDbVertex
100
AcDb2dVertex
10
1387.145
20
399.940
30
0.0
42
1.000
0
SEQEND
5
bda
100
AcDbEntity
  8
0-6_2_5
0
POLYLINE
5
bdb
100
AcDbEntity
  8
0-6_2_5
6
CONTINUOUS
62
3
100
AcDb2dPolyline
66
1
10
0
20
0
70
1
40
0.800
41
0.800
0
VERTEX
5
bdc
100
AcDbEntity
  8
0-6_2_5
6
CONTINUOUS
62
3
100
AcDbVertex
100
AcDb2dVertex
10
1391.196
20
419.343
30
0.0
42
1.000
0
VERTEX
5
bdd
100
AcDbEntity
  8
0-6_2_5
6
CONTINUOUS
62
3
100
AcDbVertex
100
AcDb2dVertex
10
1391.996
20
419.343
30
0.0
42
1.000
0
SEQEND
5
bde
100
AcDbEntity
  8
0-6_2_5
0
POLYLINE
5
bdf
100
AcDbEntity
  8
0-6_2_5
6
CONTINUOUS
62
3
100
AcDb2dPolyline
66
1
10
0
20
0
70
1
40
0.800
41
0.800
0
VERTEX
5
be0
100
AcDbEntity
  8
0-6_2_5
6
CONTINUOUS
62
3
100
AcDbVertex
100
AcDb2dVertex
10
1189.159
20
469.852
30
0.0
42
1.000
0
VERTEX
5
be1
100
AcDbEntity
  8
0-6_2_5
6
CONTINUOUS
62
3
100
AcDbVertex
100
AcDb2dVertex
10
1189.959
20
469.852
30
0.0
42
1.000
0
SEQEND
5
be2
100
AcDbEntity
  8
0-6_2_5
0
POLYLINE
5
be3
100
AcDbEntity
  8
F-F
6
CONTINUOUS
62
3
100
AcDb2dPolyline
66
1
10
0
20
0
70
1
40
0.800
41
0.800
0
VERTEX
5
be4
100
AcDbEntity
  8
F-F
6
CONTINUOUS
62
3
100
AcDbVertex
100
AcDb2dVertex
10
54.357
20
1143.641
30
0.0
42
1.000
0
VERTEX
5
be5
100
AcDbEntity
  8
F-F
6
CONTINUOUS
62
3
100
AcDbVertex
100
AcDb2dVertex
10
55.157
20
1143.641
30
0.0
42
1.000
0
SEQEND
5
be6
100
AcDbEntity
  8
F-F
0
POLYLINE
5
be7
100
AcDbEntity
  8
0-00
6
CONTINUOUS
62
3
100
AcDb2dPolyline
66
1
10
0
20
0
70
1
40
0.800
41
0.800
0
VERTEX
5
be8
100
AcDbEntity
  8
0-00
6
CONTINUOUS
62
3
100
AcDbVertex
100
AcDb2dVertex
10
290.355
20
1038.195
30
0.0
42
1.000
0
VERTEX
5
be9
100
AcDbEntity
  8
0-00
6
CONTINUOUS
62
3
100
AcDbVertex
100
AcDb2dVertex
10
291.155
20
1038.195
30
0.0
42
1.000
0
SEQEND
5
bea
100
AcDbEntity
  8
0-00
0
POLYLINE
5
beb
100
AcDbEntity
  8
0-00
6
CONTINUOUS
62
3
100
AcDb2dPolyline
66
1
10
0
20
0
70
1
40
0.800
41
0.800
0
VERTEX
5
bec
100
AcDbEntity
  8
0-00
6
CONTINUOUS
62
3
100
AcDbVertex
100
AcDb2dVertex
10
136.156
20
999.646
30
0.0
42
1.000
0
VERTEX
5
bed
100
AcDbEntity
  8
0-00
6
CONTINUOUS
62
3
100
AcDbVertex
100
AcDb2dVertex
10
136.956
20
999.646
30
0.0
42
1.000
0
SEQEND
5
bee
100
AcDbEntity
  8
0-00
0
POLYLINE
5
bef
100
AcDbEntity
  8
0-00
6
CONTINUOUS
62
4
100
AcDb2dPolyline
66
1
10
0
20
0
70
1
40
0.800
41
0.800
0
VERTEX
5
bf0
100
AcDbEntity
  8
0-00
6
CONTINUOUS
62
4
100
AcDbVertex
100
AcDb2dVertex
10
199.130
20
856.241
30
0.0
42
1.000
0
VERTEX
5
bf1
100
AcDbEntity
  8
0-00
6
CONTINUOUS
62
4
100
AcDbVertex
100
AcDb2dVertex
10
199.930
20
856.241
30
0.0
42
1.000
0
SEQEND
5
bf2
100
AcDbEntity
  8
0-00
0
POLYLINE
5
bf3
100
AcDbEntity
  8
0-00
6
CONTINUOUS
62
4
100
AcDb2dPolyline
66
1
10
0
20
0
70
1
40
0.800
41
0.800
0
VERTEX
5
bf4
100
AcDbEntity
  8
0-00
6
CONTINUOUS
62
4
100
AcDbVertex
100
AcDb2dVertex
10
199.130
20
856.241
30
0.0
42
1.000
0
VERTEX
5
bf5
100
AcDbEntity
  8
0-00
6
CONTINUOUS
62
4
100
AcDbVertex
100
AcDb2dVertex
10
199.930
20
856.241
30
0.0
42
1.000
0
SEQEND
5
bf6
100
AcDbEntity
  8
0-00
0
POLYLINE
5
bf7
100
AcDbEntity
  8
0-00
6
CONTINUOUS
62
4
100
AcDb2dPolyline
66
1
10
0
20
0
70
1
40
0.800
41
0.800
0
VERTEX
5
bf8
100
AcDbEntity
  8
0-00
6
CONTINUOUS
62
4
100
AcDbVertex
100
AcDb2dVertex
10
199.130
20
856.241
30
0.0
42
1.000
0
VERTEX
5
bf9
100
AcDbEntity
  8
0-00
6
CONTINUOUS
62
4
100
AcDbVertex
100
AcDb2dVertex
10
199.930
20
856.241
30
0.0
42
1.000
0
SEQEND
5
bfa
100
AcDbEntity
  8
0-00
0
POLYLINE
5
bfb
100
AcDbEntity
  8
0-00
6
CONTINUOUS
62
3
100
AcDb2dPolyline
66
1
10
0
20
0
70
1
40
0.800
41
0.800
0
VERTEX
5
bfc
100
AcDbEntity
  8
0-00
6
CONTINUOUS
62
3
100
AcDbVertex
100
AcDb2dVertex
10
343.989
20
1038.195
30
0.0
42
1.000
0
VERTEX
5
bfd
100
AcDbEntity
  8
0-00
6
CONTINUOUS
62
3
100
AcDbVertex
100
AcDb2dVertex
10
344.789
20
1038.195
30
0.0
42
1.000
0
SEQEND
5
bfe
100
AcDbEntity
  8
0-00
0
POLYLINE
5
bff
100
AcDbEntity
  8
0-00
6
CONTINUOUS
62
3
100
AcDb2dPolyline
66
1
10
0
20
0
70
1
40
0.800
41
0.800
0
VERTEX
5
c00
100
AcDbEntity
  8
0-00
6
CONTINUOUS
62
3
100
AcDbVertex
100
AcDb2dVertex
10
498.188
20
999.646
30
0.0
42
1.000
0
VERTEX
5
c01
100
AcDbEntity
  8
0-00
6
CONTINUOUS
62
3
100
AcDbVertex
100
AcDb2dVertex
10
498.988
20
999.646
30
0.0
42
1.000
0
SEQEND
5
c02
100
AcDbEntity
  8
0-00
0
POLYLINE
5
c03
100
AcDbEntity
  8
0-00
6
CONTINUOUS
62
4
100
AcDb2dPolyline
66
1
10
0
20
0
70
1
40
0.800
41
0.800
0
VERTEX
5
c04
100
AcDbEntity
  8
0-00
6
CONTINUOUS
62
4
100
AcDbVertex
100
AcDb2dVertex
10
435.214
20
856.241
30
0.0
42
1.000
0
VERTEX
5
c05
100
AcDbEntity
  8
0-00
6
CONTINUOUS
62
4
100
AcDbVertex
100
AcDb2dVertex
10
436.014
20
856.241
30
0.0
42
1.000
0
SEQEND
5
c06
100
AcDbEntity
  8
0-00
0
POLYLINE
5
c07
100
AcDbEntity
  8
0-00
6
CONTINUOUS
62
4
100
AcDb2dPolyline
66
1
10
0
20
0
70
1
40
0.800
41
0.800
0
VERTEX
5
c08
100
AcDbEntity
  8
0-00
6
CONTINUOUS
62
4
100
AcDbVertex
100
AcDb2dVertex
10
435.214
20
856.241
30
0.0
42
1.000
0
VERTEX
5
c09
100
AcDbEntity
  8
0-00
6
CONTINUOUS
62
4
100
AcDbVertex
100
AcDb2dVertex
10
436.014
20
856.241
30
0.0
42
1.000
0
SEQEND
5
c0a
100
AcDbEntity
  8
0-00
0
POLYLINE
5
c0b
100
AcDbEntity
  8
0-00
6
CONTINUOUS
62
4
100
AcDb2dPolyline
66
1
10
0
20
0
70
1
40
0.800
41
0.800
0
VERTEX
5
c0c
100
AcDbEntity
  8
0-00
6
CONTINUOUS
62
4
100
AcDbVertex
100
AcDb2dVertex
10
435.214
20
856.241
30
0.0
42
1.000
0
VERTEX
5
c0d
100
AcDbEntity
  8
0-00
6
CONTINUOUS
62
4
100
AcDbVertex
100
AcDb2dVertex
10
436.014
20
856.241
30
0.0
42
1.000
0
SEQEND
5
c0e
100
AcDbEntity
  8
0-00
0
POLYLINE
5
c0f
100
AcDbEntity
  8
0-1_2_0
6
CONTINUOUS
62
3
100
AcDb2dPolyline
66
1
10
0
20
0
70
1
40
0.800
41
0.800
0
VERTEX
5
c10
100
AcDbEntity
  8
0-1_2_0
6
CONTINUOUS
62
3
100
AcDbVertex
100
AcDb2dVertex
10
902.493
20
958.196
30
0.0
42
1.000
0
VERTEX
5
c11
100
AcDbEntity
  8
0-1_2_0
6
CONTINUOUS
62
3
100
AcDbVertex
100
AcDb2dVertex
10
903.293
20
958.196
30
0.0
42
1.000
0
SEQEND
5
c12
100
AcDbEntity
  8
0-1_2_0
0
POLYLINE
5
c13
100
AcDbEntity
  8
0-1_2_0
6
CONTINUOUS
62
3
100
AcDb2dPolyline
66
1
10
0
20
0
70
1
40
0.800
41
0.800
0
VERTEX
5
c14
100
AcDbEntity
  8
0-1_2_0
6
CONTINUOUS
62
3
100
AcDbVertex
100
AcDb2dVertex
10
748.295
20
919.646
30
0.0
42
1.000
0
VERTEX
5
c15
100
AcDbEntity
  8
0-1_2_0
6
CONTINUOUS
62
3
100
AcDbVertex
100
AcDb2dVertex
10
749.095
20
919.646
30
0.0
42
1.000
0
SEQEND
5
c16
100
AcDbEntity
  8
0-1_2_0
0
POLYLINE
5
c17
100
AcDbEntity
  8
0-1_2_0
6
CONTINUOUS
62
3
100
AcDb2dPolyline
66
1
10
0
20
0
70
1
40
0.800
41
0.800
0
VERTEX
5
c18
100
AcDbEntity
  8
0-1_2_0
6
CONTINUOUS
62
3
100
AcDbVertex
100
AcDb2dVertex
10
977.398
20
883.388
30
0.0
42
1.000
0
VERTEX
5
c19
100
AcDbEntity
  8
0-1_2_0
6
CONTINUOUS
62
3
100
AcDbVertex
100
AcDb2dVertex
10
978.198
20
883.388
30
0.0
42
1.000
0
SEQEND
5
c1a
100
AcDbEntity
  8
0-1_2_0
0
POLYLINE
5
c1b
100
AcDbEntity
  8
0-1_2_0
6
CONTINUOUS
62
3
100
AcDb2dPolyline
66
1
10
0
20
0
70
1
40
0.800
41
0.800
0
VERTEX
5
c1c
100
AcDbEntity
  8
0-1_2_0
6
CONTINUOUS
62
3
100
AcDbVertex
100
AcDb2dVertex
10
977.398
20
779.982
30
0.0
42
1.000
0
VERTEX
5
c1d
100
AcDbEntity
  8
0-1_2_0
6
CONTINUOUS
62
3
100
AcDbVertex
100
AcDb2dVertex
10
978.198
20
779.982
30
0.0
42
1.000
0
SEQEND
5
c1e
100
AcDbEntity
  8
0-1_2_0
0
POLYLINE
5
c1f
100
AcDbEntity
  8
0-1_2_0
6
CONTINUOUS
62
4
100
AcDb2dPolyline
66
1
10
0
20
0
70
1
40
0.800
41
0.800
0
VERTEX
5
c20
100
AcDbEntity
  8
0-1_2_0
6
CONTINUOUS
62
4
100
AcDbVertex
100
AcDb2dVertex
10
811.269
20
776.241
30
0.0
42
1.000
0
VERTEX
5
c21
100
AcDbEntity
  8
0-1_2_0
6
CONTINUOUS
62
4
100
AcDbVertex
100
AcDb2dVertex
10
812.069
20
776.241
30
0.0
42
1.000
0
SEQEND
5
c22
100
AcDbEntity
  8
0-1_2_0
0
POLYLINE
5
c23
100
AcDbEntity
  8
0-1_2_0
6
CONTINUOUS
62
4
100
AcDb2dPolyline
66
1
10
0
20
0
70
1
40
0.800
41
0.800
0
VERTEX
5
c24
100
AcDbEntity
  8
0-1_2_0
6
CONTINUOUS
62
4
100
AcDbVertex
100
AcDb2dVertex
10
811.269
20
776.241
30
0.0
42
1.000
0
VERTEX
5
c25
100
AcDbEntity
  8
0-1_2_0
6
CONTINUOUS
62
4
100
AcDbVertex
100
AcDb2dVertex
10
812.069
20
776.241
30
0.0
42
1.000
0
SEQEND
5
c26
100
AcDbEntity
  8
0-1_2_0
0
POLYLINE
5
c27
100
AcDbEntity
  8
0-1_2_0
6
CONTINUOUS
62
4
100
AcDb2dPolyline
66
1
10
0
20
0
70
1
40
0.800
41
0.800
0
VERTEX
5
c28
100
AcDbEntity
  8
0-1_2_0
6
CONTINUOUS
62
4
100
AcDbVertex
100
AcDb2dVertex
10
811.269
20
776.241
30
0.0
42
1.000
0
VERTEX
5
c29
100
AcDbEntity
  8
0-1_2_0
6
CONTINUOUS
62
4
100
AcDbVertex
100
AcDb2dVertex
10
812.069
20
776.241
30
0.0
42
1.000
0
SEQEND
5
c2a
100
AcDbEntity
  8
0-1_2_0
0
POLYLINE
5
c2b
100
AcDbEntity
  8
0-1_2_0
6
CONTINUOUS
62
3
100
AcDb2dPolyline
66
1
10
0
20
0
70
1
40
0.800
41
0.800
0
VERTEX
5
c2c
100
AcDbEntity
  8
0-1_2_0
6
CONTINUOUS
62
3
100
AcDbVertex
100
AcDb2dVertex
10
1056.178
20
964.768
30
0.0
42
1.000
0
VERTEX
5
c2d
100
AcDbEntity
  8
0-1_2_0
6
CONTINUOUS
62
3
100
AcDbVertex
100
AcDb2dVertex
10
1056.978
20
964.768
30
0.0
42
1.000
0
SEQEND
5
c2e
100
AcDbEntity
  8
0-1_2_0
0
POLYLINE
5
c2f
100
AcDbEntity
  8
0-1_2_0
6
CONTINUOUS
62
3
100
AcDb2dPolyline
66
1
10
0
20
0
70
1
40
0.800
41
0.800
0
VERTEX
5
c30
100
AcDbEntity
  8
0-1_2_0
6
CONTINUOUS
62
3
100
AcDbVertex
100
AcDb2dVertex
10
1056.178
20
844.768
30
0.0
42
1.000
0
VERTEX
5
c31
100
AcDbEntity
  8
0-1_2_0
6
CONTINUOUS
62
3
100
AcDbVertex
100
AcDb2dVertex
10
1056.978
20
844.768
30
0.0
42
1.000
0
SEQEND
5
c32
100
AcDbEntity
  8
0-1_2_0
0
POLYLINE
5
c33
100
AcDbEntity
  8
0-1_2_0
6
CONTINUOUS
62
3
100
AcDb2dPolyline
66
1
10
0
20
0
70
1
40
0.800
41
0.800
0
VERTEX
5
c34
100
AcDbEntity
  8
0-1_2_0
6
CONTINUOUS
62
3
100
AcDbVertex
100
AcDb2dVertex
10
1056.178
20
964.768
30
0.0
42
1.000
0
VERTEX
5
c35
100
AcDbEntity
  8
0-1_2_0
6
CONTINUOUS
62
3
100
AcDbVertex
100
AcDb2dVertex
10
1056.978
20
964.768
30
0.0
42
1.000
0
SEQEND
5
c36
100
AcDbEntity
  8
0-1_2_0
0
POLYLINE
5
c37
100
AcDbEntity
  8
0-5_2_4
6
CONTINUOUS
62
3
100
AcDb2dPolyline
66
1
10
0
20
0
70
1
40
0.800
41
0.800
0
VERTEX
5
c38
100
AcDbEntity
  8
0-5_2_4
6
CONTINUOUS
62
3
100
AcDbVertex
100
AcDb2dVertex
10
1061.278
20
438.212
30
0.0
42
1.000
0
VERTEX
5
c39
100
AcDbEntity
  8
0-5_2_4
6
CONTINUOUS
62
3
100
AcDbVertex
100
AcDb2dVertex
10
1062.078
20
438.212
30
0.0
42
1.000
0
SEQEND
5
c3a
100
AcDbEntity
  8
0-5_2_4
0
POLYLINE
5
c3b
100
AcDbEntity
  8
0-5_2_4
6
CONTINUOUS
62
3
100
AcDb2dPolyline
66
1
10
0
20
0
70
1
40
0.800
41
0.800
0
VERTEX
5
c3c
100
AcDbEntity
  8
0-5_2_4
6
CONTINUOUS
62
3
100
AcDbVertex
100
AcDb2dVertex
10
1061.278
20
318.212
30
0.0
42
1.000
0
VERTEX
5
c3d
100
AcDbEntity
  8
0-5_2_4
6
CONTINUOUS
62
3
100
AcDbVertex
100
AcDb2dVertex
10
1062.078
20
318.212
30
0.0
42
1.000
0
SEQEND
5
c3e
100
AcDbEntity
  8
0-5_2_4
0
POLYLINE
5
c3f
100
AcDbEntity
  8
0-5_2_4
6
CONTINUOUS
62
3
100
AcDb2dPolyline
66
1
10
0
20
0
70
1
40
0.800
41
0.800
0
VERTEX
5
c40
100
AcDbEntity
  8
0-5_2_4
6
CONTINUOUS
62
3
100
AcDbVertex
100
AcDb2dVertex
10
1061.278
20
438.212
30
0.0
42
1.000
0
VERTEX
5
c41
100
AcDbEntity
  8
0-5_2_4
6
CONTINUOUS
62
3
100
AcDbVertex
100
AcDb2dVertex
10
1062.078
20
438.212
30
0.0
42
1.000
0
SEQEND
5
c42
100
AcDbEntity
  8
0-5_2_4
0
POLYLINE
5
c43
100
AcDbEntity
  8
0-4_2_3
6
CONTINUOUS
62
3
100
AcDb2dPolyline
66
1
10
0
20
0
70
1
40
0.800
41
0.800
0
VERTEX
5
c44
100
AcDbEntity
  8
0-4_2_3
6
CONTINUOUS
62
3
100
AcDbVertex
100
AcDb2dVertex
10
362.045
20
512.228
30
0.0
42
1.000
0
VERTEX
5
c45
100
AcDbEntity
  8
0-4_2_3
6
CONTINUOUS
62
3
100
AcDbVertex
100
AcDb2dVertex
10
362.845
20
512.228
30
0.0
42
1.000
0
SEQEND
5
c46
100
AcDbEntity
  8
0-4_2_3
0
POLYLINE
5
c47
100
AcDbEntity
  8
0-4_2_3
6
CONTINUOUS
62
3
100
AcDb2dPolyline
66
1
10
0
20
0
70
1
40
0.800
41
0.800
0
VERTEX
5
c48
100
AcDbEntity
  8
0-4_2_3
6
CONTINUOUS
62
3
100
AcDbVertex
100
AcDb2dVertex
10
207.847
20
473.679
30
0.0
42
1.000
0
VERTEX
5
c49
100
AcDbEntity
  8
0-4_2_3
6
CONTINUOUS
62
3
100
AcDbVertex
100
AcDb2dVertex
10
208.647
20
473.679
30
0.0
42
1.000
0
SEQEND
5
c4a
100
AcDbEntity
  8
0-4_2_3
0
POLYLINE
5
c4b
100
AcDbEntity
  8
0-4_2_3
6
CONTINUOUS
62
4
100
AcDb2dPolyline
66
1
10
0
20
0
70
1
40
0.800
41
0.800
0
VERTEX
5
c4c
100
AcDbEntity
  8
0-4_2_3
6
CONTINUOUS
62
4
100
AcDbVertex
100
AcDb2dVertex
10
270.821
20
330.274
30
0.0
42
1.000
0
VERTEX
5
c4d
100
AcDbEntity
  8
0-4_2_3
6
CONTINUOUS
62
4
100
AcDbVertex
100
AcDb2dVertex
10
271.621
20
330.274
30
0.0
42
1.000
0
SEQEND
5
c4e
100
AcDbEntity
  8
0-4_2_3
0
POLYLINE
5
c4f
100
AcDbEntity
  8
0-4_2_3
6
CONTINUOUS
62
4
100
AcDb2dPolyline
66
1
10
0
20
0
70
1
40
0.800
41
0.800
0
VERTEX
5
c50
100
AcDbEntity
  8
0-4_2_3
6
CONTINUOUS
62
4
100
AcDbVertex
100
AcDb2dVertex
10
270.821
20
330.274
30
0.0
42
1.000
0
VERTEX
5
c51
100
AcDbEntity
  8
0-4_2_3
6
CONTINUOUS
62
4
100
AcDbVertex
100
AcDb2dVertex
10
271.621
20
330.274
30
0.0
42
1.000
0
SEQEND
5
c52
100
AcDbEntity
  8
0-4_2_3
0
POLYLINE
5
c53
100
AcDbEntity
  8
0-4_2_3
6
CONTINUOUS
62
4
100
AcDb2dPolyline
66
1
10
0
20
0
70
1
40
0.800
41
0.800
0
VERTEX
5
c54
100
AcDbEntity
  8
0-4_2_3
6
CONTINUOUS
62
4
100
AcDbVertex
100
AcDb2dVertex
10
270.821
20
330.274
30
0.0
42
1.000
0
VERTEX
5
c55
100
AcDbEntity
  8
0-4_2_3
6
CONTINUOUS
62
4
100
AcDbVertex
100
AcDb2dVertex
10
271.621
20
330.274
30
0.0
42
1.000
0
SEQEND
5
c56
100
AcDbEntity
  8
0-4_2_3
0
ENDSEC
 0
SECTION
  2
OBJECTS
 0
DICTIONARY
  5
C
100
AcDbDictionary
  3
ACAD_GROUP
350
D
  3
ACAD_MLINESTYLE
350
E
 0
DICTIONARY
  5
D
102
{ACAD_REACTORS
102
}
100
AcDbDictionary
 0
DICTIONARY
  5
E
102
{ACAD_REACTORS
102
}
100
AcDbDictionary
  3
STANDARD
350
13
0
MLINESTYLE
  5
13
102
{ACAD_REACTORS
102
}
100
AcDbMlineStyle
  2
STANDARD
 70
    0
3

62
256
51
90.0
52
90.0
71
0
0
ACDBPLACEHOLDER
  5
14
102
{ACAD_REACTORS
102
}
0
ENDSEC
0
EOF
