0
SECTION
2
HEADER
9
$ACADVER
1
AC1015
9
$ACADMAINTVER
 70
6
9
$DWGCODEPAGE
3
ANSI_932
9
$EXTMIN
10
0.000
20
0.000
30
0.0
9
$EXTMAX
10
841.000
20
594.000
30
0.0
9
$LIMMIN
10
0.000
20
0.000
9
$LIMMAX
10
841.000
20
594.000
9
$DIMSCALE
40
1.000000
9
$LTSCALE
40
2.000
9
$PDMODE
70
0
9
$PDSIZE
40
40.0
9
$HANDSEED
5
61c4f
9
$UNITMODE
70
0
9
$VISRETAIN
70
0
9
$PLINEGEN
70
0
9
$PSLTSCALE
70
1
9
$TREEDEPTH
70
3020
9
$CMLSTYLE
2
STANDARD
9
$CMLJUST
70
0
9
$CMLSCALE
40
1.0
9
$PROXYGRAPHICS
70
1
9
$MEASUREMENT
70
0
9
$CELWEIGHT
370
-1
9
$ENDCAPS
280
0
9
$JOINSTYLE
280
0
9
$LWDISPLAY
290
0
9
$INSUNITS
70
0
9
$HYPERLINKBASE
1

9
$STYLESHEET
1

9
$XEDIT
290
1
9
$CEPSNTYPE
380
0
9
$PSTYLEMODE
290
1
9
$FINGERPRINTGUID
2
{5F082321-0195-11D3-BDFB-0060B0CD5109}
9
$VERSIONGUID
2
{12943756-294D-11D3-98C2-0060B087942D}
9
$EXTNAMES
290
1
9
$PSVPSCALE
40
0.0
9
$OLESTARTUP
290
0
0
ENDSEC
0
SECTION
  2
CLASSES
0
ENDSEC
0
SECTION
2
TABLES
0
TABLE
2
VPORT
5
190
100
AcDbSymbolTable
70
2
0
VPORT
5
191
100
AcDbSymbolTableRecord
100
AcDbViewportTableRecord
2
*ACTIVE
70
0
10
0.0
20
0.0
11
1.0
21
1.0
12
420.500
22
297.000
13
0.0
23
0.0
14
1.0
24
1.0
15
0.0
25
0.0
16
0.0
26
0.0
36
1.0
17
0.0
27
0.0
37
0.0
40
609.420
41
2.0
42
50.0
43
0.0
44
0.0
50
0.0
51
0.0
71
0
72
1000
73
1
74
1
75
0
76
0
77
0
78
0
0
ENDTAB
0
TABLE
2
LTYPE
5
1f4
100
AcDbSymbolTable
70
9
0
LTYPE
5
1f5
100
AcDbSymbolTableRecord
100
AcDbLinetypeTableRecord
2
BYBLOCK
70
 64
3

72
 65
73
  0
40
0.0
0
LTYPE
5
1f6
100
AcDbSymbolTableRecord
100
AcDbLinetypeTableRecord
2
BYLAYER
70
 64
3

72
 65
73
  0
40
0.0
0
LTYPE
5
1f7
100
AcDbSymbolTableRecord
100
AcDbLinetypeTableRecord
2
CONTINUOUS
70
64
3
SolidLine
72
65
73
0
40
0.0
0
LTYPE
5
1f8
100
AcDbSymbolTableRecord
100
AcDbLinetypeTableRecord
2
DOT
70
64
3
--  --  --  --  --  --  --  --     
72
65
73
2
40
3.000
49
1.000
74
0
49
-2.000
74
0
0
LTYPE
5
1f9
100
AcDbSymbolTableRecord
100
AcDbLinetypeTableRecord
2
DASHED
70
64
3
----    ----    ----    ----    
72
65
73
2
40
5.000
49
2.000
74
0
49
-3.000
74
0
0
LTYPE
5
1fa
100
AcDbSymbolTableRecord
100
AcDbLinetypeTableRecord
2
DASHED2
70
64
3
------  ------  ------  ------ 
72
65
73
2
40
10.000
49
4.000
74
0
49
-6.000
74
0
0
LTYPE
5
1fb
100
AcDbSymbolTableRecord
100
AcDbLinetypeTableRecord
2
CENTER
70
64
3
----- - ----- - ----- - ----- - 
72
65
73
4
40
10.000
49
6.000
74
0
49
-3.000
74
0
49
1.000
74
0
49
-3.000
74
0
0
LTYPE
5
1fc
100
AcDbSymbolTableRecord
100
AcDbLinetypeTableRecord
2
CENTER2
70
64
3
----------  --  ----------  -- 
72
65
73
4
40
17.000
49
12.000
74
0
49
-5.000
74
0
49
2.000
74
0
49
-5.000
74
0
0
LTYPE
5
1fd
100
AcDbSymbolTableRecord
100
AcDbLinetypeTableRecord
2
PHANTOM
70
64
3
--- - - --- - - --- - - --- - -
72
65
73
6
40
13.000
49
5.000
74
0
49
-3.000
74
0
49
1.000
74
0
49
-3.000
74
0
49
1.000
74
0
49
-3.000
74
0
0
LTYPE
5
1fe
100
AcDbSymbolTableRecord
100
AcDbLinetypeTableRecord
2
PHANTOM2
70
64
3
--------  -  -  --------  -  -
72
65
73
6
40
20.000
49
6.000
74
0
49
-5.000
74
0
49
2.000
74
0
49
-5.000
74
0
49
2.000
74
0
49
-5.000
74
0
0
LTYPE
5
1ff
100
AcDbSymbolTableRecord
100
AcDbLinetypeTableRecord
2
HIDDEN
70
64
3
-   -   -   -   -   -   -   -   
72
65
73
2
40
3.000
49
0.500
74
0
49
-2.500
74
0
0
ENDTAB
0
TABLE
2
STYLE
5
200
100
AcDbSymbolTable
70
1
0
STYLE
5
201
100
AcDbSymbolTableRecord
100
AcDbTextStyleTableRecord
2
STANDARD
70
0
40
0.0
41
1.0
50
0.0
71
0
42
0.0
3
txt.shx
4
extfont.shx
0
STYLE
5
202
100
AcDbSymbolTableRecord
100
AcDbTextStyleTableRecord
2
TATEGAKI
70
4
40
0.0
41
1.0
50
0.0
71
0
42
0.0
3
txt.shx
4
extfont.shx
0
STYLE
5
203
100
AcDbSymbolTableRecord
100
AcDbTextStyleTableRecord
2
DIM
70
0
40
0.0
41
0.75
50
0.0
71
0
42
0.0
3
txt.shx
4
extfont.shx
0
STYLE
5
204
100
AcDbSymbolTableRecord
100
AcDbTextStyleTableRecord
2
_Gothic_
70
0
40
1.0
41
1.0
50
0.0
71
0
42
10.0
3

4

1001
ACAD
1000
MS Gothic
1071
32817
0
STYLE
5
205
100
AcDbSymbolTableRecord
100
AcDbTextStyleTableRecord
2
_TateGothic_
70
4
40
0.0
41
1.0
50
0.0
71
0
42
0.0
3
@MS Gothic
4

0
ENDTAB
0
TABLE
2
VIEW
5
206
100
AcDbSymbolTable
70
0
0
ENDTAB
0
TABLE
2
UCS
5
207
100
AcDbSymbolTable
70
0
0
ENDTAB
0
TABLE
2
APPID
5
208
100
AcDbSymbolTable
70
1
0
APPID
5
209
100
AcDbSymbolTableRecord
100
AcDbRegAppTableRecord
2
ACAD
70
0
0
ENDTAB
0
TABLE
2
DIMSTYLE
5
403
330
0
100
AcDbSymbolTable
70
1
100
AcDbDimStyleTable
71
0
0
DIMSTYLE
105
404
330
402
100
AcDbSymbolTableRecord
100
AcDbDimStyleTableRecord
2
JAC_DIM
70
0
41
2.000
42
0.000
44
0.0
73
0
74
0
77
1
78
8
79
2
140
0.000
170
0
171
2
172
0
173
0
174
0
175
0
176
0
177
0
178
0
270
2
271
0
272
0
273
2
274
2
340
201
275
0
280
0
281
0
282
0
283
0
284
0
285
0
286
0
287
3
288
0
0
ENDTAB
0
TABLE
2
BLOCK_RECORD
5
405
100
AcDbSymbolTable
70
0
0
BLOCK_RECORD
5
406
100
AcDbSymbolTableRecord
100
AcDbBlockTableRecord
2
*MODEL_SPACE
0
BLOCK_RECORD
5
407
100
AcDbSymbolTableRecord
100
AcDbBlockTableRecord
2
*PAPER_SPACE
0
BLOCK_RECORD
5
408
100
AcDbSymbolTableRecord
100
AcDbBlockTableRecord
2
_JACCONVERT_
0
ENDTAB
0
TABLE
2
LAYER
5
409
100
AcDbSymbolTable
70
10
0
LAYER
5
40a
100
AcDbSymbolTableRecord
100
AcDbLayerTableRecord
2
0
70
0
62
7
6
CONTINUOUS
370
-3
390
14
0
LAYER
5
40b
100
AcDbSymbolTableRecord
100
AcDbLayerTableRecord
2
0-0
70
0
62
7
6
CONTINUOUS
370
-3
390
14
0
LAYER
5
40c
100
AcDbSymbolTableRecord
100
AcDbLayerTableRecord
2
F-E_J_ADD
70
0
62
-7
6
CONTINUOUS
290
0
370
-3
390
14
0
LAYER
5
40d
100
AcDbSymbolTableRecord
100
AcDbLayerTableRecord
2
F-F
70
0
62
7
6
CONTINUOUS
370
-3
390
14
0
ENDTAB
0
ENDSEC
0
SECTION
2
BLOCKS
0
BLOCK
5
40e
100
AcDbEntity
67
1
8
0
100
AcDbBlockBegin
2
*MODEL_SPACE
70
0
10
0.0
20
0.0
30
0.0
3
*MODEL_SPACE
1

0
ENDBLK
5
40f
100
AcDbEntity
8
0
100
AcDbBlockEnd
0
BLOCK
5
410
100
AcDbEntity
67
1
8
0
100
AcDbBlockBegin
2
*PAPER_SPACE
70
0
10
0.0
20
0.0
30
0.0
3
*PAPER_SPACE
1

0
ENDBLK
5
411
100
AcDbEntity
67
1
8
0
100
AcDbBlockEnd
0
BLOCK
5
412
100
AcDbEntity
8
0
100
AcDbBlockBegin
2
_JACCONVERT_
70
2
10
0.0
20
0.0
30
0.0
3
_JACCONVERT_
1
_JACCONVERT_
0
ATTDEF
5
413
100
AcDbEntity
8
0
62
0
100
AcDbText
10
0.0
20
0.0
30
0.0
40
1.0
1
User:460950EB0890EC0964308A
100
AcDbAttributeDefinition
3

2
USER
70
8
0
ATTDEF
5
414
100
AcDbEntity
8
0
62
0
100
AcDbText
10
0.0
20
2.0
30
0.0
40
1.0
1
Date:15/06/15 16:28
100
AcDbAttributeDefinition
3

2
REVDATE
70
8
0
ATTDEF
5
415
100
AcDbEntity
8
0
62
0
100
AcDbText
10
0.0
20
4.0
30
0.0
40
1.0
1
File:BLｳｫｰﾙ300.dxf
100
AcDbAttributeDefinition
3

2
FNAME
70
8
0
ATTDEF
5
416
100
AcDbEntity
8
0
62
0
100
AcDbText
10
0.0
20
6.0
30
0.0
40
1.0
1
JacConvert Version3.09 copyright (c) 2001-2013 K.Nakahara
100
AcDbAttributeDefinition
3

2
VER
70
8
0
ENDBLK
5
417
100
AcDbEntity
67
1
8
0
100
AcDbBlockEnd
0
ENDSEC
0
SECTION
2
ENTITIES
0
LINE
5
418
100
AcDbEntity
8
F-F
6
CONTINUOUS
62
2
100
AcDbLine
10
27.380000000000
20
11.820000000000
30
0.0
11
27.380000000000
21
571.820000000000
31
0.0
0
LINE
5
419
100
AcDbEntity
8
F-F
6
CONTINUOUS
62
2
100
AcDbLine
10
642.380000000000
20
41.450000000000
30
0.0
11
642.380000000000
21
11.820000000000
31
0.0
0
LINE
5
41a
100
AcDbEntity
8
F-F
6
CONTINUOUS
62
2
100
AcDbLine
10
607.270000000000
20
41.450000000000
30
0.0
11
607.270000000000
21
11.820000000000
31
0.0
0
LINE
5
41b
100
AcDbEntity
8
F-F
6
CONTINUOUS
62
2
100
AcDbLine
10
768.560000000000
20
11.820000000000
30
0.0
11
768.560000000000
21
41.450000000000
31
0.0
0
LINE
5
41c
100
AcDbEntity
8
F-F
6
CONTINUOUS
62
2
100
AcDbLine
10
403.450000000000
20
41.450000000000
30
0.0
11
403.450000000000
21
11.820000000000
31
0.0
0
LINE
5
41d
100
AcDbEntity
8
F-F
6
CONTINUOUS
62
2
100
AcDbLine
10
504.870000000000
20
41.450000000000
30
0.0
11
504.870000000000
21
11.820000000000
31
0.0
0
LINE
5
41e
100
AcDbEntity
8
F-F
6
CONTINUOUS
62
2
100
AcDbLine
10
403.450000000000
20
31.570000000000
30
0.0
11
184.880000000000
21
31.570000000000
31
0.0
0
LINE
5
41f
100
AcDbEntity
8
F-F
6
CONTINUOUS
62
2
100
AcDbLine
10
403.450000000000
20
21.690000000000
30
0.0
11
184.880000000000
21
21.690000000000
31
0.0
0
LINE
5
420
100
AcDbEntity
8
F-F
6
CONTINUOUS
62
2
100
AcDbLine
10
403.450000000000
20
16.760000000000
30
0.0
11
184.880000000000
21
16.760000000000
31
0.0
0
LINE
5
421
100
AcDbEntity
8
F-F
6
CONTINUOUS
62
2
100
AcDbLine
10
403.450000000000
20
36.510000000000
30
0.0
11
184.880000000000
21
36.510000000000
31
0.0
0
LINE
5
422
100
AcDbEntity
8
F-F
6
CONTINUOUS
62
2
100
AcDbLine
10
211.210000000000
20
41.450000000000
30
0.0
11
211.210000000000
21
11.820000000000
31
0.0
0
LINE
5
423
100
AcDbEntity
8
F-F
6
CONTINUOUS
62
2
100
AcDbLine
10
184.880000000000
20
41.450000000000
30
0.0
11
184.880000000000
21
11.820000000000
31
0.0
0
LINE
5
424
100
AcDbEntity
8
F-F
6
CONTINUOUS
62
2
100
AcDbLine
10
815.820000000000
20
11.820000000000
30
0.0
11
815.820000000000
21
571.820000000000
31
0.0
0
LINE
5
425
100
AcDbEntity
8
F-F
6
CONTINUOUS
62
2
100
AcDbLine
10
27.380000000000
20
571.820000000000
30
0.0
11
815.820000000000
21
571.820000000000
31
0.0
0
LINE
5
426
100
AcDbEntity
8
F-F
6
CONTINUOUS
62
2
100
AcDbLine
10
27.380000000000
20
11.820000000000
30
0.0
11
815.820000000000
21
11.820000000000
31
0.0
0
LINE
5
427
100
AcDbEntity
8
F-F
6
CONTINUOUS
62
2
100
AcDbLine
10
815.820000000000
20
41.450000000000
30
0.0
11
27.380000000000
21
41.450000000000
31
0.0
0
LINE
5
428
100
AcDbEntity
8
F-F
6
CONTINUOUS
62
2
100
AcDbLine
10
184.880000000000
20
26.630000000000
30
0.0
11
815.820000000000
21
26.630000000000
31
0.0
0
LINE
5
429
100
AcDbEntity
8
0-0
6
CONTINUOUS
62
3
100
AcDbLine
10
400.950000000000
20
379.540000000000
30
0.0
11
398.390000000000
21
376.980000000000
31
0.0
0
LINE
5
42a
100
AcDbEntity
8
0-0
6
CONTINUOUS
62
3
100
AcDbLine
10
398.040000000000
20
377.330000000000
30
0.0
11
400.600000000000
21
379.890000000000
31
0.0
0
LINE
5
42b
100
AcDbEntity
8
0-0
6
CONTINUOUS
62
3
100
AcDbLine
10
451.270000000000
20
369.220000000000
30
0.0
11
446.560000000000
21
379.120000000000
31
0.0
0
LINE
5
42c
100
AcDbEntity
8
0-0
6
CONTINUOUS
62
3
100
AcDbLine
10
450.800000000000
20
367.890000000000
30
0.0
11
445.950000000000
21
365.540000000000
31
0.0
0
LINE
5
42d
100
AcDbEntity
8
0-0
6
CONTINUOUS
62
3
100
AcDbLine
10
447.010000000000
20
379.330000000000
30
0.0
11
451.720000000000
21
369.430000000000
31
0.0
0
LINE
5
42e
100
AcDbEntity
8
0-0
6
CONTINUOUS
62
3
100
AcDbLine
10
446.170000000000
20
365.090000000000
30
0.0
11
451.020000000000
21
367.440000000000
31
0.0
0
LINE
5
42f
100
AcDbEntity
8
0-0
6
CONTINUOUS
62
3
100
AcDbLine
10
458.550000000000
20
347.080000000000
30
0.0
11
445.820000000000
21
363.580000000000
31
0.0
0
LINE
5
430
100
AcDbEntity
8
0-0
6
CONTINUOUS
62
3
100
AcDbLine
10
458.150000000000
20
346.770000000000
30
0.0
11
445.420000000000
21
363.270000000000
31
0.0
0
LINE
5
431
100
AcDbEntity
8
0-0
6
CONTINUOUS
62
3
100
AcDbLine
10
459.340000000000
20
346.690000000000
30
0.0
11
471.600000000000
21
346.690000000000
31
0.0
0
LINE
5
432
100
AcDbEntity
8
0-0
6
CONTINUOUS
62
3
100
AcDbLine
10
471.600000000000
20
346.190000000000
30
0.0
11
459.340000000000
21
346.190000000000
31
0.0
0
LINE
5
433
100
AcDbEntity
8
0-0
6
CONTINUOUS
62
3
100
AcDbLine
10
397.690000000000
20
376.690000000000
30
0.0
11
381.600000000000
21
376.690000000000
31
0.0
0
LINE
5
434
100
AcDbEntity
8
0-0
6
CONTINUOUS
62
3
100
AcDbLine
10
397.690000000000
20
377.190000000000
30
0.0
11
381.600000000000
21
377.190000000000
31
0.0
0
LINE
5
435
100
AcDbEntity
8
0-0
6
CONTINUOUS
62
3
100
AcDbLine
10
362.250000000000
20
379.540000000000
30
0.0
11
364.810000000000
21
376.980000000000
31
0.0
0
LINE
5
436
100
AcDbEntity
8
0-0
6
CONTINUOUS
62
3
100
AcDbLine
10
365.160000000000
20
377.330000000000
30
0.0
11
362.600000000000
21
379.890000000000
31
0.0
0
LINE
5
437
100
AcDbEntity
8
0-0
6
CONTINUOUS
62
3
100
AcDbLine
10
365.520000000000
20
376.690000000000
30
0.0
11
381.600000000000
21
376.690000000000
31
0.0
0
LINE
5
438
100
AcDbEntity
8
0-0
6
CONTINUOUS
62
3
100
AcDbLine
10
365.520000000000
20
377.190000000000
30
0.0
11
381.600000000000
21
377.190000000000
31
0.0
0
LINE
5
439
100
AcDbEntity
8
0-0
6
CONTINUOUS
62
3
100
AcDbLine
10
321.600000000000
20
380.190000000000
30
0.0
11
361.890000000000
21
380.190000000000
31
0.0
0
LINE
5
43a
100
AcDbEntity
8
0-0
6
CONTINUOUS
62
3
100
AcDbLine
10
361.890000000000
20
379.690000000000
30
0.0
11
321.600000000000
21
379.690000000000
31
0.0
0
LINE
5
43b
100
AcDbEntity
8
0-0
6
CONTINUOUS
62
3
100
AcDbLine
10
445.650000000000
20
380.190000000000
30
0.0
11
401.310000000000
21
380.190000000000
31
0.0
0
LINE
5
43c
100
AcDbEntity
8
0-0
6
CONTINUOUS
62
3
100
AcDbLine
10
401.310000000000
20
379.690000000000
30
0.0
11
445.650000000000
21
379.690000000000
31
0.0
0
LINE
5
43d
100
AcDbEntity
8
0-0
6
CONTINUOUS
62
3
100
AcDbLine
10
242.250000000000
20
379.540000000000
30
0.0
11
244.810000000000
21
376.980000000000
31
0.0
0
LINE
5
43e
100
AcDbEntity
8
0-0
6
CONTINUOUS
62
3
100
AcDbLine
10
245.160000000000
20
377.330000000000
30
0.0
11
242.600000000000
21
379.890000000000
31
0.0
0
LINE
5
43f
100
AcDbEntity
8
0-0
6
CONTINUOUS
62
3
100
AcDbLine
10
245.520000000000
20
376.690000000000
30
0.0
11
261.600000000000
21
376.690000000000
31
0.0
0
LINE
5
440
100
AcDbEntity
8
0-0
6
CONTINUOUS
62
3
100
AcDbLine
10
245.520000000000
20
377.190000000000
30
0.0
11
261.600000000000
21
377.190000000000
31
0.0
0
LINE
5
441
100
AcDbEntity
8
0-0
6
CONTINUOUS
62
3
100
AcDbLine
10
280.950000000000
20
379.540000000000
30
0.0
11
278.390000000000
21
376.980000000000
31
0.0
0
LINE
5
442
100
AcDbEntity
8
0-0
6
CONTINUOUS
62
3
100
AcDbLine
10
278.040000000000
20
377.330000000000
30
0.0
11
280.600000000000
21
379.890000000000
31
0.0
0
LINE
5
443
100
AcDbEntity
8
0-0
6
CONTINUOUS
62
3
100
AcDbLine
10
277.690000000000
20
376.690000000000
30
0.0
11
261.600000000000
21
376.690000000000
31
0.0
0
LINE
5
444
100
AcDbEntity
8
0-0
6
CONTINUOUS
62
3
100
AcDbLine
10
277.690000000000
20
377.190000000000
30
0.0
11
261.600000000000
21
377.190000000000
31
0.0
0
LINE
5
445
100
AcDbEntity
8
0-0
6
CONTINUOUS
62
3
100
AcDbLine
10
321.600000000000
20
380.190000000000
30
0.0
11
281.310000000000
21
380.190000000000
31
0.0
0
LINE
5
446
100
AcDbEntity
8
0-0
6
CONTINUOUS
62
3
100
AcDbLine
10
281.310000000000
20
379.690000000000
30
0.0
11
321.600000000000
21
379.690000000000
31
0.0
0
LINE
5
447
100
AcDbEntity
8
0-0
6
CONTINUOUS
62
7
100
AcDbLine
10
171.600000000000
20
437.340000000000
30
0.0
11
171.600000000000
21
390.190000000000
31
0.0
0
LINE
5
448
100
AcDbEntity
8
0-0
6
CONTINUOUS
62
3
100
AcDbLine
10
195.490000000000
20
364.730000000000
30
0.0
11
191.740000000000
21
366.540000000000
31
0.0
0
LINE
5
449
100
AcDbEntity
8
0-0
6
CONTINUOUS
62
3
100
AcDbLine
10
195.700000000000
20
365.180000000000
30
0.0
11
191.960000000000
21
366.990000000000
31
0.0
0
LINE
5
44a
100
AcDbEntity
8
0-0
6
CONTINUOUS
62
3
100
AcDbLine
10
186.340000000000
20
350.890000000000
30
0.0
11
195.840000000000
21
363.210000000000
31
0.0
0
LINE
5
44b
100
AcDbEntity
8
0-0
6
CONTINUOUS
62
3
100
AcDbLine
10
185.310000000000
20
350.530000000000
30
0.0
11
183.820000000000
21
350.890000000000
31
0.0
0
LINE
5
44c
100
AcDbEntity
8
0-0
6
CONTINUOUS
62
3
100
AcDbLine
10
185.200000000000
20
350.050000000000
30
0.0
11
183.720000000000
21
350.400000000000
31
0.0
0
LINE
5
44d
100
AcDbEntity
8
0-0
6
CONTINUOUS
62
3
100
AcDbLine
10
186.730000000000
20
350.590000000000
30
0.0
11
196.240000000000
21
362.910000000000
31
0.0
0
LINE
5
44e
100
AcDbEntity
8
0-0
6
CONTINUOUS
62
3
100
AcDbLine
10
196.440000000000
20
379.690000000000
30
0.0
11
241.890000000000
21
379.690000000000
31
0.0
0
LINE
5
44f
100
AcDbEntity
8
0-0
6
CONTINUOUS
62
3
100
AcDbLine
10
195.540000000000
20
379.120000000000
30
0.0
11
191.030000000000
21
369.650000000000
31
0.0
0
LINE
5
450
100
AcDbEntity
8
0-0
6
CONTINUOUS
62
3
100
AcDbLine
10
196.440000000000
20
380.190000000000
30
0.0
11
241.890000000000
21
380.190000000000
31
0.0
0
LINE
5
451
100
AcDbEntity
8
0-0
6
CONTINUOUS
62
3
100
AcDbLine
10
195.090000000000
20
379.330000000000
30
0.0
11
190.580000000000
21
369.860000000000
31
0.0
0
LINE
5
452
100
AcDbEntity
8
0-0
6
CONTINUOUS
62
3
100
AcDbLine
10
492.400000000000
20
367.890000000000
30
0.0
11
497.250000000000
21
365.540000000000
31
0.0
0
LINE
5
453
100
AcDbEntity
8
0-0
6
CONTINUOUS
62
3
100
AcDbLine
10
497.030000000000
20
365.090000000000
30
0.0
11
492.180000000000
21
367.440000000000
31
0.0
0
LINE
5
454
100
AcDbEntity
8
0-0
6
CONTINUOUS
62
3
100
AcDbLine
10
484.660000000000
20
347.080000000000
30
0.0
11
497.390000000000
21
363.580000000000
31
0.0
0
LINE
5
455
100
AcDbEntity
8
0-0
6
CONTINUOUS
62
3
100
AcDbLine
10
485.050000000000
20
346.770000000000
30
0.0
11
497.780000000000
21
363.270000000000
31
0.0
0
LINE
5
456
100
AcDbEntity
8
0-0
6
CONTINUOUS
62
3
100
AcDbLine
10
483.860000000000
20
346.690000000000
30
0.0
11
471.600000000000
21
346.690000000000
31
0.0
0
LINE
5
457
100
AcDbEntity
8
0-0
6
CONTINUOUS
62
3
100
AcDbLine
10
471.600000000000
20
346.190000000000
30
0.0
11
483.860000000000
21
346.190000000000
31
0.0
0
LINE
5
458
100
AcDbEntity
8
0-0
6
CONTINUOUS
62
3
100
AcDbLine
10
497.260000000000
20
378.200000000000
30
0.0
11
491.910000000000
21
369.180000000000
31
0.0
0
LINE
5
459
100
AcDbEntity
8
0-0
6
CONTINUOUS
62
3
100
AcDbLine
10
498.120000000000
20
378.690000000000
30
0.0
11
504.600000000000
21
378.690000000000
31
0.0
0
LINE
5
45a
100
AcDbEntity
8
0-0
6
CONTINUOUS
62
3
100
AcDbLine
10
504.600000000000
20
379.190000000000
30
0.0
11
504.600000000000
21
378.690000000000
31
0.0
0
LINE
5
45b
100
AcDbEntity
8
0-0
6
CONTINUOUS
62
3
100
AcDbLine
10
498.120000000000
20
379.190000000000
30
0.0
11
504.600000000000
21
379.190000000000
31
0.0
0
LINE
5
45c
100
AcDbEntity
8
0-0
6
CONTINUOUS
62
3
100
AcDbLine
10
491.480000000000
20
369.430000000000
30
0.0
11
496.830000000000
21
378.450000000000
31
0.0
0
POLYLINE
5
45d
100
AcDbEntity
8
0-0
6
CONTINUOUS
62
  3
100
AcDb2dPolyline
66
1
10
0.0
20
0.0
30
0.0
70
0
0
VERTEX
5
45e
100
AcDbEntity
8
0-0
6
CONTINUOUS
62
  3
100
AcDbVertex
100
AcDb2dVertex
10
147.320000000000
20
363.260000000000
30
0.0
0
VERTEX
5
45f
100
AcDbEntity
8
0-0
6
CONTINUOUS
62
  3
100
AcDbVertex
100
AcDb2dVertex
10
150.210000000000
20
361.000000000000
30
0.0
0
VERTEX
5
460
100
AcDbEntity
8
0-0
6
CONTINUOUS
62
  3
100
AcDbVertex
100
AcDb2dVertex
10
149.900000000000
20
360.600000000000
30
0.0
0
SEQEND
5
461
100
AcDbEntity
8
0-0
0
LINE
5
462
100
AcDbEntity
8
0-0
6
CONTINUOUS
62
3
100
AcDbLine
10
146.960000000000
20
362.910000000000
30
0.0
11
149.900000000000
21
360.600000000000
31
0.0
0
LINE
5
463
100
AcDbEntity
8
0-0
6
CONTINUOUS
62
3
100
AcDbLine
10
156.890000000000
20
351.050000000000
30
0.0
11
149.390000000000
21
364.670000000000
31
0.0
0
LINE
5
464
100
AcDbEntity
8
0-0
6
CONTINUOUS
62
3
100
AcDbLine
10
158.000000000000
20
350.560000000000
30
0.0
11
159.380000000000
21
350.890000000000
31
0.0
0
LINE
5
465
100
AcDbEntity
8
0-0
6
CONTINUOUS
62
3
100
AcDbLine
10
158.120000000000
20
350.070000000000
30
0.0
11
159.490000000000
21
350.400000000000
31
0.0
0
LINE
5
466
100
AcDbEntity
8
0-0
6
CONTINUOUS
62
3
100
AcDbLine
10
148.950000000000
20
364.430000000000
30
0.0
11
156.450000000000
21
350.810000000000
31
0.0
0
LINE
5
467
100
AcDbEntity
8
0-0
6
CONTINUOUS
62
3
100
AcDbLine
10
342.400000000000
20
217.890000000000
30
0.0
11
347.250000000000
21
215.540000000000
31
0.0
0
LINE
5
468
100
AcDbEntity
8
0-0
6
CONTINUOUS
62
3
100
AcDbLine
10
347.030000000000
20
215.090000000000
30
0.0
11
342.180000000000
21
217.440000000000
31
0.0
0
LINE
5
469
100
AcDbEntity
8
0-0
6
CONTINUOUS
62
3
100
AcDbLine
10
334.660000000000
20
197.080000000000
30
0.0
11
347.390000000000
21
213.580000000000
31
0.0
0
LINE
5
46a
100
AcDbEntity
8
0-0
6
CONTINUOUS
62
3
100
AcDbLine
10
335.050000000000
20
196.770000000000
30
0.0
11
347.780000000000
21
213.270000000000
31
0.0
0
LINE
5
46b
100
AcDbEntity
8
0-0
6
CONTINUOUS
62
3
100
AcDbLine
10
333.860000000000
20
196.690000000000
30
0.0
11
321.600000000000
21
196.690000000000
31
0.0
0
LINE
5
46c
100
AcDbEntity
8
0-0
6
CONTINUOUS
62
3
100
AcDbLine
10
321.600000000000
20
196.190000000000
30
0.0
11
333.860000000000
21
196.190000000000
31
0.0
0
LINE
5
46d
100
AcDbEntity
8
0-0
6
CONTINUOUS
62
3
100
AcDbLine
10
308.550000000000
20
197.080000000000
30
0.0
11
295.820000000000
21
213.580000000000
31
0.0
0
LINE
5
46e
100
AcDbEntity
8
0-0
6
CONTINUOUS
62
3
100
AcDbLine
10
308.150000000000
20
196.770000000000
30
0.0
11
295.420000000000
21
213.270000000000
31
0.0
0
LINE
5
46f
100
AcDbEntity
8
0-0
6
CONTINUOUS
62
3
100
AcDbLine
10
309.340000000000
20
196.690000000000
30
0.0
11
321.600000000000
21
196.690000000000
31
0.0
0
LINE
5
470
100
AcDbEntity
8
0-0
6
CONTINUOUS
62
3
100
AcDbLine
10
321.600000000000
20
196.190000000000
30
0.0
11
309.340000000000
21
196.190000000000
31
0.0
0
LINE
5
471
100
AcDbEntity
8
0-0
6
CONTINUOUS
62
3
100
AcDbLine
10
345.490000000000
20
214.730000000000
30
0.0
11
341.740000000000
21
216.540000000000
31
0.0
0
LINE
5
472
100
AcDbEntity
8
0-0
6
CONTINUOUS
62
3
100
AcDbLine
10
345.700000000000
20
215.180000000000
30
0.0
11
341.960000000000
21
216.990000000000
31
0.0
0
LINE
5
473
100
AcDbEntity
8
0-0
6
CONTINUOUS
62
3
100
AcDbLine
10
336.340000000000
20
200.890000000000
30
0.0
11
345.840000000000
21
213.210000000000
31
0.0
0
LINE
5
474
100
AcDbEntity
8
0-0
6
CONTINUOUS
62
3
100
AcDbLine
10
335.310000000000
20
200.530000000000
30
0.0
11
333.820000000000
21
200.890000000000
31
0.0
0
LINE
5
475
100
AcDbEntity
8
0-0
6
CONTINUOUS
62
3
100
AcDbLine
10
335.200000000000
20
200.050000000000
30
0.0
11
333.720000000000
21
200.400000000000
31
0.0
0
LINE
5
476
100
AcDbEntity
8
0-0
6
CONTINUOUS
62
3
100
AcDbLine
10
336.730000000000
20
200.590000000000
30
0.0
11
346.240000000000
21
212.910000000000
31
0.0
0
LINE
5
477
100
AcDbEntity
8
0-0
6
CONTINUOUS
62
3
100
AcDbLine
10
346.440000000000
20
229.690000000000
30
0.0
11
391.890000000000
21
229.690000000000
31
0.0
0
LINE
5
478
100
AcDbEntity
8
0-0
6
CONTINUOUS
62
3
100
AcDbLine
10
345.540000000000
20
229.120000000000
30
0.0
11
341.030000000000
21
219.650000000000
31
0.0
0
LINE
5
479
100
AcDbEntity
8
0-0
6
CONTINUOUS
62
3
100
AcDbLine
10
346.440000000000
20
230.190000000000
30
0.0
11
391.890000000000
21
230.190000000000
31
0.0
0
LINE
5
47a
100
AcDbEntity
8
0-0
6
CONTINUOUS
62
3
100
AcDbLine
10
345.090000000000
20
229.330000000000
30
0.0
11
340.580000000000
21
219.860000000000
31
0.0
0
LINE
5
47b
100
AcDbEntity
8
0-0
6
CONTINUOUS
62
3
100
AcDbLine
10
347.260000000000
20
228.200000000000
30
0.0
11
341.910000000000
21
219.180000000000
31
0.0
0
LINE
5
47c
100
AcDbEntity
8
0-0
6
CONTINUOUS
62
3
100
AcDbLine
10
348.120000000000
20
228.690000000000
30
0.0
11
354.600000000000
21
228.690000000000
31
0.0
0
LINE
5
47d
100
AcDbEntity
8
0-0
6
CONTINUOUS
62
3
100
AcDbLine
10
354.600000000000
20
229.190000000000
30
0.0
11
354.600000000000
21
228.690000000000
31
0.0
0
LINE
5
47e
100
AcDbEntity
8
0-0
6
CONTINUOUS
62
3
100
AcDbLine
10
348.120000000000
20
229.190000000000
30
0.0
11
354.600000000000
21
229.190000000000
31
0.0
0
LINE
5
47f
100
AcDbEntity
8
0-0
6
CONTINUOUS
62
3
100
AcDbLine
10
341.480000000000
20
219.430000000000
30
0.0
11
346.830000000000
21
228.450000000000
31
0.0
0
POLYLINE
5
480
100
AcDbEntity
8
0-0
6
CONTINUOUS
62
  3
100
AcDb2dPolyline
66
1
10
0.0
20
0.0
30
0.0
70
0
0
VERTEX
5
481
100
AcDbEntity
8
0-0
6
CONTINUOUS
62
  3
100
AcDbVertex
100
AcDb2dVertex
10
297.320000000000
20
213.260000000000
30
0.0
0
VERTEX
5
482
100
AcDbEntity
8
0-0
6
CONTINUOUS
62
  3
100
AcDbVertex
100
AcDb2dVertex
10
300.210000000000
20
211.000000000000
30
0.0
0
VERTEX
5
483
100
AcDbEntity
8
0-0
6
CONTINUOUS
62
  3
100
AcDbVertex
100
AcDb2dVertex
10
299.900000000000
20
210.600000000000
30
0.0
0
SEQEND
5
484
100
AcDbEntity
8
0-0
0
LINE
5
485
100
AcDbEntity
8
0-0
6
CONTINUOUS
62
3
100
AcDbLine
10
296.960000000000
20
212.910000000000
30
0.0
11
299.900000000000
21
210.600000000000
31
0.0
0
LINE
5
486
100
AcDbEntity
8
0-0
6
CONTINUOUS
62
3
100
AcDbLine
10
306.890000000000
20
201.050000000000
30
0.0
11
299.390000000000
21
214.670000000000
31
0.0
0
LINE
5
487
100
AcDbEntity
8
0-0
6
CONTINUOUS
62
3
100
AcDbLine
10
308.000000000000
20
200.560000000000
30
0.0
11
309.380000000000
21
200.890000000000
31
0.0
0
LINE
5
488
100
AcDbEntity
8
0-0
6
CONTINUOUS
62
3
100
AcDbLine
10
308.120000000000
20
200.070000000000
30
0.0
11
309.490000000000
21
200.400000000000
31
0.0
0
LINE
5
489
100
AcDbEntity
8
0-0
6
CONTINUOUS
62
3
100
AcDbLine
10
298.950000000000
20
214.430000000000
30
0.0
11
306.450000000000
21
200.810000000000
31
0.0
0
POLYLINE
5
48a
100
AcDbEntity
8
0-0
6
CONTINUOUS
62
  7
100
AcDb2dPolyline
66
1
10
0.0
20
0.0
30
0.0
70
0
0
VERTEX
5
48b
100
AcDbEntity
8
0-0
6
CONTINUOUS
62
  7
100
AcDbVertex
100
AcDb2dVertex
10
171.600000000000
20
413.760000000000
30
0.0
0
VERTEX
5
48c
100
AcDbEntity
8
0-0
6
CONTINUOUS
62
  7
100
AcDbVertex
100
AcDb2dVertex
10
196.600000000000
20
413.760000000000
30
0.0
0
VERTEX
5
48d
100
AcDbEntity
8
0-0
6
CONTINUOUS
62
  7
100
AcDbVertex
100
AcDb2dVertex
10
446.600000000000
20
413.760000000000
30
0.0
0
VERTEX
5
48e
100
AcDbEntity
8
0-0
6
CONTINUOUS
62
  7
100
AcDbVertex
100
AcDb2dVertex
10
471.600000000000
20
413.760000000000
30
0.0
0
SEQEND
5
48f
100
AcDbEntity
8
0-0
0
LINE
5
490
100
AcDbEntity
8
0-0
6
CONTINUOUS
62
7
100
AcDbLine
10
445.100000000000
20
312.610000000000
30
0.0
11
498.100000000000
21
312.610000000000
31
0.0
0
LINE
5
491
100
AcDbEntity
8
0-0
6
CONTINUOUS
62
7
100
AcDbLine
10
445.100000000000
20
312.610000000000
30
0.0
11
498.100000000000
21
312.610000000000
31
0.0
0
LINE
5
492
100
AcDbEntity
8
0-0
6
CONTINUOUS
62
7
100
AcDbLine
10
498.100000000000
20
312.610000000000
30
0.0
11
498.100000000000
21
336.190000000000
31
0.0
0
LINE
5
493
100
AcDbEntity
8
0-0
6
CONTINUOUS
62
7
100
AcDbLine
10
445.100000000000
20
312.610000000000
30
0.0
11
445.100000000000
21
336.190000000000
31
0.0
0
LINE
5
494
100
AcDbEntity
8
0-0
6
CONTINUOUS
62
7
100
AcDbLine
10
146.600000000000
20
312.610000000000
30
0.0
11
146.600000000000
21
336.190000000000
31
0.0
0
LINE
5
495
100
AcDbEntity
8
0-0
6
CONTINUOUS
62
7
100
AcDbLine
10
146.600000000000
20
312.610000000000
30
0.0
11
196.600000000000
21
312.610000000000
31
0.0
0
POLYLINE
5
496
100
AcDbEntity
8
0-0
6
CONTINUOUS
62
  7
100
AcDb2dPolyline
66
1
10
0.0
20
0.0
30
0.0
70
0
0
VERTEX
5
497
100
AcDbEntity
8
0-0
6
CONTINUOUS
62
  7
100
AcDbVertex
100
AcDb2dVertex
10
146.600000000000
20
312.610000000000
30
0.0
0
VERTEX
5
498
100
AcDbEntity
8
0-0
6
CONTINUOUS
62
  7
100
AcDbVertex
100
AcDb2dVertex
10
196.600000000000
20
312.610000000000
30
0.0
0
VERTEX
5
499
100
AcDbEntity
8
0-0
6
CONTINUOUS
62
  7
100
AcDbVertex
100
AcDb2dVertex
10
196.600000000000
20
336.190000000000
30
0.0
0
SEQEND
5
49a
100
AcDbEntity
8
0-0
0
LINE
5
49b
100
AcDbEntity
8
0-0
6
CONTINUOUS
62
7
100
AcDbLine
10
206.750000000000
20
349.690000000000
30
0.0
11
219.170000000000
21
349.690000000000
31
0.0
0
LINE
5
49c
100
AcDbEntity
8
0-0
6
CONTINUOUS
62
7
100
AcDbLine
10
219.170000000000
20
380.190000000000
30
0.0
11
219.170000000000
21
349.690000000000
31
0.0
0
LINE
5
49d
100
AcDbEntity
8
0-0
6
CONTINUOUS
62
7
100
AcDbLine
10
424.030000000000
20
380.190000000000
30
0.0
11
424.030000000000
21
346.190000000000
31
0.0
0
LINE
5
49e
100
AcDbEntity
8
0-0
6
CONTINUOUS
62
7
100
AcDbLine
10
436.460000000000
20
346.190000000000
30
0.0
11
424.030000000000
21
346.190000000000
31
0.0
0
LINE
5
49f
100
AcDbEntity
8
0-0
6
CONTINUOUS
62
3
100
AcDbLine
10
301.270000000000
20
219.220000000000
30
0.0
11
296.560000000000
21
229.120000000000
31
0.0
0
LINE
5
4a0
100
AcDbEntity
8
0-0
6
CONTINUOUS
62
3
100
AcDbLine
10
300.800000000000
20
217.890000000000
30
0.0
11
295.950000000000
21
215.540000000000
31
0.0
0
LINE
5
4a1
100
AcDbEntity
8
0-0
6
CONTINUOUS
62
3
100
AcDbLine
10
297.010000000000
20
229.330000000000
30
0.0
11
301.720000000000
21
219.430000000000
31
0.0
0
LINE
5
4a2
100
AcDbEntity
8
0-0
6
CONTINUOUS
62
3
100
AcDbLine
10
296.170000000000
20
215.090000000000
30
0.0
11
301.020000000000
21
217.440000000000
31
0.0
0
LINE
5
4a3
100
AcDbEntity
8
0-0
6
CONTINUOUS
62
3
100
AcDbLine
10
295.650000000000
20
230.190000000000
30
0.0
11
251.310000000000
21
230.190000000000
31
0.0
0
LINE
5
4a4
100
AcDbEntity
8
0-0
6
CONTINUOUS
62
3
100
AcDbLine
10
251.310000000000
20
229.690000000000
30
0.0
11
295.650000000000
21
229.690000000000
31
0.0
0
LINE
5
4a5
100
AcDbEntity
8
0-0
6
CONTINUOUS
62
7
100
AcDbLine
10
316.600000000000
20
197.090000000000
30
0.0
11
326.600000000000
21
197.090000000000
31
0.0
0
LINE
5
4a6
100
AcDbEntity
8
0-0
6
CONTINUOUS
62
7
100
AcDbLine
10
318.600000000000
20
197.590000000000
30
0.0
11
324.600000000000
21
197.590000000000
31
0.0
0
LINE
5
4a7
100
AcDbEntity
8
0-0
6
CONTINUOUS
62
7
100
AcDbLine
10
326.600000000000
20
197.090000000000
30
0.0
11
326.600000000000
21
196.690000000000
31
0.0
0
LINE
5
4a8
100
AcDbEntity
8
0-0
6
CONTINUOUS
62
7
100
AcDbLine
10
324.600000000000
20
197.590000000000
30
0.0
11
326.100000000000
21
197.090000000000
31
0.0
0
LINE
5
4a9
100
AcDbEntity
8
0-0
6
CONTINUOUS
62
7
100
AcDbLine
10
324.000000000000
20
186.210000000000
30
0.0
11
319.200000000000
21
187.010000000000
31
0.0
0
LINE
5
4aa
100
AcDbEntity
8
0-0
6
CONTINUOUS
62
7
100
AcDbLine
10
324.000000000000
20
184.610000000000
30
0.0
11
319.200000000000
21
185.410000000000
31
0.0
0
LINE
5
4ab
100
AcDbEntity
8
0-0
6
CONTINUOUS
62
7
100
AcDbLine
10
324.000000000000
20
183.010000000000
30
0.0
11
319.200000000000
21
183.810000000000
31
0.0
0
LINE
5
4ac
100
AcDbEntity
8
0-0
6
CONTINUOUS
62
7
100
AcDbLine
10
324.000000000000
20
187.810000000000
30
0.0
11
319.200000000000
21
188.610000000000
31
0.0
0
LINE
5
4ad
100
AcDbEntity
8
0-0
6
CONTINUOUS
62
7
100
AcDbLine
10
316.600000000000
20
197.090000000000
30
0.0
11
316.600000000000
21
196.690000000000
31
0.0
0
LINE
5
4ae
100
AcDbEntity
8
0-0
6
CONTINUOUS
62
7
100
AcDbLine
10
318.600000000000
20
197.590000000000
30
0.0
11
317.100000000000
21
197.090000000000
31
0.0
0
LINE
5
4af
100
AcDbEntity
8
0-0
6
CONTINUOUS
62
7
100
AcDbLine
10
324.000000000000
20
179.810000000000
30
0.0
11
319.200000000000
21
180.610000000000
31
0.0
0
LINE
5
4b0
100
AcDbEntity
8
0-0
6
CONTINUOUS
62
7
100
AcDbLine
10
324.000000000000
20
181.410000000000
30
0.0
11
319.200000000000
21
182.210000000000
31
0.0
0
LINE
5
4b1
100
AcDbEntity
8
0-0
6
CONTINUOUS
62
7
100
AcDbLine
10
324.000000000000
20
178.210000000000
30
0.0
11
319.200000000000
21
179.010000000000
31
0.0
0
POLYLINE
5
4b2
100
AcDbEntity
8
0-0
6
CONTINUOUS
62
  7
100
AcDb2dPolyline
66
1
10
0.0
20
0.0
30
0.0
70
0
0
VERTEX
5
4b3
100
AcDbEntity
8
0-0
6
CONTINUOUS
62
  7
100
AcDbVertex
100
AcDb2dVertex
10
320.800000000000
20
172.480000000000
30
0.0
0
VERTEX
5
4b4
100
AcDbEntity
8
0-0
6
CONTINUOUS
62
  7
100
AcDbVertex
100
AcDb2dVertex
10
321.600000000000
20
173.290000000000
30
0.0
0
VERTEX
5
4b5
100
AcDbEntity
8
0-0
6
CONTINUOUS
62
  7
100
AcDbVertex
100
AcDb2dVertex
10
321.060000000000
20
174.380000000000
30
0.0
0
VERTEX
5
4b6
100
AcDbEntity
8
0-0
6
CONTINUOUS
62
  7
100
AcDbVertex
100
AcDb2dVertex
10
322.280000000000
20
175.070000000000
30
0.0
0
VERTEX
5
4b7
100
AcDbEntity
8
0-0
6
CONTINUOUS
62
  7
100
AcDbVertex
100
AcDb2dVertex
10
323.600000000000
20
173.290000000000
30
0.0
0
SEQEND
5
4b8
100
AcDbEntity
8
0-0
0
LINE
5
4b9
100
AcDbEntity
8
0-0
6
CONTINUOUS
62
7
100
AcDbLine
10
316.600000000000
20
196.690000000000
30
0.0
11
326.600000000000
21
196.690000000000
31
0.0
0
LINE
5
4ba
100
AcDbEntity
8
0-0
6
CONTINUOUS
62
7
100
AcDbLine
10
324.000000000000
20
191.010000000000
30
0.0
11
319.200000000000
21
191.810000000000
31
0.0
0
LINE
5
4bb
100
AcDbEntity
8
0-0
6
CONTINUOUS
62
7
100
AcDbLine
10
324.000000000000
20
189.410000000000
30
0.0
11
319.200000000000
21
190.210000000000
31
0.0
0
LINE
5
4bc
100
AcDbEntity
8
0-0
6
CONTINUOUS
62
7
100
AcDbLine
10
324.000000000000
20
192.610000000000
30
0.0
11
319.200000000000
21
193.410000000000
31
0.0
0
LINE
5
4bd
100
AcDbEntity
8
0-0
6
CONTINUOUS
62
7
100
AcDbLine
10
196.600000000000
20
413.760000000000
30
0.0
11
196.600000000000
21
390.190000000000
31
0.0
0
LINE
5
4be
100
AcDbEntity
8
0-0
6
CONTINUOUS
62
7
100
AcDbLine
10
446.600000000000
20
413.760000000000
30
0.0
11
446.600000000000
21
390.190000000000
31
0.0
0
LINE
5
4bf
100
AcDbEntity
8
0-0
6
CONTINUOUS
62
7
100
AcDbLine
10
319.600000000000
20
173.290000000000
30
0.0
11
319.600000000000
21
196.690000000000
31
0.0
0
LINE
5
4c0
100
AcDbEntity
8
0-0
6
CONTINUOUS
62
7
100
AcDbLine
10
321.600000000000
20
171.690000000000
30
0.0
11
319.600000000000
21
173.290000000000
31
0.0
0
LINE
5
4c1
100
AcDbEntity
8
0-0
6
CONTINUOUS
62
7
100
AcDbLine
10
323.600000000000
20
173.290000000000
30
0.0
11
321.600000000000
21
171.690000000000
31
0.0
0
LINE
5
4c2
100
AcDbEntity
8
0-0
6
CONTINUOUS
62
7
100
AcDbLine
10
323.600000000000
20
173.290000000000
30
0.0
11
323.600000000000
21
196.690000000000
31
0.0
0
LINE
5
4c3
100
AcDbEntity
8
0-0
6
CONTINUOUS
62
7
100
AcDbLine
10
326.730000000000
20
189.680000000000
30
0.0
11
337.430000000000
21
171.150000000000
31
0.0
0
LINE
5
4c4
100
AcDbEntity
8
0-0
6
CONTINUOUS
62
7
100
AcDbLine
10
326.730000000000
20
189.680000000000
30
0.0
11
330.970000000000
21
185.440000000000
31
0.0
0
LINE
5
4c5
100
AcDbEntity
8
0-0
6
CONTINUOUS
62
7
100
AcDbLine
10
326.730000000000
20
189.680000000000
30
0.0
11
328.280000000000
21
183.890000000000
31
0.0
0
LINE
5
4c6
100
AcDbEntity
8
0-0
6
CONTINUOUS
62
7
100
AcDbLine
10
296.600000000000
20
253.760000000000
30
0.0
11
296.600000000000
21
240.190000000000
31
0.0
0
POLYLINE
5
4c7
100
AcDbEntity
8
0-0
6
CONTINUOUS
62
  7
100
AcDb2dPolyline
66
1
10
0.0
20
0.0
30
0.0
70
0
0
VERTEX
5
4c8
100
AcDbEntity
8
0-0
6
CONTINUOUS
62
  7
100
AcDbVertex
100
AcDb2dVertex
10
296.600000000000
20
253.760000000000
30
0.0
0
VERTEX
5
4c9
100
AcDbEntity
8
0-0
6
CONTINUOUS
62
  7
100
AcDbVertex
100
AcDb2dVertex
10
346.600000000000
20
253.760000000000
30
0.0
0
VERTEX
5
4ca
100
AcDbEntity
8
0-0
6
CONTINUOUS
62
  7
100
AcDbVertex
100
AcDb2dVertex
10
346.600000000000
20
240.190000000000
30
0.0
0
SEQEND
5
4cb
100
AcDbEntity
8
0-0
0
POLYLINE
5
4cc
100
AcDbEntity
8
0-0
6
CONTINUOUS
62
  7
100
AcDb2dPolyline
66
1
10
0.0
20
0.0
30
0.0
70
0
0
VERTEX
5
4cd
100
AcDbEntity
8
0-0
6
CONTINUOUS
62
  7
100
AcDbVertex
100
AcDb2dVertex
10
171.600000000000
20
437.340000000000
30
0.0
0
VERTEX
5
4ce
100
AcDbEntity
8
0-0
6
CONTINUOUS
62
  7
100
AcDbVertex
100
AcDb2dVertex
10
471.600000000000
20
437.340000000000
30
0.0
0
VERTEX
5
4cf
100
AcDbEntity
8
0-0
6
CONTINUOUS
62
  7
100
AcDbVertex
100
AcDb2dVertex
10
471.600000000000
20
390.190000000000
30
0.0
0
SEQEND
5
4d0
100
AcDbEntity
8
0-0
0
POLYLINE
5
4d1
100
AcDbEntity
8
F-F
6
CONTINUOUS
62
  3
100
AcDb2dPolyline
66
1
10
0.0
20
0.0
30
0.0
70
0
0
VERTEX
5
4d2
100
AcDbEntity
8
F-F
6
CONTINUOUS
62
  3
100
AcDbVertex
100
AcDb2dVertex
10
35.860000000000
20
29.550000000000
30
0.0
0
VERTEX
5
4d3
100
AcDbEntity
8
F-F
6
CONTINUOUS
62
  3
100
AcDbVertex
100
AcDb2dVertex
10
35.860000000000
20
37.550000000000
30
0.0
0
VERTEX
5
4d4
100
AcDbEntity
8
F-F
6
CONTINUOUS
62
  3
100
AcDbVertex
100
AcDb2dVertex
10
43.860000000000
20
37.550000000000
30
0.0
0
VERTEX
5
4d5
100
AcDbEntity
8
F-F
6
CONTINUOUS
62
  3
100
AcDbVertex
100
AcDb2dVertex
10
43.860000000000
20
29.550000000000
30
0.0
0
VERTEX
5
4d6
100
AcDbEntity
8
F-F
6
CONTINUOUS
62
  3
100
AcDbVertex
100
AcDb2dVertex
10
35.860000000000
20
29.550000000000
30
0.0
0
SEQEND
5
4d7
100
AcDbEntity
8
F-F
0
LINE
5
4d8
100
AcDbEntity
8
F-F
6
CONTINUOUS
62
3
100
AcDbLine
10
36.660000000000
20
30.630000000000
30
0.0
11
36.660000000000
21
36.750000000000
31
0.0
0
LINE
5
4d9
100
AcDbEntity
8
F-F
6
CONTINUOUS
62
3
100
AcDbLine
10
43.060000000000
20
30.350000000000
30
0.0
11
36.940000000000
21
30.350000000000
31
0.0
0
POLYLINE
5
4da
100
AcDbEntity
8
F-F
6
CONTINUOUS
62
  3
100
AcDb2dPolyline
66
1
10
0.0
20
0.0
30
0.0
70
0
0
VERTEX
5
4db
100
AcDbEntity
8
F-F
6
CONTINUOUS
62
  3
100
AcDbVertex
100
AcDb2dVertex
10
36.660000000000
20
36.750000000000
30
0.0
0
VERTEX
5
4dc
100
AcDbEntity
8
F-F
6
CONTINUOUS
62
  3
100
AcDbVertex
100
AcDb2dVertex
10
42.770000000000
20
36.750000000000
30
0.0
0
VERTEX
5
4dd
100
AcDbEntity
8
F-F
6
CONTINUOUS
62
  3
100
AcDbVertex
100
AcDb2dVertex
10
36.660000000000
20
30.630000000000
30
0.0
0
SEQEND
5
4de
100
AcDbEntity
8
F-F
0
LINE
5
4df
100
AcDbEntity
8
F-F
6
CONTINUOUS
62
3
100
AcDbLine
10
43.060000000000
20
36.470000000000
30
0.0
11
36.940000000000
21
30.350000000000
31
0.0
0
LINE
5
4e0
100
AcDbEntity
8
F-F
6
CONTINUOUS
62
3
100
AcDbLine
10
43.060000000000
20
36.470000000000
30
0.0
11
43.060000000000
21
30.350000000000
31
0.0
0
LINE
5
4e1
100
AcDbEntity
8
F-F
6
CONTINUOUS
62
4
100
AcDbLine
10
35.860000000000
20
37.470000000000
30
0.0
11
43.860000000000
21
37.470000000000
31
0.0
0
LINE
5
4e2
100
AcDbEntity
8
F-F
6
CONTINUOUS
62
4
100
AcDbLine
10
35.860000000000
20
37.310000000000
30
0.0
11
43.860000000000
21
37.310000000000
31
0.0
0
LINE
5
4e3
100
AcDbEntity
8
F-F
6
CONTINUOUS
62
4
100
AcDbLine
10
35.860000000000
20
37.150000000000
30
0.0
11
43.860000000000
21
37.150000000000
31
0.0
0
LINE
5
4e4
100
AcDbEntity
8
F-F
6
CONTINUOUS
62
4
100
AcDbLine
10
35.860000000000
20
36.990000000000
30
0.0
11
43.860000000000
21
36.990000000000
31
0.0
0
LINE
5
4e5
100
AcDbEntity
8
F-F
6
CONTINUOUS
62
4
100
AcDbLine
10
35.860000000000
20
36.830000000000
30
0.0
11
43.860000000000
21
36.830000000000
31
0.0
0
LINE
5
4e6
100
AcDbEntity
8
F-F
6
CONTINUOUS
62
4
100
AcDbLine
10
35.860000000000
20
30.270000000000
30
0.0
11
43.860000000000
21
30.270000000000
31
0.0
0
LINE
5
4e7
100
AcDbEntity
8
F-F
6
CONTINUOUS
62
4
100
AcDbLine
10
35.860000000000
20
30.110000000000
30
0.0
11
43.860000000000
21
30.110000000000
31
0.0
0
LINE
5
4e8
100
AcDbEntity
8
F-F
6
CONTINUOUS
62
4
100
AcDbLine
10
35.860000000000
20
29.950000000000
30
0.0
11
43.860000000000
21
29.950000000000
31
0.0
0
LINE
5
4e9
100
AcDbEntity
8
F-F
6
CONTINUOUS
62
4
100
AcDbLine
10
35.860000000000
20
29.790000000000
30
0.0
11
43.860000000000
21
29.790000000000
31
0.0
0
LINE
5
4ea
100
AcDbEntity
8
F-F
6
CONTINUOUS
62
4
100
AcDbLine
10
35.860000000000
20
29.630000000000
30
0.0
11
43.860000000000
21
29.630000000000
31
0.0
0
LINE
5
4eb
100
AcDbEntity
8
F-F
6
CONTINUOUS
62
4
100
AcDbLine
10
35.860000000000
20
30.750000000000
30
0.0
11
36.660000000000
21
30.750000000000
31
0.0
0
LINE
5
4ec
100
AcDbEntity
8
F-F
6
CONTINUOUS
62
4
100
AcDbLine
10
35.860000000000
20
30.910000000000
30
0.0
11
36.660000000000
21
30.910000000000
31
0.0
0
LINE
5
4ed
100
AcDbEntity
8
F-F
6
CONTINUOUS
62
4
100
AcDbLine
10
35.860000000000
20
31.070000000000
30
0.0
11
36.660000000000
21
31.070000000000
31
0.0
0
LINE
5
4ee
100
AcDbEntity
8
F-F
6
CONTINUOUS
62
4
100
AcDbLine
10
35.860000000000
20
31.230000000000
30
0.0
11
36.660000000000
21
31.230000000000
31
0.0
0
LINE
5
4ef
100
AcDbEntity
8
F-F
6
CONTINUOUS
62
4
100
AcDbLine
10
35.860000000000
20
31.390000000000
30
0.0
11
36.660000000000
21
31.390000000000
31
0.0
0
LINE
5
4f0
100
AcDbEntity
8
F-F
6
CONTINUOUS
62
4
100
AcDbLine
10
35.860000000000
20
31.550000000000
30
0.0
11
36.660000000000
21
31.550000000000
31
0.0
0
LINE
5
4f1
100
AcDbEntity
8
F-F
6
CONTINUOUS
62
4
100
AcDbLine
10
35.860000000000
20
31.710000000000
30
0.0
11
36.660000000000
21
31.710000000000
31
0.0
0
LINE
5
4f2
100
AcDbEntity
8
F-F
6
CONTINUOUS
62
4
100
AcDbLine
10
35.860000000000
20
31.870000000000
30
0.0
11
36.660000000000
21
31.870000000000
31
0.0
0
LINE
5
4f3
100
AcDbEntity
8
F-F
6
CONTINUOUS
62
4
100
AcDbLine
10
35.860000000000
20
32.030000000000
30
0.0
11
36.660000000000
21
32.030000000000
31
0.0
0
LINE
5
4f4
100
AcDbEntity
8
F-F
6
CONTINUOUS
62
4
100
AcDbLine
10
35.860000000000
20
32.190000000000
30
0.0
11
36.660000000000
21
32.190000000000
31
0.0
0
LINE
5
4f5
100
AcDbEntity
8
F-F
6
CONTINUOUS
62
4
100
AcDbLine
10
35.860000000000
20
32.350000000000
30
0.0
11
36.660000000000
21
32.350000000000
31
0.0
0
LINE
5
4f6
100
AcDbEntity
8
F-F
6
CONTINUOUS
62
4
100
AcDbLine
10
35.860000000000
20
32.510000000000
30
0.0
11
36.660000000000
21
32.510000000000
31
0.0
0
LINE
5
4f7
100
AcDbEntity
8
F-F
6
CONTINUOUS
62
4
100
AcDbLine
10
35.860000000000
20
32.670000000000
30
0.0
11
36.660000000000
21
32.670000000000
31
0.0
0
LINE
5
4f8
100
AcDbEntity
8
F-F
6
CONTINUOUS
62
4
100
AcDbLine
10
35.860000000000
20
32.830000000000
30
0.0
11
36.660000000000
21
32.830000000000
31
0.0
0
LINE
5
4f9
100
AcDbEntity
8
F-F
6
CONTINUOUS
62
4
100
AcDbLine
10
35.860000000000
20
32.990000000000
30
0.0
11
36.660000000000
21
32.990000000000
31
0.0
0
LINE
5
4fa
100
AcDbEntity
8
F-F
6
CONTINUOUS
62
4
100
AcDbLine
10
35.860000000000
20
33.150000000000
30
0.0
11
36.660000000000
21
33.150000000000
31
0.0
0
LINE
5
4fb
100
AcDbEntity
8
F-F
6
CONTINUOUS
62
4
100
AcDbLine
10
35.860000000000
20
33.310000000000
30
0.0
11
36.660000000000
21
33.310000000000
31
0.0
0
LINE
5
4fc
100
AcDbEntity
8
F-F
6
CONTINUOUS
62
4
100
AcDbLine
10
35.860000000000
20
33.470000000000
30
0.0
11
36.660000000000
21
33.470000000000
31
0.0
0
LINE
5
4fd
100
AcDbEntity
8
F-F
6
CONTINUOUS
62
4
100
AcDbLine
10
35.860000000000
20
33.630000000000
30
0.0
11
36.660000000000
21
33.630000000000
31
0.0
0
LINE
5
4fe
100
AcDbEntity
8
F-F
6
CONTINUOUS
62
4
100
AcDbLine
10
35.860000000000
20
33.790000000000
30
0.0
11
36.660000000000
21
33.790000000000
31
0.0
0
LINE
5
4ff
100
AcDbEntity
8
F-F
6
CONTINUOUS
62
4
100
AcDbLine
10
35.860000000000
20
33.950000000000
30
0.0
11
36.660000000000
21
33.950000000000
31
0.0
0
LINE
5
500
100
AcDbEntity
8
F-F
6
CONTINUOUS
62
4
100
AcDbLine
10
35.860000000000
20
34.110000000000
30
0.0
11
36.660000000000
21
34.110000000000
31
0.0
0
LINE
5
501
100
AcDbEntity
8
F-F
6
CONTINUOUS
62
4
100
AcDbLine
10
35.860000000000
20
34.270000000000
30
0.0
11
36.660000000000
21
34.270000000000
31
0.0
0
LINE
5
502
100
AcDbEntity
8
F-F
6
CONTINUOUS
62
4
100
AcDbLine
10
35.860000000000
20
34.430000000000
30
0.0
11
36.660000000000
21
34.430000000000
31
0.0
0
LINE
5
503
100
AcDbEntity
8
F-F
6
CONTINUOUS
62
4
100
AcDbLine
10
35.860000000000
20
34.910000000000
30
0.0
11
36.660000000000
21
34.910000000000
31
0.0
0
LINE
5
504
100
AcDbEntity
8
F-F
6
CONTINUOUS
62
4
100
AcDbLine
10
35.860000000000
20
35.390000000000
30
0.0
11
36.660000000000
21
35.390000000000
31
0.0
0
LINE
5
505
100
AcDbEntity
8
F-F
6
CONTINUOUS
62
4
100
AcDbLine
10
35.860000000000
20
35.550000000000
30
0.0
11
36.660000000000
21
35.550000000000
31
0.0
0
LINE
5
506
100
AcDbEntity
8
F-F
6
CONTINUOUS
62
4
100
AcDbLine
10
35.860000000000
20
35.710000000000
30
0.0
11
36.660000000000
21
35.710000000000
31
0.0
0
LINE
5
507
100
AcDbEntity
8
F-F
6
CONTINUOUS
62
4
100
AcDbLine
10
35.860000000000
20
35.870000000000
30
0.0
11
36.660000000000
21
35.870000000000
31
0.0
0
LINE
5
508
100
AcDbEntity
8
F-F
6
CONTINUOUS
62
4
100
AcDbLine
10
35.860000000000
20
36.670000000000
30
0.0
11
36.660000000000
21
36.670000000000
31
0.0
0
LINE
5
509
100
AcDbEntity
8
F-F
6
CONTINUOUS
62
4
100
AcDbLine
10
35.860000000000
20
36.510000000000
30
0.0
11
36.660000000000
21
36.510000000000
31
0.0
0
LINE
5
50a
100
AcDbEntity
8
F-F
6
CONTINUOUS
62
4
100
AcDbLine
10
35.860000000000
20
36.350000000000
30
0.0
11
36.660000000000
21
36.350000000000
31
0.0
0
LINE
5
50b
100
AcDbEntity
8
F-F
6
CONTINUOUS
62
4
100
AcDbLine
10
35.860000000000
20
36.190000000000
30
0.0
11
36.660000000000
21
36.190000000000
31
0.0
0
LINE
5
50c
100
AcDbEntity
8
F-F
6
CONTINUOUS
62
4
100
AcDbLine
10
35.860000000000
20
36.030000000000
30
0.0
11
36.660000000000
21
36.030000000000
31
0.0
0
LINE
5
50d
100
AcDbEntity
8
F-F
6
CONTINUOUS
62
4
100
AcDbLine
10
35.860000000000
20
35.070000000000
30
0.0
11
36.660000000000
21
35.070000000000
31
0.0
0
LINE
5
50e
100
AcDbEntity
8
F-F
6
CONTINUOUS
62
4
100
AcDbLine
10
35.860000000000
20
35.230000000000
30
0.0
11
36.660000000000
21
35.230000000000
31
0.0
0
LINE
5
50f
100
AcDbEntity
8
F-F
6
CONTINUOUS
62
4
100
AcDbLine
10
35.860000000000
20
34.750000000000
30
0.0
11
36.660000000000
21
34.750000000000
31
0.0
0
LINE
5
510
100
AcDbEntity
8
F-F
6
CONTINUOUS
62
4
100
AcDbLine
10
35.860000000000
20
34.590000000000
30
0.0
11
36.660000000000
21
34.590000000000
31
0.0
0
LINE
5
511
100
AcDbEntity
8
F-F
6
CONTINUOUS
62
4
100
AcDbLine
10
36.930000000000
20
30.910000000000
30
0.0
11
37.500000000000
21
30.910000000000
31
0.0
0
LINE
5
512
100
AcDbEntity
8
F-F
6
CONTINUOUS
62
4
100
AcDbLine
10
36.770000000000
20
30.750000000000
30
0.0
11
37.340000000000
21
30.750000000000
31
0.0
0
LINE
5
513
100
AcDbEntity
8
F-F
6
CONTINUOUS
62
4
100
AcDbLine
10
35.860000000000
20
30.590000000000
30
0.0
11
37.180000000000
21
30.590000000000
31
0.0
0
LINE
5
514
100
AcDbEntity
8
F-F
6
CONTINUOUS
62
4
100
AcDbLine
10
35.860000000000
20
30.430000000000
30
0.0
11
37.020000000000
21
30.430000000000
31
0.0
0
LINE
5
515
100
AcDbEntity
8
F-F
6
CONTINUOUS
62
4
100
AcDbLine
10
37.890000000000
20
31.870000000000
30
0.0
11
38.460000000000
21
31.870000000000
31
0.0
0
LINE
5
516
100
AcDbEntity
8
F-F
6
CONTINUOUS
62
4
100
AcDbLine
10
37.730000000000
20
31.710000000000
30
0.0
11
38.300000000000
21
31.710000000000
31
0.0
0
LINE
5
517
100
AcDbEntity
8
F-F
6
CONTINUOUS
62
4
100
AcDbLine
10
37.570000000000
20
31.550000000000
30
0.0
11
38.140000000000
21
31.550000000000
31
0.0
0
LINE
5
518
100
AcDbEntity
8
F-F
6
CONTINUOUS
62
4
100
AcDbLine
10
37.420000000000
20
31.390000000000
30
0.0
11
37.980000000000
21
31.390000000000
31
0.0
0
LINE
5
519
100
AcDbEntity
8
F-F
6
CONTINUOUS
62
4
100
AcDbLine
10
37.250000000000
20
31.230000000000
30
0.0
11
37.820000000000
21
31.230000000000
31
0.0
0
LINE
5
51a
100
AcDbEntity
8
F-F
6
CONTINUOUS
62
4
100
AcDbLine
10
37.090000000000
20
31.070000000000
30
0.0
11
37.660000000000
21
31.070000000000
31
0.0
0
LINE
5
51b
100
AcDbEntity
8
F-F
6
CONTINUOUS
62
4
100
AcDbLine
10
36.660000000000
20
36.750000000000
30
0.0
11
36.660000000000
21
36.910000000000
31
0.0
0
LINE
5
51c
100
AcDbEntity
8
F-F
6
CONTINUOUS
62
4
100
AcDbLine
10
43.060000000000
20
30.750000000000
30
0.0
11
43.860000000000
21
30.750000000000
31
0.0
0
LINE
5
51d
100
AcDbEntity
8
F-F
6
CONTINUOUS
62
4
100
AcDbLine
10
43.060000000000
20
30.910000000000
30
0.0
11
43.860000000000
21
30.910000000000
31
0.0
0
LINE
5
51e
100
AcDbEntity
8
F-F
6
CONTINUOUS
62
4
100
AcDbLine
10
43.060000000000
20
31.070000000000
30
0.0
11
43.860000000000
21
31.070000000000
31
0.0
0
LINE
5
51f
100
AcDbEntity
8
F-F
6
CONTINUOUS
62
4
100
AcDbLine
10
43.060000000000
20
31.230000000000
30
0.0
11
43.860000000000
21
31.230000000000
31
0.0
0
LINE
5
520
100
AcDbEntity
8
F-F
6
CONTINUOUS
62
4
100
AcDbLine
10
43.060000000000
20
31.390000000000
30
0.0
11
43.860000000000
21
31.390000000000
31
0.0
0
LINE
5
521
100
AcDbEntity
8
F-F
6
CONTINUOUS
62
4
100
AcDbLine
10
43.060000000000
20
31.550000000000
30
0.0
11
43.860000000000
21
31.550000000000
31
0.0
0
LINE
5
522
100
AcDbEntity
8
F-F
6
CONTINUOUS
62
4
100
AcDbLine
10
43.060000000000
20
31.710000000000
30
0.0
11
43.860000000000
21
31.710000000000
31
0.0
0
LINE
5
523
100
AcDbEntity
8
F-F
6
CONTINUOUS
62
4
100
AcDbLine
10
43.060000000000
20
31.870000000000
30
0.0
11
43.860000000000
21
31.870000000000
31
0.0
0
LINE
5
524
100
AcDbEntity
8
F-F
6
CONTINUOUS
62
4
100
AcDbLine
10
43.060000000000
20
32.030000000000
30
0.0
11
43.860000000000
21
32.030000000000
31
0.0
0
LINE
5
525
100
AcDbEntity
8
F-F
6
CONTINUOUS
62
4
100
AcDbLine
10
43.060000000000
20
32.190000000000
30
0.0
11
43.860000000000
21
32.190000000000
31
0.0
0
LINE
5
526
100
AcDbEntity
8
F-F
6
CONTINUOUS
62
4
100
AcDbLine
10
43.060000000000
20
32.350000000000
30
0.0
11
43.860000000000
21
32.350000000000
31
0.0
0
LINE
5
527
100
AcDbEntity
8
F-F
6
CONTINUOUS
62
4
100
AcDbLine
10
43.060000000000
20
32.510000000000
30
0.0
11
43.860000000000
21
32.510000000000
31
0.0
0
LINE
5
528
100
AcDbEntity
8
F-F
6
CONTINUOUS
62
4
100
AcDbLine
10
43.060000000000
20
32.670000000000
30
0.0
11
43.860000000000
21
32.670000000000
31
0.0
0
LINE
5
529
100
AcDbEntity
8
F-F
6
CONTINUOUS
62
4
100
AcDbLine
10
43.060000000000
20
32.990000000000
30
0.0
11
43.860000000000
21
32.990000000000
31
0.0
0
LINE
5
52a
100
AcDbEntity
8
F-F
6
CONTINUOUS
62
4
100
AcDbLine
10
43.060000000000
20
33.150000000000
30
0.0
11
43.860000000000
21
33.150000000000
31
0.0
0
LINE
5
52b
100
AcDbEntity
8
F-F
6
CONTINUOUS
62
4
100
AcDbLine
10
43.060000000000
20
33.310000000000
30
0.0
11
43.860000000000
21
33.310000000000
31
0.0
0
LINE
5
52c
100
AcDbEntity
8
F-F
6
CONTINUOUS
62
4
100
AcDbLine
10
43.060000000000
20
33.470000000000
30
0.0
11
43.860000000000
21
33.470000000000
31
0.0
0
LINE
5
52d
100
AcDbEntity
8
F-F
6
CONTINUOUS
62
4
100
AcDbLine
10
43.060000000000
20
33.630000000000
30
0.0
11
43.860000000000
21
33.630000000000
31
0.0
0
LINE
5
52e
100
AcDbEntity
8
F-F
6
CONTINUOUS
62
4
100
AcDbLine
10
43.060000000000
20
33.790000000000
30
0.0
11
43.860000000000
21
33.790000000000
31
0.0
0
LINE
5
52f
100
AcDbEntity
8
F-F
6
CONTINUOUS
62
4
100
AcDbLine
10
43.060000000000
20
33.950000000000
30
0.0
11
43.860000000000
21
33.950000000000
31
0.0
0
LINE
5
530
100
AcDbEntity
8
F-F
6
CONTINUOUS
62
4
100
AcDbLine
10
43.060000000000
20
34.110000000000
30
0.0
11
43.860000000000
21
34.110000000000
31
0.0
0
LINE
5
531
100
AcDbEntity
8
F-F
6
CONTINUOUS
62
4
100
AcDbLine
10
43.060000000000
20
34.270000000000
30
0.0
11
43.860000000000
21
34.270000000000
31
0.0
0
LINE
5
532
100
AcDbEntity
8
F-F
6
CONTINUOUS
62
4
100
AcDbLine
10
43.060000000000
20
34.430000000000
30
0.0
11
43.860000000000
21
34.430000000000
31
0.0
0
LINE
5
533
100
AcDbEntity
8
F-F
6
CONTINUOUS
62
4
100
AcDbLine
10
43.060000000000
20
34.910000000000
30
0.0
11
43.860000000000
21
34.910000000000
31
0.0
0
LINE
5
534
100
AcDbEntity
8
F-F
6
CONTINUOUS
62
4
100
AcDbLine
10
43.060000000000
20
35.390000000000
30
0.0
11
43.860000000000
21
35.390000000000
31
0.0
0
LINE
5
535
100
AcDbEntity
8
F-F
6
CONTINUOUS
62
4
100
AcDbLine
10
43.060000000000
20
35.550000000000
30
0.0
11
43.860000000000
21
35.550000000000
31
0.0
0
LINE
5
536
100
AcDbEntity
8
F-F
6
CONTINUOUS
62
4
100
AcDbLine
10
43.060000000000
20
35.710000000000
30
0.0
11
43.860000000000
21
35.710000000000
31
0.0
0
LINE
5
537
100
AcDbEntity
8
F-F
6
CONTINUOUS
62
4
100
AcDbLine
10
43.060000000000
20
35.870000000000
30
0.0
11
43.860000000000
21
35.870000000000
31
0.0
0
LINE
5
538
100
AcDbEntity
8
F-F
6
CONTINUOUS
62
4
100
AcDbLine
10
43.060000000000
20
36.350000000000
30
0.0
11
43.860000000000
21
36.350000000000
31
0.0
0
LINE
5
539
100
AcDbEntity
8
F-F
6
CONTINUOUS
62
4
100
AcDbLine
10
43.060000000000
20
36.190000000000
30
0.0
11
43.860000000000
21
36.190000000000
31
0.0
0
LINE
5
53a
100
AcDbEntity
8
F-F
6
CONTINUOUS
62
4
100
AcDbLine
10
43.060000000000
20
36.030000000000
30
0.0
11
43.860000000000
21
36.030000000000
31
0.0
0
LINE
5
53b
100
AcDbEntity
8
F-F
6
CONTINUOUS
62
4
100
AcDbLine
10
43.060000000000
20
35.070000000000
30
0.0
11
43.860000000000
21
35.070000000000
31
0.0
0
LINE
5
53c
100
AcDbEntity
8
F-F
6
CONTINUOUS
62
4
100
AcDbLine
10
43.060000000000
20
35.230000000000
30
0.0
11
43.860000000000
21
35.230000000000
31
0.0
0
LINE
5
53d
100
AcDbEntity
8
F-F
6
CONTINUOUS
62
4
100
AcDbLine
10
43.060000000000
20
34.750000000000
30
0.0
11
43.860000000000
21
34.750000000000
31
0.0
0
LINE
5
53e
100
AcDbEntity
8
F-F
6
CONTINUOUS
62
4
100
AcDbLine
10
43.060000000000
20
34.590000000000
30
0.0
11
43.860000000000
21
34.590000000000
31
0.0
0
LINE
5
53f
100
AcDbEntity
8
F-F
6
CONTINUOUS
62
4
100
AcDbLine
10
43.060000000000
20
30.430000000000
30
0.0
11
43.860000000000
21
30.430000000000
31
0.0
0
LINE
5
540
100
AcDbEntity
8
F-F
6
CONTINUOUS
62
4
100
AcDbLine
10
43.060000000000
20
30.590000000000
30
0.0
11
43.860000000000
21
30.590000000000
31
0.0
0
LINE
5
541
100
AcDbEntity
8
F-F
6
CONTINUOUS
62
4
100
AcDbLine
10
42.690000000000
20
36.670000000000
30
0.0
11
43.860000000000
21
36.670000000000
31
0.0
0
LINE
5
542
100
AcDbEntity
8
F-F
6
CONTINUOUS
62
4
100
AcDbLine
10
42.530000000000
20
36.510000000000
30
0.0
11
43.860000000000
21
36.510000000000
31
0.0
0
LINE
5
543
100
AcDbEntity
8
F-F
6
CONTINUOUS
62
4
100
AcDbLine
10
38.530000000000
20
32.510000000000
30
0.0
11
39.100000000000
21
32.510000000000
31
0.0
0
LINE
5
544
100
AcDbEntity
8
F-F
6
CONTINUOUS
62
4
100
AcDbLine
10
38.370000000000
20
32.350000000000
30
0.0
11
38.940000000000
21
32.350000000000
31
0.0
0
LINE
5
545
100
AcDbEntity
8
F-F
6
CONTINUOUS
62
4
100
AcDbLine
10
38.210000000000
20
32.190000000000
30
0.0
11
38.780000000000
21
32.190000000000
31
0.0
0
LINE
5
546
100
AcDbEntity
8
F-F
6
CONTINUOUS
62
4
100
AcDbLine
10
38.060000000000
20
32.030000000000
30
0.0
11
38.620000000000
21
32.030000000000
31
0.0
0
LINE
5
547
100
AcDbEntity
8
F-F
6
CONTINUOUS
62
4
100
AcDbLine
10
39.170000000000
20
33.150000000000
30
0.0
11
39.740000000000
21
33.150000000000
31
0.0
0
LINE
5
548
100
AcDbEntity
8
F-F
6
CONTINUOUS
62
4
100
AcDbLine
10
39.010000000000
20
32.990000000000
30
0.0
11
39.580000000000
21
32.990000000000
31
0.0
0
LINE
5
549
100
AcDbEntity
8
F-F
6
CONTINUOUS
62
4
100
AcDbLine
10
38.850000000000
20
32.830000000000
30
0.0
11
39.420000000000
21
32.830000000000
31
0.0
0
LINE
5
54a
100
AcDbEntity
8
F-F
6
CONTINUOUS
62
4
100
AcDbLine
10
38.690000000000
20
32.670000000000
30
0.0
11
39.260000000000
21
32.670000000000
31
0.0
0
LINE
5
54b
100
AcDbEntity
8
F-F
6
CONTINUOUS
62
4
100
AcDbLine
10
39.810000000000
20
33.790000000000
30
0.0
11
40.380000000000
21
33.790000000000
31
0.0
0
LINE
5
54c
100
AcDbEntity
8
F-F
6
CONTINUOUS
62
4
100
AcDbLine
10
39.650000000000
20
33.630000000000
30
0.0
11
40.220000000000
21
33.630000000000
31
0.0
0
LINE
5
54d
100
AcDbEntity
8
F-F
6
CONTINUOUS
62
4
100
AcDbLine
10
39.490000000000
20
33.470000000000
30
0.0
11
40.060000000000
21
33.470000000000
31
0.0
0
LINE
5
54e
100
AcDbEntity
8
F-F
6
CONTINUOUS
62
4
100
AcDbLine
10
39.330000000000
20
33.310000000000
30
0.0
11
39.900000000000
21
33.310000000000
31
0.0
0
LINE
5
54f
100
AcDbEntity
8
F-F
6
CONTINUOUS
62
4
100
AcDbLine
10
40.450000000000
20
34.430000000000
30
0.0
11
41.020000000000
21
34.430000000000
31
0.0
0
LINE
5
550
100
AcDbEntity
8
F-F
6
CONTINUOUS
62
4
100
AcDbLine
10
40.290000000000
20
34.270000000000
30
0.0
11
40.860000000000
21
34.270000000000
31
0.0
0
LINE
5
551
100
AcDbEntity
8
F-F
6
CONTINUOUS
62
4
100
AcDbLine
10
40.130000000000
20
34.110000000000
30
0.0
11
40.700000000000
21
34.110000000000
31
0.0
0
LINE
5
552
100
AcDbEntity
8
F-F
6
CONTINUOUS
62
4
100
AcDbLine
10
39.970000000000
20
33.950000000000
30
0.0
11
40.540000000000
21
33.950000000000
31
0.0
0
LINE
5
553
100
AcDbEntity
8
F-F
6
CONTINUOUS
62
4
100
AcDbLine
10
41.100000000000
20
35.070000000000
30
0.0
11
41.660000000000
21
35.070000000000
31
0.0
0
LINE
5
554
100
AcDbEntity
8
F-F
6
CONTINUOUS
62
4
100
AcDbLine
10
40.930000000000
20
34.910000000000
30
0.0
11
41.500000000000
21
34.910000000000
31
0.0
0
LINE
5
555
100
AcDbEntity
8
F-F
6
CONTINUOUS
62
4
100
AcDbLine
10
40.770000000000
20
34.750000000000
30
0.0
11
41.340000000000
21
34.750000000000
31
0.0
0
LINE
5
556
100
AcDbEntity
8
F-F
6
CONTINUOUS
62
4
100
AcDbLine
10
40.610000000000
20
34.590000000000
30
0.0
11
41.180000000000
21
34.590000000000
31
0.0
0
LINE
5
557
100
AcDbEntity
8
F-F
6
CONTINUOUS
62
4
100
AcDbLine
10
41.730000000000
20
35.710000000000
30
0.0
11
42.300000000000
21
35.710000000000
31
0.0
0
LINE
5
558
100
AcDbEntity
8
F-F
6
CONTINUOUS
62
4
100
AcDbLine
10
41.570000000000
20
35.550000000000
30
0.0
11
42.140000000000
21
35.550000000000
31
0.0
0
LINE
5
559
100
AcDbEntity
8
F-F
6
CONTINUOUS
62
4
100
AcDbLine
10
41.410000000000
20
35.390000000000
30
0.0
11
41.980000000000
21
35.390000000000
31
0.0
0
LINE
5
55a
100
AcDbEntity
8
F-F
6
CONTINUOUS
62
4
100
AcDbLine
10
41.250000000000
20
35.230000000000
30
0.0
11
41.820000000000
21
35.230000000000
31
0.0
0
LINE
5
55b
100
AcDbEntity
8
F-F
6
CONTINUOUS
62
4
100
AcDbLine
10
42.370000000000
20
36.350000000000
30
0.0
11
42.940000000000
21
36.350000000000
31
0.0
0
LINE
5
55c
100
AcDbEntity
8
F-F
6
CONTINUOUS
62
4
100
AcDbLine
10
42.210000000000
20
36.190000000000
30
0.0
11
42.780000000000
21
36.190000000000
31
0.0
0
LINE
5
55d
100
AcDbEntity
8
F-F
6
CONTINUOUS
62
4
100
AcDbLine
10
42.050000000000
20
36.030000000000
30
0.0
11
42.620000000000
21
36.030000000000
31
0.0
0
LINE
5
55e
100
AcDbEntity
8
F-F
6
CONTINUOUS
62
4
100
AcDbLine
10
41.890000000000
20
35.870000000000
30
0.0
11
42.460000000000
21
35.870000000000
31
0.0
0
LINE
5
55f
100
AcDbEntity
8
F-F
6
CONTINUOUS
62
4
100
AcDbLine
10
43.060000000000
20
32.830000000000
30
0.0
11
43.860000000000
21
32.830000000000
31
0.0
0
LINE
5
560
100
AcDbEntity
8
F-F
6
CONTINUOUS
62
2
100
AcDbLine
10
612.110000000000
20
476.210000000000
30
0.0
11
815.820000000000
21
476.210000000000
31
0.0
0
LINE
5
561
100
AcDbEntity
8
F-F
6
CONTINUOUS
62
2
100
AcDbLine
10
612.110000000000
20
571.820000000000
30
0.0
11
612.110000000000
21
476.210000000000
31
0.0
0
ARC
5
562
100
AcDbEntity
8
0-0
6
CONTINUOUS
62
3
100
AcDbCircle
10
401.310000000000
20
379.190000000000
30
0.0
40
0.499999992412
100
AcDbArc
50
90.000000000000
51
135.002014160156
0
ARC
5
563
100
AcDbEntity
8
0-0
6
CONTINUOUS
62
3
100
AcDbCircle
10
397.690000000000
20
377.690000000000
30
0.0
40
0.499999992412
100
AcDbArc
50
270.000000000000
51
315.002014160156
0
ARC
5
564
100
AcDbEntity
8
0-0
6
CONTINUOUS
62
3
100
AcDbCircle
10
401.310000000000
20
379.190000000000
30
0.0
40
0.999999984825
100
AcDbArc
50
90.000000000000
51
135.002014160156
0
ARC
5
565
100
AcDbEntity
8
0-0
6
CONTINUOUS
62
3
100
AcDbCircle
10
397.690000000000
20
377.690000000000
30
0.0
40
0.999999984825
100
AcDbArc
50
270.000000000000
51
315.002014160156
0
ARC
5
566
100
AcDbEntity
8
0-0
6
CONTINUOUS
62
3
100
AcDbCircle
10
446.610000000000
20
364.190000000000
30
0.0
40
0.999999984825
100
AcDbArc
50
115.856597900391
51
217.642669677734
0
ARC
5
567
100
AcDbEntity
8
0-0
6
CONTINUOUS
62
3
100
AcDbCircle
10
446.610000000000
20
364.190000000000
30
0.0
40
1.499999977237
100
AcDbArc
50
115.856597900391
51
217.642669677734
0
ARC
5
568
100
AcDbEntity
8
0-0
6
CONTINUOUS
62
3
100
AcDbCircle
10
445.650000000000
20
378.690000000000
30
0.0
40
0.999999984825
100
AcDbArc
50
25.465545654297
51
90.000000000000
0
ARC
5
569
100
AcDbEntity
8
0-0
6
CONTINUOUS
62
3
100
AcDbCircle
10
445.650000000000
20
378.690000000000
30
0.0
40
1.499999977237
100
AcDbArc
50
25.465545654297
51
90.000000000000
0
ARC
5
56a
100
AcDbEntity
8
0-0
6
CONTINUOUS
62
3
100
AcDbCircle
10
450.370000000000
20
368.790000000000
30
0.0
40
0.999999984825
100
AcDbArc
50
295.856597900391
51
25.469451904297
0
ARC
5
56b
100
AcDbEntity
8
0-0
6
CONTINUOUS
62
3
100
AcDbCircle
10
450.370000000000
20
368.790000000000
30
0.0
40
1.499999977237
100
AcDbArc
50
295.856597900391
51
25.469451904297
0
ARC
5
56c
100
AcDbEntity
8
0-0
6
CONTINUOUS
62
3
100
AcDbCircle
10
459.340000000000
20
347.690000000000
30
0.0
40
0.999999984825
100
AcDbArc
50
217.642669677734
51
270.000000000000
0
ARC
5
56d
100
AcDbEntity
8
0-0
6
CONTINUOUS
62
3
100
AcDbCircle
10
459.340000000000
20
347.690000000000
30
0.0
40
1.499999977237
100
AcDbArc
50
217.642669677734
51
270.000000000000
0
ARC
5
56e
100
AcDbEntity
8
0-0
6
CONTINUOUS
62
3
100
AcDbCircle
10
361.890000000000
20
379.190000000000
30
0.0
40
0.499999992412
100
AcDbArc
50
44.997985839844
51
90.000000000000
0
ARC
5
56f
100
AcDbEntity
8
0-0
6
CONTINUOUS
62
3
100
AcDbCircle
10
365.520000000000
20
377.690000000000
30
0.0
40
0.499999992412
100
AcDbArc
50
224.997985839844
51
270.000000000000
0
ARC
5
570
100
AcDbEntity
8
0-0
6
CONTINUOUS
62
3
100
AcDbCircle
10
361.890000000000
20
379.190000000000
30
0.0
40
0.999999984825
100
AcDbArc
50
44.997985839844
51
90.000000000000
0
ARC
5
571
100
AcDbEntity
8
0-0
6
CONTINUOUS
62
3
100
AcDbCircle
10
365.520000000000
20
377.690000000000
30
0.0
40
0.999999984825
100
AcDbArc
50
224.997985839844
51
270.000000000000
0
ARC
5
572
100
AcDbEntity
8
0-0
6
CONTINUOUS
62
3
100
AcDbCircle
10
241.890000000000
20
379.190000000000
30
0.0
40
0.499999992412
100
AcDbArc
50
44.997985839844
51
90.000000000000
0
ARC
5
573
100
AcDbEntity
8
0-0
6
CONTINUOUS
62
3
100
AcDbCircle
10
245.520000000000
20
377.690000000000
30
0.0
40
0.499999992412
100
AcDbArc
50
224.997985839844
51
270.000000000000
0
ARC
5
574
100
AcDbEntity
8
0-0
6
CONTINUOUS
62
3
100
AcDbCircle
10
241.890000000000
20
379.190000000000
30
0.0
40
0.999999984825
100
AcDbArc
50
44.997985839844
51
90.000000000000
0
ARC
5
575
100
AcDbEntity
8
0-0
6
CONTINUOUS
62
3
100
AcDbCircle
10
245.520000000000
20
377.690000000000
30
0.0
40
0.999999984825
100
AcDbArc
50
224.997985839844
51
270.000000000000
0
ARC
5
576
100
AcDbEntity
8
0-0
6
CONTINUOUS
62
3
100
AcDbCircle
10
281.310000000000
20
379.190000000000
30
0.0
40
0.499999992412
100
AcDbArc
50
90.000000000000
51
135.002014160156
0
ARC
5
577
100
AcDbEntity
8
0-0
6
CONTINUOUS
62
3
100
AcDbCircle
10
277.690000000000
20
377.690000000000
30
0.0
40
0.499999992412
100
AcDbArc
50
270.000000000000
51
315.002014160156
0
ARC
5
578
100
AcDbEntity
8
0-0
6
CONTINUOUS
62
3
100
AcDbCircle
10
281.310000000000
20
379.190000000000
30
0.0
40
0.999999984825
100
AcDbArc
50
90.000000000000
51
135.002014160156
0
ARC
5
579
100
AcDbEntity
8
0-0
6
CONTINUOUS
62
3
100
AcDbCircle
10
277.690000000000
20
377.690000000000
30
0.0
40
0.999999984825
100
AcDbArc
50
270.000000000000
51
315.002014160156
0
ARC
5
57a
100
AcDbEntity
8
0-0
6
CONTINUOUS
62
3
100
AcDbCircle
10
192.830000000000
20
368.790000000000
30
0.0
40
1.999999969650
100
AcDbArc
50
154.530548095703
51
-115.856597900391
0
ARC
5
57b
100
AcDbEntity
8
0-0
6
CONTINUOUS
62
3
100
AcDbCircle
10
192.830000000000
20
368.790000000000
30
0.0
40
2.499999962062
100
AcDbArc
50
154.530548095703
51
-115.856597900391
0
ARC
5
57c
100
AcDbEntity
8
0-0
6
CONTINUOUS
62
3
100
AcDbCircle
10
195.050000000000
20
363.830000000000
30
0.0
40
0.999999984825
100
AcDbArc
50
322.357330322266
51
64.143310546875
0
ARC
5
57d
100
AcDbEntity
8
0-0
6
CONTINUOUS
62
3
100
AcDbCircle
10
195.050000000000
20
363.830000000000
30
0.0
40
1.499999977237
100
AcDbArc
50
322.357330322266
51
64.143310546875
0
ARC
5
57e
100
AcDbEntity
8
0-0
6
CONTINUOUS
62
3
100
AcDbCircle
10
185.550000000000
20
351.510000000000
30
0.0
40
0.999999984825
100
AcDbArc
50
256.548980712891
51
322.357330322266
0
ARC
5
57f
100
AcDbEntity
8
0-0
6
CONTINUOUS
62
3
100
AcDbCircle
10
185.550000000000
20
351.510000000000
30
0.0
40
1.499999977237
100
AcDbArc
50
256.548980712891
51
322.357330322266
0
ARC
5
580
100
AcDbEntity
8
0-0
6
CONTINUOUS
62
3
100
AcDbCircle
10
171.600000000000
20
293.920000000000
30
0.0
40
58.264619702863
100
AcDbArc
50
77.889190673828
51
90.000000000000
0
ARC
5
581
100
AcDbEntity
8
0-0
6
CONTINUOUS
62
3
100
AcDbCircle
10
171.600000000000
20
293.920000000000
30
0.0
40
57.764617387941
100
AcDbArc
50
77.893844604492
51
90.000000000000
0
ARC
5
582
100
AcDbEntity
8
0-0
6
CONTINUOUS
62
3
100
AcDbCircle
10
196.440000000000
20
378.690000000000
30
0.0
40
0.999999984825
100
AcDbArc
50
90.000000000000
51
154.534454345703
0
ARC
5
583
100
AcDbEntity
8
0-0
6
CONTINUOUS
62
3
100
AcDbCircle
10
196.440000000000
20
378.690000000000
30
0.0
40
1.499999977237
100
AcDbArc
50
90.000000000000
51
154.534454345703
0
ARC
5
584
100
AcDbEntity
8
0-0
6
CONTINUOUS
62
3
100
AcDbCircle
10
496.590000000000
20
364.190000000000
30
0.0
40
0.999999984825
100
AcDbArc
50
322.357330322266
51
424.143402099609
0
ARC
5
585
100
AcDbEntity
8
0-0
6
CONTINUOUS
62
3
100
AcDbCircle
10
496.590000000000
20
364.190000000000
30
0.0
40
1.499999977237
100
AcDbArc
50
322.357330322266
51
424.143402099609
0
ARC
5
586
100
AcDbEntity
8
0-0
6
CONTINUOUS
62
3
100
AcDbCircle
10
492.830000000000
20
368.790000000000
30
0.0
40
0.999999984825
100
AcDbArc
50
154.530548095703
51
-115.856597900391
0
ARC
5
587
100
AcDbEntity
8
0-0
6
CONTINUOUS
62
3
100
AcDbCircle
10
492.830000000000
20
368.790000000000
30
0.0
40
1.499999977237
100
AcDbArc
50
154.530548095703
51
-115.856597900391
0
ARC
5
588
100
AcDbEntity
8
0-0
6
CONTINUOUS
62
3
100
AcDbCircle
10
483.860000000000
20
347.690000000000
30
0.0
40
0.999999984825
100
AcDbArc
50
270.000000000000
51
322.357330322266
0
ARC
5
589
100
AcDbEntity
8
0-0
6
CONTINUOUS
62
3
100
AcDbCircle
10
483.860000000000
20
347.690000000000
30
0.0
40
1.499999977237
100
AcDbArc
50
270.000000000000
51
322.357330322266
0
ARC
5
58a
100
AcDbEntity
8
0-0
6
CONTINUOUS
62
3
100
AcDbCircle
10
498.120000000000
20
377.690000000000
30
0.0
40
0.999999984825
100
AcDbArc
50
90.000000000000
51
149.320571899414
0
ARC
5
58b
100
AcDbEntity
8
0-0
6
CONTINUOUS
62
3
100
AcDbCircle
10
498.120000000000
20
377.690000000000
30
0.0
40
1.499999977237
100
AcDbArc
50
90.000000000000
51
149.320571899414
0
ARC
5
58c
100
AcDbEntity
8
0-0
6
CONTINUOUS
62
3
100
AcDbCircle
10
171.600000000000
20
293.920000000000
30
0.0
40
58.264619702863
100
AcDbArc
50
90.000000000000
51
102.110809326172
0
ARC
5
58d
100
AcDbEntity
8
0-0
6
CONTINUOUS
62
3
100
AcDbCircle
10
171.600000000000
20
293.920000000000
30
0.0
40
57.764617387941
100
AcDbArc
50
90.000000000000
51
102.106155395508
0
ARC
5
58e
100
AcDbEntity
8
0-0
6
CONTINUOUS
62
3
100
AcDbCircle
10
148.150000000000
20
363.830000000000
30
0.0
40
1.000014597283
100
AcDbArc
50
34.115234375000
51
214.115234375000
0
ARC
5
58f
100
AcDbEntity
8
0-0
6
CONTINUOUS
62
3
100
AcDbCircle
10
148.150000000000
20
363.830000000000
30
0.0
40
1.500014589695
100
AcDbArc
50
34.115234375000
51
217.395278930664
0
ARC
5
590
100
AcDbEntity
8
0-0
6
CONTINUOUS
62
3
100
AcDbCircle
10
157.770000000000
20
351.530000000000
30
0.0
40
0.999999984825
100
AcDbArc
50
208.840637207031
51
283.453781127930
0
ARC
5
591
100
AcDbEntity
8
0-0
6
CONTINUOUS
62
3
100
AcDbCircle
10
157.770000000000
20
351.530000000000
30
0.0
40
1.499999977237
100
AcDbArc
50
208.840637207031
51
283.453781127930
0
ARC
5
592
100
AcDbEntity
8
0-0
6
CONTINUOUS
62
3
100
AcDbCircle
10
346.590000000000
20
214.190000000000
30
0.0
40
0.999999984825
100
AcDbArc
50
322.357330322266
51
424.143402099609
0
ARC
5
593
100
AcDbEntity
8
0-0
6
CONTINUOUS
62
3
100
AcDbCircle
10
346.590000000000
20
214.190000000000
30
0.0
40
1.499999977237
100
AcDbArc
50
322.357330322266
51
424.143402099609
0
ARC
5
594
100
AcDbEntity
8
0-0
6
CONTINUOUS
62
3
100
AcDbCircle
10
342.830000000000
20
218.790000000000
30
0.0
40
0.999999984825
100
AcDbArc
50
154.530548095703
51
-115.856597900391
0
ARC
5
595
100
AcDbEntity
8
0-0
6
CONTINUOUS
62
3
100
AcDbCircle
10
342.830000000000
20
218.790000000000
30
0.0
40
1.499999977237
100
AcDbArc
50
154.530548095703
51
-115.856597900391
0
ARC
5
596
100
AcDbEntity
8
0-0
6
CONTINUOUS
62
3
100
AcDbCircle
10
333.860000000000
20
197.690000000000
30
0.0
40
0.999999984825
100
AcDbArc
50
270.000000000000
51
322.357330322266
0
ARC
5
597
100
AcDbEntity
8
0-0
6
CONTINUOUS
62
3
100
AcDbCircle
10
333.860000000000
20
197.690000000000
30
0.0
40
1.499999977237
100
AcDbArc
50
270.000000000000
51
322.357330322266
0
ARC
5
598
100
AcDbEntity
8
0-0
6
CONTINUOUS
62
3
100
AcDbCircle
10
309.340000000000
20
197.690000000000
30
0.0
40
0.999999984825
100
AcDbArc
50
217.642669677734
51
270.000000000000
0
ARC
5
599
100
AcDbEntity
8
0-0
6
CONTINUOUS
62
3
100
AcDbCircle
10
309.340000000000
20
197.690000000000
30
0.0
40
1.499999977237
100
AcDbArc
50
217.642669677734
51
270.000000000000
0
ARC
5
59a
100
AcDbEntity
8
0-0
6
CONTINUOUS
62
3
100
AcDbCircle
10
342.830000000000
20
218.790000000000
30
0.0
40
1.999999969650
100
AcDbArc
50
154.530548095703
51
-115.856597900391
0
ARC
5
59b
100
AcDbEntity
8
0-0
6
CONTINUOUS
62
3
100
AcDbCircle
10
342.830000000000
20
218.790000000000
30
0.0
40
2.499999962062
100
AcDbArc
50
154.530548095703
51
-115.856597900391
0
ARC
5
59c
100
AcDbEntity
8
0-0
6
CONTINUOUS
62
3
100
AcDbCircle
10
345.050000000000
20
213.830000000000
30
0.0
40
0.999999984825
100
AcDbArc
50
322.357330322266
51
64.143310546875
0
ARC
5
59d
100
AcDbEntity
8
0-0
6
CONTINUOUS
62
3
100
AcDbCircle
10
345.050000000000
20
213.830000000000
30
0.0
40
1.499999977237
100
AcDbArc
50
322.357330322266
51
64.143310546875
0
ARC
5
59e
100
AcDbEntity
8
0-0
6
CONTINUOUS
62
3
100
AcDbCircle
10
335.550000000000
20
201.510000000000
30
0.0
40
0.999999984825
100
AcDbArc
50
256.548980712891
51
322.357330322266
0
ARC
5
59f
100
AcDbEntity
8
0-0
6
CONTINUOUS
62
3
100
AcDbCircle
10
335.550000000000
20
201.510000000000
30
0.0
40
1.499999977237
100
AcDbArc
50
256.548980712891
51
322.357330322266
0
ARC
5
5a0
100
AcDbEntity
8
0-0
6
CONTINUOUS
62
3
100
AcDbCircle
10
321.600000000000
20
143.920000000000
30
0.0
40
58.264619702863
100
AcDbArc
50
77.889190673828
51
90.000000000000
0
ARC
5
5a1
100
AcDbEntity
8
0-0
6
CONTINUOUS
62
3
100
AcDbCircle
10
321.600000000000
20
143.920000000000
30
0.0
40
57.764617387941
100
AcDbArc
50
77.893844604492
51
90.000000000000
0
ARC
5
5a2
100
AcDbEntity
8
0-0
6
CONTINUOUS
62
3
100
AcDbCircle
10
346.440000000000
20
228.690000000000
30
0.0
40
0.999999984825
100
AcDbArc
50
90.000000000000
51
154.534454345703
0
ARC
5
5a3
100
AcDbEntity
8
0-0
6
CONTINUOUS
62
3
100
AcDbCircle
10
346.440000000000
20
228.690000000000
30
0.0
40
1.499999977237
100
AcDbArc
50
90.000000000000
51
154.534454345703
0
ARC
5
5a4
100
AcDbEntity
8
0-0
6
CONTINUOUS
62
3
100
AcDbCircle
10
348.120000000000
20
227.690000000000
30
0.0
40
0.999999984825
100
AcDbArc
50
90.000000000000
51
149.320571899414
0
ARC
5
5a5
100
AcDbEntity
8
0-0
6
CONTINUOUS
62
3
100
AcDbCircle
10
348.120000000000
20
227.690000000000
30
0.0
40
1.499999977237
100
AcDbArc
50
90.000000000000
51
149.320571899414
0
ARC
5
5a6
100
AcDbEntity
8
0-0
6
CONTINUOUS
62
3
100
AcDbCircle
10
321.600000000000
20
143.920000000000
30
0.0
40
58.264619702863
100
AcDbArc
50
90.000000000000
51
102.110809326172
0
ARC
5
5a7
100
AcDbEntity
8
0-0
6
CONTINUOUS
62
3
100
AcDbCircle
10
321.600000000000
20
143.920000000000
30
0.0
40
57.764617387941
100
AcDbArc
50
90.000000000000
51
102.106155395508
0
ARC
5
5a8
100
AcDbEntity
8
0-0
6
CONTINUOUS
62
3
100
AcDbCircle
10
298.150000000000
20
213.830000000000
30
0.0
40
1.000014597283
100
AcDbArc
50
34.115234375000
51
214.115234375000
0
ARC
5
5a9
100
AcDbEntity
8
0-0
6
CONTINUOUS
62
3
100
AcDbCircle
10
298.150000000000
20
213.830000000000
30
0.0
40
1.500014589695
100
AcDbArc
50
34.115234375000
51
217.395278930664
0
ARC
5
5aa
100
AcDbEntity
8
0-0
6
CONTINUOUS
62
3
100
AcDbCircle
10
307.770000000000
20
201.530000000000
30
0.0
40
0.999999984825
100
AcDbArc
50
208.840637207031
51
283.453781127930
0
ARC
5
5ab
100
AcDbEntity
8
0-0
6
CONTINUOUS
62
3
100
AcDbCircle
10
307.770000000000
20
201.530000000000
30
0.0
40
1.499999977237
100
AcDbArc
50
208.840637207031
51
283.453781127930
0
ARC
5
5ac
100
AcDbEntity
8
0-0
6
CONTINUOUS
62
3
100
AcDbCircle
10
296.610000000000
20
214.190000000000
30
0.0
40
0.999999984825
100
AcDbArc
50
115.856597900391
51
217.642669677734
0
ARC
5
5ad
100
AcDbEntity
8
0-0
6
CONTINUOUS
62
3
100
AcDbCircle
10
296.610000000000
20
214.190000000000
30
0.0
40
1.499999977237
100
AcDbArc
50
115.856597900391
51
217.642669677734
0
ARC
5
5ae
100
AcDbEntity
8
0-0
6
CONTINUOUS
62
3
100
AcDbCircle
10
295.650000000000
20
228.690000000000
30
0.0
40
0.999999984825
100
AcDbArc
50
25.465545654297
51
90.000000000000
0
ARC
5
5af
100
AcDbEntity
8
0-0
6
CONTINUOUS
62
3
100
AcDbCircle
10
295.650000000000
20
228.690000000000
30
0.0
40
1.499999977237
100
AcDbArc
50
25.465545654297
51
90.000000000000
0
ARC
5
5b0
100
AcDbEntity
8
0-0
6
CONTINUOUS
62
3
100
AcDbCircle
10
300.370000000000
20
218.790000000000
30
0.0
40
0.999999984825
100
AcDbArc
50
295.856597900391
51
25.469451904297
0
ARC
5
5b1
100
AcDbEntity
8
0-0
6
CONTINUOUS
62
3
100
AcDbCircle
10
300.370000000000
20
218.790000000000
30
0.0
40
1.499999977237
100
AcDbArc
50
295.856597900391
51
25.469451904297
0
ARC
5
5b2
100
AcDbEntity
8
0-0
6
CONTINUOUS
62
7
100
AcDbCircle
10
321.600000000000
20
195.080000000000
30
0.0
40
3.908926584980
100
AcDbArc
50
39.874282836914
51
140.126174926758
0
CIRCLE
5
5b3
100
AcDbEntity
8
F-F
6
CONTINUOUS
62
3
100
AcDbCircle
10
39.860000000000
20
33.550000000000
30
0.0
40
5.656854879605
0
CIRCLE
5
5b4
100
AcDbEntity
8
F-F
6
CONTINUOUS
62
3
100
AcDbCircle
10
39.860000000000
20
33.550000000000
30
0.0
40
6.456854635214
0
CIRCLE
5
5b5
100
AcDbEntity
8
F-F
6
CONTINUOUS
62
4
100
AcDbCircle
10
39.860000000000
20
33.550000000000
30
0.0
40
5.736855280960
0
CIRCLE
5
5b6
100
AcDbEntity
8
F-F
6
CONTINUOUS
62
4
100
AcDbCircle
10
39.860000000000
20
33.550000000000
30
0.0
40
5.896853761158
0
CIRCLE
5
5b7
100
AcDbEntity
8
F-F
6
CONTINUOUS
62
4
100
AcDbCircle
10
39.860000000000
20
33.550000000000
30
0.0
40
6.056854563867
0
CIRCLE
5
5b8
100
AcDbEntity
8
F-F
6
CONTINUOUS
62
4
100
AcDbCircle
10
39.860000000000
20
33.550000000000
30
0.0
40
6.216853431151
0
CIRCLE
5
5b9
100
AcDbEntity
8
F-F
6
CONTINUOUS
62
4
100
AcDbCircle
10
39.860000000000
20
33.550000000000
30
0.0
40
6.376853072605
0
TEXT
5
5ba
100
AcDbEntity
8
F-F
62
3
370
-3
100
AcDbText
10
266.045
20
37.876
30
0.0
40
2.461
1
変　　　　　　更　　　　　　記　　　　　　事
41
0.914
50
0.000
100
AcDbText
0
TEXT
5
5bb
100
AcDbEntity
8
F-F
62
3
370
-3
100
AcDbText
10
407.912
20
37.476
30
0.0
40
2.461
1
受領　　日附
41
0.914
50
0.000
100
AcDbText
0
TEXT
5
5bc
100
AcDbEntity
8
F-F
62
3
370
-3
100
AcDbText
10
507.021
20
22.760
30
0.0
40
2.461
1
施工者
41
0.914
50
0.000
100
AcDbText
0
TEXT
5
5bd
100
AcDbEntity
8
F-F
62
3
370
-3
100
AcDbText
10
507.021
20
37.575
30
0.0
40
2.461
1
設計者
41
0.914
50
0.000
100
AcDbText
0
TEXT
5
5be
100
AcDbEntity
8
F-F
62
3
370
-3
100
AcDbText
10
609.763
20
22.489
30
0.0
40
2.461
1
作図
41
0.914
50
0.000
100
AcDbText
0
TEXT
5
5bf
100
AcDbEntity
8
F-F
62
3
370
-3
100
AcDbText
10
645.676
20
22.754
30
0.0
40
2.461
1
図面名
41
0.914
50
0.000
100
AcDbText
0
TEXT
5
5c0
100
AcDbEntity
8
F-F
62
3
370
-3
100
AcDbText
10
609.763
20
37.303
30
0.0
40
2.461
1
日附
41
0.914
50
0.000
100
AcDbText
0
TEXT
5
5c1
100
AcDbEntity
8
F-F
62
3
370
-3
100
AcDbText
10
645.676
20
37.569
30
0.0
40
2.461
1
工事件名
41
0.914
50
0.000
100
AcDbText
0
TEXT
5
5c2
100
AcDbEntity
8
F-F
62
3
370
-3
100
AcDbText
10
620.831
20
37.178
30
0.0
40
2.461
1
年　月　日
41
0.914
50
0.000
100
AcDbText
0
TEXT
5
5c3
100
AcDbEntity
8
F-F
62
3
370
-3
100
AcDbText
10
620.831
20
22.363
30
0.0
40
2.461
1
年　月　日
41
0.914
50
0.000
100
AcDbText
0
TEXT
5
5c4
100
AcDbEntity
8
F-F
62
3
370
-3
100
AcDbText
10
771.848
20
37.569
30
0.0
40
2.461
1
設計番号
41
0.914
50
0.000
100
AcDbText
0
MTEXT
5
5c5
100
AcDbEntity
8
F-F
62
3
370
-3
100
AcDbMText
10
193.506
20
33.911
30
0.0
40
2.325
41
0.000
71
7
72
1
1
\W1.037;{\W0.747;. }　{\W0.747;.}　{\W0.747; }
7
STANDARD
11
1.00000
21
0.00000
31
0.0
0
MTEXT
5
5c6
100
AcDbEntity
8
F-F
62
3
370
-3
100
AcDbMText
10
193.506
20
28.972
30
0.0
40
2.325
41
0.000
71
7
72
1
1
\W1.037;{\W0.747;. }　{\W0.747;.}　{\W0.747; }
7
STANDARD
11
1.00000
21
0.00000
31
0.0
0
MTEXT
5
5c7
100
AcDbEntity
8
F-F
62
3
370
-3
100
AcDbMText
10
193.506
20
24.034
30
0.0
40
2.325
41
0.000
71
7
72
1
1
\W1.037;{\W0.747;. }　{\W0.747;.}　{\W0.747; }
7
STANDARD
11
1.00000
21
0.00000
31
0.0
0
MTEXT
5
5c8
100
AcDbEntity
8
F-F
62
3
370
-3
100
AcDbMText
10
193.506
20
19.096
30
0.0
40
2.325
41
0.000
71
7
72
1
1
\W1.037;{\W0.747;. }　{\W0.747;.}　{\W0.747; }
7
STANDARD
11
1.00000
21
0.00000
31
0.0
0
MTEXT
5
5c9
100
AcDbEntity
8
F-F
62
3
370
-3
100
AcDbMText
10
193.506
20
14.157
30
0.0
40
2.325
41
0.000
71
7
72
1
1
\W1.037;{\W0.747;. }　{\W0.747;.}　{\W0.747; }
7
STANDARD
11
1.00000
21
0.00000
31
0.0
0
TEXT
5
5ca
100
AcDbEntity
8
F-F
62
3
370
-3
100
AcDbText
10
517.191
20
31.187
30
0.0
40
3.282
1
　　　　　　　　　　
41
0.921
50
0.000
100
AcDbText
0
TEXT
5
5cb
100
AcDbEntity
8
F-F
62
3
370
-3
100
AcDbText
10
517.191
20
16.371
30
0.0
40
3.282
1
　　　　　　　　　　
41
0.921
50
0.000
100
AcDbText
0
TEXT
5
5cc
100
AcDbEntity
8
F-F
62
3
370
-3
100
AcDbText
10
658.923
20
31.960
30
0.0
40
3.282
1
　　　　　　　　　　　　　
41
0.921
50
0.000
100
AcDbText
0
TEXT
5
5cd
100
AcDbEntity
8
F-F
62
3
370
-3
100
AcDbText
10
189.020
20
37.844
30
0.0
40
2.461
1
年　月　日
41
0.914
50
0.000
100
AcDbText
0
TEXT
5
5ce
100
AcDbEntity
8
F-F
62
3
370
-3
100
AcDbText
10
436.498
20
37.184
30
0.0
40
2.461
1
年　　月　　日
41
0.914
50
0.000
100
AcDbText
0
MTEXT
5
5cf
100
AcDbEntity
8
F-F
62
3
370
-3
100
AcDbMText
10
442.774
20
31.699
30
0.0
40
2.325
41
0.000
71
7
72
1
1
\W1.037;{\W0.747;.}　{\W0.747; }　{\W0.747;.}
7
STANDARD
11
1.00000
21
0.00000
31
0.0
0
TEXT
5
5d0
100
AcDbEntity
8
F-F
62
3
370
-3
100
AcDbText
10
407.912
20
22.661
30
0.0
40
2.461
1
受領　　日附
41
0.914
50
0.000
100
AcDbText
0
TEXT
5
5d1
100
AcDbEntity
8
F-F
62
3
370
-3
100
AcDbText
10
436.498
20
22.369
30
0.0
40
2.461
1
年　　月　　日
41
0.914
50
0.000
100
AcDbText
0
MTEXT
5
5d2
100
AcDbEntity
8
F-F
62
3
370
-3
100
AcDbMText
10
442.774
20
16.884
30
0.0
40
2.325
41
0.000
71
7
72
1
1
\W1.037;{\W0.747;.}　{\W0.747; }　{\W0.747;.}
7
STANDARD
11
1.00000
21
0.00000
31
0.0
0
MTEXT
5
5d3
100
AcDbEntity
8
F-F
62
3
370
-3
100
AcDbMText
10
624.217
20
30.842
30
0.0
40
2.325
41
0.000
71
7
72
1
1
\W1.037;{\W0.747;.}　　{\W0.747;.}　
7
STANDARD
11
1.00000
21
0.00000
31
0.0
0
TEXT
5
5d4
100
AcDbEntity
8
F-F
62
3
370
-3
100
AcDbText
10
771.848
20
22.754
30
0.0
40
2.461
1
縮　尺
41
0.914
50
0.000
100
AcDbText
0
TEXT
5
5d5
100
AcDbEntity
8
0-0
62
3
370
-3
100
AcDbText
10
322.643
20
160.972
30
0.0
40
5.743
1
セルフドリルビス
41
0.918
50
0.000
100
AcDbText
0
TEXT
5
5d6
100
AcDbEntity
8
0-0
62
3
370
-3
100
AcDbText
10
315.413
20
439.539
30
0.0
40
6.564
41
0.658
50
0.000
1
300
72
1
11
321.994
21
438.809
31
0.0
100
AcDbText
73
1
0
TEXT
5
5d7
100
AcDbEntity
8
0-0
62
3
370
-3
100
AcDbText
10
180.163
20
415.961
30
0.0
40
6.564
41
0.540
50
0.000
1
25
72
1
11
184.550
21
415.232
31
0.0
100
AcDbText
73
1
0
TEXT
5
5d8
100
AcDbEntity
8
0-0
62
3
370
-3
100
AcDbText
10
315.413
20
415.961
30
0.0
40
6.564
41
0.586
50
0.000
1
250
72
1
11
321.994
21
415.232
31
0.0
100
AcDbText
73
1
0
TEXT
5
5d9
100
AcDbEntity
8
0-0
62
3
370
-3
100
AcDbText
10
455.163
20
415.961
30
0.0
40
6.564
41
0.540
50
0.000
1
25
72
1
11
459.550
21
415.232
31
0.0
100
AcDbText
73
1
0
TEXT
5
5da
100
AcDbEntity
8
0-0
62
3
370
-3
100
AcDbText
10
167.663
20
314.805
30
0.0
40
6.564
41
0.626
50
0.000
1
50
72
1
11
172.050
21
314.076
31
0.0
100
AcDbText
73
1
0
TEXT
5
5db
100
AcDbEntity
8
0-0
62
3
370
-3
100
AcDbText
10
467.663
20
314.805
30
0.0
40
6.564
41
0.572
50
0.000
1
53
72
1
11
472.050
21
314.076
31
0.0
100
AcDbText
73
1
0
TEXT
5
5dc
100
AcDbEntity
8
0-0
62
3
370
-3
100
AcDbText
10
216.970
20
356.498
30
0.0
40
6.564
41
0.726
50
90.000
1
30.5
72
1
11
217.699
21
365.273
31
0.0
100
AcDbText
73
1
0
TEXT
5
5dd
100
AcDbEntity
8
0-0
62
3
370
-3
100
AcDbText
10
421.837
20
359.248
30
0.0
40
6.564
41
0.597
50
90.000
1
34
72
1
11
422.567
21
363.635
31
0.0
100
AcDbText
73
1
0
TEXT
5
5de
100
AcDbEntity
8
0-0
62
3
370
-3
100
AcDbText
10
317.663
20
255.961
30
0.0
40
6.564
41
0.626
50
0.000
1
50
72
1
11
322.050
21
255.232
31
0.0
100
AcDbText
73
1
0
TEXT
5
5df
100
AcDbEntity
8
F-F
62
3
370
-3
100
AcDbText
10
783.506
20
20.823
30
0.0
40
3.282
1
Ａ１－１／１　
41
0.921
50
0.000
100
AcDbText
0
TEXT
5
5e0
100
AcDbEntity
8
F-F
62
3
370
-3
100
AcDbText
10
783.506
20
13.416
30
0.0
40
3.282
1
Ａ３－１／２　
41
0.921
50
0.000
100
AcDbText
0
TEXT
5
5e1
100
AcDbEntity
8
F-F
62
3
370
-3
100
AcDbText
10
778.734
20
30.593
30
0.0
40
4.102
1
BLW-300-01
41
0.593
50
0.000
100
AcDbText
0
TEXT
5
5e2
100
AcDbEntity
8
F-F
62
3
370
-3
100
AcDbText
10
83.334
20
14.383
30
0.0
40
3.282
1
電話（０５４）２６３－２２８０（代表）
41
0.921
50
0.000
100
AcDbText
0
TEXT
5
5e3
100
AcDbEntity
8
F-F
62
3
370
-3
100
AcDbText
10
61.385
20
30.579
30
0.0
40
6.564
1
小　池　弥　太　郎　商　店
41
0.963
50
0.000
100
AcDbText
0
TEXT
5
5e4
100
AcDbEntity
8
F-F
62
3
370
-3
100
AcDbText
10
83.332
20
21.800
30
0.0
40
3.282
1
静岡県静岡市葵区流通センター１６番
41
0.921
50
0.000
100
AcDbText
0
TEXT
5
5e5
100
AcDbEntity
8
F-F
62
3
370
-3
100
AcDbText
10
50.067
20
34.125
30
0.0
40
2.461
1
株
41
0.914
50
0.000
100
AcDbText
0
TEXT
5
5e6
100
AcDbEntity
8
F-F
62
3
370
-3
100
AcDbText
10
53.642
20
30.500
30
0.0
40
2.461
1
社
41
0.914
50
0.000
100
AcDbText
0
TEXT
5
5e7
100
AcDbEntity
8
F-F
62
3
370
-3
100
AcDbText
10
50.042
20
30.500
30
0.0
40
2.461
1
会
41
0.914
50
0.000
100
AcDbText
0
TEXT
5
5e8
100
AcDbEntity
8
F-F
62
3
370
-3
100
AcDbText
10
53.442
20
34.025
30
0.0
40
2.461
1
式
41
0.914
50
0.000
100
AcDbText
0
TEXT
5
5e9
100
AcDbEntity
8
F-F
62
3
370
-3
100
AcDbText
10
637.422
20
556.464
30
0.0
40
6.564
1
製　品　名
41
0.963
50
0.000
100
AcDbText
0
TEXT
5
5ea
100
AcDbEntity
8
F-F
62
3
370
-3
100
AcDbText
10
637.422
20
506.464
30
0.0
40
6.564
1
板幅　：　４５５ｍｍ
41
0.963
50
0.000
100
AcDbText
0
MTEXT
5
5eb
100
AcDbEntity
8
F-F
62
3
370
-3
100
AcDbMText
10
637.422
20
530.735
30
0.0
40
6.199
41
0.000
71
7
72
1
1
\W1.093;ＢＬウォール{\W0.787; }３００
7
STANDARD
11
1.00000
21
0.00000
31
0.0
0
MTEXT
5
5ec
100
AcDbEntity
8
F-F
62
3
370
-3
100
AcDbMText
10
637.422
20
518.235
30
0.0
40
6.199
41
0.000
71
7
72
1
1
\W1.093;各種鋼板　０{\W0.787;.}４ｍｍ{\W0.787; }～{\W0.787; }０{\W0.787;.}６ｍｍ
7
STANDARD
11
1.00000
21
0.00000
31
0.0
0
TEXT
5
5ed
100
AcDbEntity
8
F-F
62
3
370
-3
100
AcDbText
10
611.358
20
15.783
30
0.0
40
2.461
1
MA 2015-06-15
41
0.618
50
0.000
100
AcDbText
0
TEXT
5
5ee
100
AcDbEntity
8
F-F
62
3
370
-3
100
AcDbText
10
658.923
20
17.145
30
0.0
40
3.282
1
ＢＬウォール３００　断面図
41
0.921
50
0.000
100
AcDbText
0
POLYLINE
5
5ef
100
AcDbEntity
  8
0-0
6
CONTINUOUS
62
3
100
AcDb2dPolyline
66
1
10
0
20
0
70
1
40
0.400
41
0.400
0
VERTEX
5
5f0
100
AcDbEntity
  8
0-0
6
CONTINUOUS
62
3
100
AcDbVertex
100
AcDb2dVertex
10
171.401
20
437.341
30
0.0
42
1.000
0
VERTEX
5
5f1
100
AcDbEntity
  8
0-0
6
CONTINUOUS
62
3
100
AcDbVertex
100
AcDb2dVertex
10
171.801
20
437.341
30
0.0
42
1.000
0
SEQEND
5
5f2
100
AcDbEntity
  8
0-0
0
POLYLINE
5
5f3
100
AcDbEntity
  8
0-0
6
CONTINUOUS
62
3
100
AcDb2dPolyline
66
1
10
0
20
0
70
1
40
0.400
41
0.400
0
VERTEX
5
5f4
100
AcDbEntity
  8
0-0
6
CONTINUOUS
62
3
100
AcDbVertex
100
AcDb2dVertex
10
171.401
20
437.341
30
0.0
42
1.000
0
VERTEX
5
5f5
100
AcDbEntity
  8
0-0
6
CONTINUOUS
62
3
100
AcDbVertex
100
AcDb2dVertex
10
171.801
20
437.341
30
0.0
42
1.000
0
SEQEND
5
5f6
100
AcDbEntity
  8
0-0
0
POLYLINE
5
5f7
100
AcDbEntity
  8
0-0
6
CONTINUOUS
62
3
100
AcDb2dPolyline
66
1
10
0
20
0
70
1
40
0.400
41
0.400
0
VERTEX
5
5f8
100
AcDbEntity
  8
0-0
6
CONTINUOUS
62
3
100
AcDbVertex
100
AcDb2dVertex
10
171.401
20
437.341
30
0.0
42
1.000
0
VERTEX
5
5f9
100
AcDbEntity
  8
0-0
6
CONTINUOUS
62
3
100
AcDbVertex
100
AcDb2dVertex
10
171.801
20
437.341
30
0.0
42
1.000
0
SEQEND
5
5fa
100
AcDbEntity
  8
0-0
0
POLYLINE
5
5fb
100
AcDbEntity
  8
0-0
6
CONTINUOUS
62
3
100
AcDb2dPolyline
66
1
10
0
20
0
70
1
40
0.400
41
0.400
0
VERTEX
5
5fc
100
AcDbEntity
  8
0-0
6
CONTINUOUS
62
3
100
AcDbVertex
100
AcDb2dVertex
10
471.401
20
437.341
30
0.0
42
1.000
0
VERTEX
5
5fd
100
AcDbEntity
  8
0-0
6
CONTINUOUS
62
3
100
AcDbVertex
100
AcDb2dVertex
10
471.801
20
437.341
30
0.0
42
1.000
0
SEQEND
5
5fe
100
AcDbEntity
  8
0-0
0
POLYLINE
5
5ff
100
AcDbEntity
  8
0-0
6
CONTINUOUS
62
3
100
AcDb2dPolyline
66
1
10
0
20
0
70
1
40
0.400
41
0.400
0
VERTEX
5
600
100
AcDbEntity
  8
0-0
6
CONTINUOUS
62
3
100
AcDbVertex
100
AcDb2dVertex
10
171.401
20
413.764
30
0.0
42
1.000
0
VERTEX
5
601
100
AcDbEntity
  8
0-0
6
CONTINUOUS
62
3
100
AcDbVertex
100
AcDb2dVertex
10
171.801
20
413.764
30
0.0
42
1.000
0
SEQEND
5
602
100
AcDbEntity
  8
0-0
0
POLYLINE
5
603
100
AcDbEntity
  8
0-0
6
CONTINUOUS
62
3
100
AcDb2dPolyline
66
1
10
0
20
0
70
1
40
0.400
41
0.400
0
VERTEX
5
604
100
AcDbEntity
  8
0-0
6
CONTINUOUS
62
3
100
AcDbVertex
100
AcDb2dVertex
10
196.401
20
413.764
30
0.0
42
1.000
0
VERTEX
5
605
100
AcDbEntity
  8
0-0
6
CONTINUOUS
62
3
100
AcDbVertex
100
AcDb2dVertex
10
196.801
20
413.764
30
0.0
42
1.000
0
SEQEND
5
606
100
AcDbEntity
  8
0-0
0
POLYLINE
5
607
100
AcDbEntity
  8
0-0
6
CONTINUOUS
62
3
100
AcDb2dPolyline
66
1
10
0
20
0
70
1
40
0.400
41
0.400
0
VERTEX
5
608
100
AcDbEntity
  8
0-0
6
CONTINUOUS
62
3
100
AcDbVertex
100
AcDb2dVertex
10
446.401
20
413.764
30
0.0
42
1.000
0
VERTEX
5
609
100
AcDbEntity
  8
0-0
6
CONTINUOUS
62
3
100
AcDbVertex
100
AcDb2dVertex
10
446.801
20
413.764
30
0.0
42
1.000
0
SEQEND
5
60a
100
AcDbEntity
  8
0-0
0
POLYLINE
5
60b
100
AcDbEntity
  8
0-0
6
CONTINUOUS
62
3
100
AcDb2dPolyline
66
1
10
0
20
0
70
1
40
0.400
41
0.400
0
VERTEX
5
60c
100
AcDbEntity
  8
0-0
6
CONTINUOUS
62
3
100
AcDbVertex
100
AcDb2dVertex
10
471.401
20
413.764
30
0.0
42
1.000
0
VERTEX
5
60d
100
AcDbEntity
  8
0-0
6
CONTINUOUS
62
3
100
AcDbVertex
100
AcDb2dVertex
10
471.801
20
413.764
30
0.0
42
1.000
0
SEQEND
5
60e
100
AcDbEntity
  8
0-0
0
POLYLINE
5
60f
100
AcDbEntity
  8
0-0
6
CONTINUOUS
62
3
100
AcDb2dPolyline
66
1
10
0
20
0
70
1
40
0.400
41
0.400
0
VERTEX
5
610
100
AcDbEntity
  8
0-0
6
CONTINUOUS
62
3
100
AcDbVertex
100
AcDb2dVertex
10
497.901
20
312.608
30
0.0
42
1.000
0
VERTEX
5
611
100
AcDbEntity
  8
0-0
6
CONTINUOUS
62
3
100
AcDbVertex
100
AcDb2dVertex
10
498.301
20
312.608
30
0.0
42
1.000
0
SEQEND
5
612
100
AcDbEntity
  8
0-0
0
POLYLINE
5
613
100
AcDbEntity
  8
0-0
6
CONTINUOUS
62
3
100
AcDb2dPolyline
66
1
10
0
20
0
70
1
40
0.400
41
0.400
0
VERTEX
5
614
100
AcDbEntity
  8
0-0
6
CONTINUOUS
62
3
100
AcDbVertex
100
AcDb2dVertex
10
444.901
20
312.608
30
0.0
42
1.000
0
VERTEX
5
615
100
AcDbEntity
  8
0-0
6
CONTINUOUS
62
3
100
AcDbVertex
100
AcDb2dVertex
10
445.301
20
312.608
30
0.0
42
1.000
0
SEQEND
5
616
100
AcDbEntity
  8
0-0
0
POLYLINE
5
617
100
AcDbEntity
  8
0-0
6
CONTINUOUS
62
3
100
AcDb2dPolyline
66
1
10
0
20
0
70
1
40
0.400
41
0.400
0
VERTEX
5
618
100
AcDbEntity
  8
0-0
6
CONTINUOUS
62
3
100
AcDbVertex
100
AcDb2dVertex
10
196.401
20
312.608
30
0.0
42
1.000
0
VERTEX
5
619
100
AcDbEntity
  8
0-0
6
CONTINUOUS
62
3
100
AcDbVertex
100
AcDb2dVertex
10
196.801
20
312.608
30
0.0
42
1.000
0
SEQEND
5
61a
100
AcDbEntity
  8
0-0
0
POLYLINE
5
61b
100
AcDbEntity
  8
0-0
6
CONTINUOUS
62
3
100
AcDb2dPolyline
66
1
10
0
20
0
70
1
40
0.400
41
0.400
0
VERTEX
5
61c
100
AcDbEntity
  8
0-0
6
CONTINUOUS
62
3
100
AcDbVertex
100
AcDb2dVertex
10
146.401
20
312.608
30
0.0
42
1.000
0
VERTEX
5
61d
100
AcDbEntity
  8
0-0
6
CONTINUOUS
62
3
100
AcDbVertex
100
AcDb2dVertex
10
146.801
20
312.608
30
0.0
42
1.000
0
SEQEND
5
61e
100
AcDbEntity
  8
0-0
0
POLYLINE
5
61f
100
AcDbEntity
  8
0-0
6
CONTINUOUS
62
3
100
AcDb2dPolyline
66
1
10
0
20
0
70
1
40
0.400
41
0.400
0
VERTEX
5
620
100
AcDbEntity
  8
0-0
6
CONTINUOUS
62
3
100
AcDbVertex
100
AcDb2dVertex
10
218.967
20
380.186
30
0.0
42
1.000
0
VERTEX
5
621
100
AcDbEntity
  8
0-0
6
CONTINUOUS
62
3
100
AcDbVertex
100
AcDb2dVertex
10
219.367
20
380.186
30
0.0
42
1.000
0
SEQEND
5
622
100
AcDbEntity
  8
0-0
0
POLYLINE
5
623
100
AcDbEntity
  8
0-0
6
CONTINUOUS
62
3
100
AcDb2dPolyline
66
1
10
0
20
0
70
1
40
0.400
41
0.400
0
VERTEX
5
624
100
AcDbEntity
  8
0-0
6
CONTINUOUS
62
3
100
AcDbVertex
100
AcDb2dVertex
10
218.967
20
349.686
30
0.0
42
1.000
0
VERTEX
5
625
100
AcDbEntity
  8
0-0
6
CONTINUOUS
62
3
100
AcDbVertex
100
AcDb2dVertex
10
219.367
20
349.686
30
0.0
42
1.000
0
SEQEND
5
626
100
AcDbEntity
  8
0-0
0
POLYLINE
5
627
100
AcDbEntity
  8
0-0
6
CONTINUOUS
62
3
100
AcDb2dPolyline
66
1
10
0
20
0
70
1
40
0.400
41
0.400
0
VERTEX
5
628
100
AcDbEntity
  8
0-0
6
CONTINUOUS
62
3
100
AcDbVertex
100
AcDb2dVertex
10
423.835
20
380.186
30
0.0
42
1.000
0
VERTEX
5
629
100
AcDbEntity
  8
0-0
6
CONTINUOUS
62
3
100
AcDbVertex
100
AcDb2dVertex
10
424.235
20
380.186
30
0.0
42
1.000
0
SEQEND
5
62a
100
AcDbEntity
  8
0-0
0
POLYLINE
5
62b
100
AcDbEntity
  8
0-0
6
CONTINUOUS
62
3
100
AcDb2dPolyline
66
1
10
0
20
0
70
1
40
0.400
41
0.400
0
VERTEX
5
62c
100
AcDbEntity
  8
0-0
6
CONTINUOUS
62
3
100
AcDbVertex
100
AcDb2dVertex
10
423.835
20
346.186
30
0.0
42
1.000
0
VERTEX
5
62d
100
AcDbEntity
  8
0-0
6
CONTINUOUS
62
3
100
AcDbVertex
100
AcDb2dVertex
10
424.235
20
346.186
30
0.0
42
1.000
0
SEQEND
5
62e
100
AcDbEntity
  8
0-0
0
POLYLINE
5
62f
100
AcDbEntity
  8
0-0
6
CONTINUOUS
62
3
100
AcDb2dPolyline
66
1
10
0
20
0
70
1
40
0.400
41
0.400
0
VERTEX
5
630
100
AcDbEntity
  8
0-0
6
CONTINUOUS
62
3
100
AcDbVertex
100
AcDb2dVertex
10
296.401
20
253.764
30
0.0
42
1.000
0
VERTEX
5
631
100
AcDbEntity
  8
0-0
6
CONTINUOUS
62
3
100
AcDbVertex
100
AcDb2dVertex
10
296.801
20
253.764
30
0.0
42
1.000
0
SEQEND
5
632
100
AcDbEntity
  8
0-0
0
POLYLINE
5
633
100
AcDbEntity
  8
0-0
6
CONTINUOUS
62
3
100
AcDb2dPolyline
66
1
10
0
20
0
70
1
40
0.400
41
0.400
0
VERTEX
5
634
100
AcDbEntity
  8
0-0
6
CONTINUOUS
62
3
100
AcDbVertex
100
AcDb2dVertex
10
346.401
20
253.764
30
0.0
42
1.000
0
VERTEX
5
635
100
AcDbEntity
  8
0-0
6
CONTINUOUS
62
3
100
AcDbVertex
100
AcDb2dVertex
10
346.801
20
253.764
30
0.0
42
1.000
0
SEQEND
5
636
100
AcDbEntity
  8
0-0
0
POLYLINE
5
637
100
AcDbEntity
  8
F-F
6
CONTINUOUS
62
3
100
AcDb2dPolyline
66
1
10
0
20
0
70
1
40
0.400
41
0.400
0
VERTEX
5
638
100
AcDbEntity
  8
F-F
6
CONTINUOUS
62
3
100
AcDbVertex
100
AcDb2dVertex
10
27.179
20
571.820
30
0.0
42
1.000
0
VERTEX
5
639
100
AcDbEntity
  8
F-F
6
CONTINUOUS
62
3
100
AcDbVertex
100
AcDb2dVertex
10
27.579
20
571.820
30
0.0
42
1.000
0
SEQEND
5
63a
100
AcDbEntity
  8
F-F
0
ENDSEC
 0
SECTION
  2
OBJECTS
 0
DICTIONARY
  5
C
100
AcDbDictionary
  3
ACAD_GROUP
350
D
  3
ACAD_MLINESTYLE
350
E
 0
DICTIONARY
  5
D
102
{ACAD_REACTORS
102
}
100
AcDbDictionary
 0
DICTIONARY
  5
E
102
{ACAD_REACTORS
102
}
100
AcDbDictionary
  3
STANDARD
350
13
0
MLINESTYLE
  5
13
102
{ACAD_REACTORS
102
}
100
AcDbMlineStyle
  2
STANDARD
 70
    0
3

62
256
51
90.0
52
90.0
71
0
0
ACDBPLACEHOLDER
  5
14
102
{ACAD_REACTORS
102
}
0
ENDSEC
0
EOF
