0
SECTION
2
HEADER
9
$ACADVER
1
AC1009
9
$DWGCODEPAGE
3
ANSI_932
9
$EXTMIN
10
0.000
20
0.000
30
0.0
9
$EXTMAX
10
1682.000
20
1188.000
30
0.0
9
$LTSCALE
40
2.000
9
$PDMODE
70
0
9
$PDSIZE
40
40.0
0
ENDSEC
0
SECTION
2
TABLES
0
TABLE
2
LTYPE
70
9
0
LTYPE
5
1f4
2
CONTINUOUS
70
64
3
SolidLine
72
65
73
0
40
0.0
0
LTYPE
5
1f5
2
DOT
70
64
3
--  --  --  --  --  --  --  --     
72
65
73
2
40
3.000
49
1.000
49
-2.000
0
LTYPE
5
1f6
2
DASHED
70
64
3
----    ----    ----    ----    
72
65
73
2
40
5.000
49
2.000
49
-3.000
0
LTYPE
5
1f7
2
DASHED2
70
64
3
------  ------  ------  ------ 
72
65
73
2
40
10.000
49
4.000
49
-6.000
0
LTYPE
5
1f8
2
CENTER
70
64
3
----- - ----- - ----- - ----- - 
72
65
73
4
40
10.000
49
6.000
49
-3.000
49
1.000
49
-3.000
0
LTYPE
5
1f9
2
CENTER2
70
64
3
----------  --  ----------  -- 
72
65
73
4
40
17.000
49
12.000
49
-5.000
49
2.000
49
-5.000
0
LTYPE
5
1fa
2
PHANTOM
70
64
3
--- - - --- - - --- - - --- - -
72
65
73
6
40
13.000
49
5.000
49
-3.000
49
1.000
49
-3.000
49
1.000
49
-3.000
0
LTYPE
5
1fb
2
PHANTOM2
70
64
3
--------  -  -  --------  -  -
72
65
73
6
40
20.000
49
6.000
49
-5.000
49
2.000
49
-5.000
49
2.000
49
-5.000
0
LTYPE
5
1fc
2
HIDDEN
70
64
3
-   -   -   -   -   -   -   -   
72
65
73
2
40
3.000
49
0.500
49
-2.500
0
ENDTAB
0
TABLE
2
STYLE
70
1
0
STYLE
5
1fd
100
AcDbSymbolTableRecord
100
AcDbTextStyleTableRecord
2
STANDARD
70
0
40
0.0
41
1.0
50
0.0
71
0
42
0.0
3
txt.shx
4
extfont.shx
0
STYLE
5
1fe
100
AcDbSymbolTableRecord
100
AcDbTextStyleTableRecord
2
TATEGAKI
70
4
40
0.0
41
1.0
50
0.0
71
0
42
0.0
3
txt.shx
4
extfont.shx
0
STYLE
5
1ff
100
AcDbSymbolTableRecord
100
AcDbTextStyleTableRecord
2
DIM
70
0
40
0.0
41
0.75
50
0.0
71
0
42
0.0
3
txt.shx
4
extfont.shx
0
STYLE
5
200
100
AcDbSymbolTableRecord
100
AcDbTextStyleTableRecord
2
_Gothic__
70
0
40
0.0
41
1.0
50
0.0
71
0
42
0.0
3
MS Gothic
4

0
STYLE
5
201
100
AcDbSymbolTableRecord
100
AcDbTextStyleTableRecord
2
_TateGothic_
70
4
40
0.0
41
1.0
50
0.0
71
0
42
0.0
3
@MS Gothic
4

0
ENDTAB
0
TABLE
2
LAYER
5
403
100
AcDbSymbolTable
70
10
0
LAYER
5
404
100
AcDbSymbolTableRecord
100
AcDbLayerTableRecord
2
0-000
70
0
62
7
6
CONTINUOUS
0
LAYER
5
405
100
AcDbSymbolTableRecord
100
AcDbLayerTableRecord
2
0-101
70
0
62
7
6
CONTINUOUS
0
LAYER
5
406
100
AcDbSymbolTableRecord
100
AcDbLayerTableRecord
2
0-202
70
0
62
7
6
CONTINUOUS
0
LAYER
5
407
100
AcDbSymbolTableRecord
100
AcDbLayerTableRecord
2
0-303
70
0
62
7
6
CONTINUOUS
0
LAYER
5
408
100
AcDbSymbolTableRecord
100
AcDbLayerTableRecord
2
0-404
70
0
62
7
6
CONTINUOUS
0
LAYER
5
409
100
AcDbSymbolTableRecord
100
AcDbLayerTableRecord
2
0-505
70
0
62
7
6
CONTINUOUS
0
LAYER
5
40a
100
AcDbSymbolTableRecord
100
AcDbLayerTableRecord
2
0-606
70
0
62
7
6
CONTINUOUS
0
LAYER
5
40b
100
AcDbSymbolTableRecord
100
AcDbLayerTableRecord
2
0-808
70
0
62
7
6
CONTINUOUS
0
LAYER
5
40c
100
AcDbSymbolTableRecord
100
AcDbLayerTableRecord
2
F-F_J_ADD
70
0
62
-7
6
CONTINUOUS
0
ENDTAB
0
ENDSEC
0
SECTION
2
ENTITIES
0
LINE
5
40d
100
AcDbEntity
8
0-303
6
CONTINUOUS
62
3
100
AcDbLine
10
872.130000000000
20
274.250000000000
30
0.0
11
826.730000000000
21
274.250000000000
31
0.0
0
LINE
5
40e
100
AcDbEntity
8
0-303
6
CONTINUOUS
62
3
100
AcDbLine
10
872.130000000000
20
274.250000000000
30
0.0
11
872.130000000000
21
274.250000000000
31
0.0
0
LINE
5
40f
100
AcDbEntity
8
0-303
6
CONTINUOUS
62
3
100
AcDbLine
10
824.430000000000
20
369.650000000000
30
0.0
11
824.430000000000
21
274.250000000000
31
0.0
0
LINE
5
410
100
AcDbEntity
8
0-303
6
CONTINUOUS
62
3
100
AcDbLine
10
826.730000000000
20
274.250000000000
30
0.0
11
826.730000000000
21
369.650000000000
31
0.0
0
LINE
5
411
100
AcDbEntity
8
0-303
6
CONTINUOUS
62
3
100
AcDbLine
10
872.130000000000
20
371.950000000000
30
0.0
11
826.730000000000
21
371.950000000000
31
0.0
0
LINE
5
412
100
AcDbEntity
8
0-303
6
CONTINUOUS
62
3
100
AcDbLine
10
826.730000000000
20
369.650000000000
30
0.0
11
872.130000000000
21
369.650000000000
31
0.0
0
LINE
5
413
100
AcDbEntity
8
0-303
6
CONTINUOUS
62
3
100
AcDbLine
10
874.430000000000
20
351.950000000000
30
0.0
11
874.430000000000
21
369.650000000000
31
0.0
0
LINE
5
414
100
AcDbEntity
8
0-303
6
CONTINUOUS
62
3
100
AcDbLine
10
872.130000000000
20
369.650000000000
30
0.0
11
872.130000000000
21
351.950000000000
31
0.0
0
LINE
5
415
100
AcDbEntity
8
0-303
6
CONTINUOUS
62
3
100
AcDbLine
10
872.130000000000
20
351.950000000000
30
0.0
11
874.430000000000
21
351.950000000000
31
0.0
0
LINE
5
416
100
AcDbEntity
8
0-303
6
CONTINUOUS
62
3
100
AcDbLine
10
872.130000000000
20
291.950000000000
30
0.0
11
872.130000000000
21
274.250000000000
31
0.0
0
LINE
5
417
100
AcDbEntity
8
0-303
6
CONTINUOUS
62
3
100
AcDbLine
10
874.430000000000
20
274.250000000000
30
0.0
11
874.430000000000
21
291.950000000000
31
0.0
0
LINE
5
418
100
AcDbEntity
8
0-303
6
CONTINUOUS
62
3
100
AcDbLine
10
874.430000000000
20
291.950000000000
30
0.0
11
872.130000000000
21
291.950000000000
31
0.0
0
LINE
5
419
100
AcDbEntity
8
0-303
6
CONTINUOUS
62
3
100
AcDbLine
10
826.730000000000
20
271.950000000000
30
0.0
11
872.130000000000
21
271.950000000000
31
0.0
0
LINE
5
41a
100
AcDbEntity
8
0-303
6
CONTINUOUS
62
3
100
AcDbLine
10
754.430000000000
20
396.950000000000
30
0.0
11
754.430000000000
21
371.950000000000
31
0.0
0
LINE
5
41b
100
AcDbEntity
8
0-303
6
CONTINUOUS
62
7
100
AcDbLine
10
754.630000000000
20
356.440000000000
30
0.0
11
755.230000000000
21
356.440000000000
31
0.0
0
LINE
5
41c
100
AcDbEntity
8
0-303
6
CONTINUOUS
62
7
100
AcDbLine
10
755.830000000000
20
356.380000000000
30
0.0
11
755.830000000000
21
364.950000000000
31
0.0
0
LINE
5
41d
100
AcDbEntity
8
0-303
6
CONTINUOUS
62
7
100
AcDbLine
10
755.830000000000
20
364.950000000000
30
0.0
11
756.430000000000
21
364.950000000000
31
0.0
0
LINE
5
41e
100
AcDbEntity
8
0-303
6
CONTINUOUS
62
7
100
AcDbLine
10
756.430000000000
20
364.950000000000
30
0.0
11
756.430000000000
21
356.440000000000
31
0.0
0
LINE
5
41f
100
AcDbEntity
8
0-303
6
CONTINUOUS
62
7
100
AcDbLine
10
803.280000000000
20
398.740000000000
30
0.0
11
803.280000000000
21
398.140000000000
31
0.0
0
LINE
5
420
100
AcDbEntity
8
0-303
6
CONTINUOUS
62
7
100
AcDbLine
10
747.430000000000
20
394.650000000000
30
0.0
11
737.290000000000
21
394.650000000000
31
0.0
0
LINE
5
421
100
AcDbEntity
8
0-303
6
CONTINUOUS
62
7
100
AcDbLine
10
747.430000000000
20
394.650000000000
30
0.0
11
747.430000000000
21
394.050000000000
31
0.0
0
LINE
5
422
100
AcDbEntity
8
0-303
6
CONTINUOUS
62
7
100
AcDbLine
10
747.430000000000
20
394.050000000000
30
0.0
11
737.290000000000
21
394.050000000000
31
0.0
0
LINE
5
423
100
AcDbEntity
8
0-303
6
CONTINUOUS
62
7
100
AcDbLine
10
818.540000000000
20
396.950000000000
30
0.0
11
742.290000000000
21
397.580000000000
31
0.0
0
LINE
5
424
100
AcDbEntity
8
0-303
6
CONTINUOUS
62
7
100
AcDbLine
10
742.290000000000
20
398.190000000000
30
0.0
11
818.540000000000
21
397.550000000000
31
0.0
0
LINE
5
425
100
AcDbEntity
8
0-303
6
DASHED
62
7
100
AcDbLine
10
819.830000000000
20
399.350000000000
30
0.0
11
823.990000000000
21
397.950000000000
31
0.0
0
LINE
5
426
100
AcDbEntity
8
0-303
6
DASHED
62
7
100
AcDbLine
10
801.040000000000
20
398.740000000000
30
0.0
11
742.290000000000
21
398.740000000000
31
0.0
0
LINE
5
427
100
AcDbEntity
8
0-303
6
DASHED
62
7
100
AcDbLine
10
802.840000000000
20
399.340000000000
30
0.0
11
801.040000000000
21
398.740000000000
31
0.0
0
LINE
5
428
100
AcDbEntity
8
0-303
6
CONTINUOUS
62
7
100
AcDbLine
10
803.280000000000
20
398.740000000000
30
0.0
11
818.540000000000
21
398.740000000000
31
0.0
0
LINE
5
429
100
AcDbEntity
8
0-303
6
CONTINUOUS
62
7
100
AcDbLine
10
818.540000000000
20
398.150000000000
30
0.0
11
803.280000000000
21
398.150000000000
31
0.0
0
LINE
5
42a
100
AcDbEntity
8
0-303
6
DASHED
62
7
100
AcDbLine
10
802.840000000000
20
399.340000000000
30
0.0
11
819.830000000000
21
399.340000000000
31
0.0
0
LINE
5
42b
100
AcDbEntity
8
0-303
6
CONTINUOUS
62
7
100
AcDbLine
10
753.430000000000
20
356.330000000000
30
0.0
11
753.430000000000
21
395.190000000000
31
0.0
0
LINE
5
42c
100
AcDbEntity
8
0-303
6
CONTINUOUS
62
7
100
AcDbLine
10
754.030000000000
20
395.190000000000
30
0.0
11
754.030000000000
21
356.440000000000
31
0.0
0
LINE
5
42d
100
AcDbEntity
8
0-303
6
CONTINUOUS
62
7
100
AcDbLine
10
753.430000000000
20
395.790000000000
30
0.0
11
737.290000000000
21
395.790000000000
31
0.0
0
LINE
5
42e
100
AcDbEntity
8
0-303
6
CONTINUOUS
62
7
100
AcDbLine
10
737.290000000000
20
397.580000000000
30
0.0
11
742.290000000000
21
397.580000000000
31
0.0
0
LINE
5
42f
100
AcDbEntity
8
0-303
6
CONTINUOUS
62
7
100
AcDbLine
10
742.290000000000
20
398.190000000000
30
0.0
11
737.290000000000
21
398.180000000000
31
0.0
0
LINE
5
430
100
AcDbEntity
8
0-303
6
CONTINUOUS
62
7
100
AcDbLine
10
753.430000000000
20
395.190000000000
30
0.0
11
737.290000000000
21
395.190000000000
31
0.0
0
LINE
5
431
100
AcDbEntity
8
0-303
6
CONTINUOUS
62
7
100
AcDbLine
10
737.280000000000
20
399.770000000000
30
0.0
11
742.260000000000
21
399.770000000000
31
0.0
0
LINE
5
432
100
AcDbEntity
8
0-303
6
CONTINUOUS
62
7
100
AcDbLine
10
755.230000000000
20
356.440000000000
30
0.0
11
755.230000000000
21
370.950000000000
31
0.0
0
LINE
5
433
100
AcDbEntity
8
0-303
6
CONTINUOUS
62
7
100
AcDbLine
10
754.630000000000
20
370.950000000000
30
0.0
11
754.630000000000
21
356.440000000000
31
0.0
0
LINE
5
434
100
AcDbEntity
8
0-303
6
CONTINUOUS
62
7
100
AcDbLine
10
804.430000000000
20
369.650000000000
30
0.0
11
804.430000000000
21
197.180000000000
31
0.0
0
LINE
5
435
100
AcDbEntity
8
0-303
6
CONTINUOUS
62
7
100
AcDbLine
10
737.280000000000
20
399.170000000000
30
0.0
11
742.280000000000
21
399.170000000000
31
0.0
0
LINE
5
436
100
AcDbEntity
8
0-303
6
CONTINUOUS
62
7
100
AcDbLine
10
755.230000000000
20
370.950000000000
30
0.0
11
802.230000000000
21
370.950000000000
31
0.0
0
LINE
5
437
100
AcDbEntity
8
0-303
6
CONTINUOUS
62
7
100
AcDbLine
10
802.230000000000
20
371.550000000000
30
0.0
11
755.230000000000
21
371.550000000000
31
0.0
0
LINE
5
438
100
AcDbEntity
8
0-303
6
CONTINUOUS
62
7
100
AcDbLine
10
802.230000000000
20
321.950000000000
30
0.0
11
802.230000000000
21
370.950000000000
31
0.0
0
LINE
5
439
100
AcDbEntity
8
0-303
6
CONTINUOUS
62
7
100
AcDbLine
10
802.830000000000
20
370.950000000000
30
0.0
11
802.830000000000
21
321.950000000000
31
0.0
0
LINE
5
43a
100
AcDbEntity
8
0-303
6
CONTINUOUS
62
7
100
AcDbLine
10
803.430000000000
20
321.950000000000
30
0.0
11
803.430000000000
21
331.950000000000
31
0.0
0
LINE
5
43b
100
AcDbEntity
8
0-303
6
CONTINUOUS
62
7
100
AcDbLine
10
803.430000000000
20
331.950000000000
30
0.0
11
804.030000000000
21
331.950000000000
31
0.0
0
LINE
5
43c
100
AcDbEntity
8
0-303
6
CONTINUOUS
62
7
100
AcDbLine
10
804.030000000000
20
331.950000000000
30
0.0
11
804.030000000000
21
321.950000000000
31
0.0
0
LINE
5
43d
100
AcDbEntity
8
0-303
6
CONTINUOUS
62
3
100
AcDbLine
10
951.710000000000
20
371.950000000000
30
0.0
11
754.430000000000
21
371.950000000000
31
0.0
0
LINE
5
43e
100
AcDbEntity
8
0-303
6
CONTINUOUS
62
7
100
AcDbLine
10
819.430000000000
20
369.650000000000
30
0.0
11
804.430000000000
21
369.650000000000
31
0.0
0
LINE
5
43f
100
AcDbEntity
8
0-303
6
CONTINUOUS
62
7
100
AcDbLine
10
819.430000000000
20
369.650000000000
30
0.0
11
819.430000000000
21
197.180000000000
31
0.0
0
LINE
5
440
100
AcDbEntity
8
0-303
6
DASHED
62
7
100
AcDbLine
10
951.710000000000
20
397.950000000000
30
0.0
11
823.990000000000
21
397.950000000000
31
0.0
0
LINE
5
441
100
AcDbEntity
8
0-303
6
CONTINUOUS
62
4
100
AcDbLine
10
943.250000000000
20
371.950000000000
30
0.0
11
951.710000000000
21
380.420000000000
31
0.0
0
LINE
5
442
100
AcDbEntity
8
0-303
6
CONTINUOUS
62
4
100
AcDbLine
10
914.960000000000
20
371.950000000000
30
0.0
11
939.960000000000
21
396.950000000000
31
0.0
0
LINE
5
443
100
AcDbEntity
8
0-303
6
CONTINUOUS
62
4
100
AcDbLine
10
886.680000000000
20
371.950000000000
30
0.0
11
911.680000000000
21
396.950000000000
31
0.0
0
LINE
5
444
100
AcDbEntity
8
0-303
6
CONTINUOUS
62
4
100
AcDbLine
10
858.390000000000
20
371.950000000000
30
0.0
11
883.390000000000
21
396.950000000000
31
0.0
0
LINE
5
445
100
AcDbEntity
8
0-303
6
CONTINUOUS
62
4
100
AcDbLine
10
830.110000000000
20
371.950000000000
30
0.0
11
855.110000000000
21
396.950000000000
31
0.0
0
LINE
5
446
100
AcDbEntity
8
0-303
6
CONTINUOUS
62
4
100
AcDbLine
10
801.830000000000
20
371.950000000000
30
0.0
11
826.830000000000
21
396.950000000000
31
0.0
0
LINE
5
447
100
AcDbEntity
8
0-303
6
CONTINUOUS
62
4
100
AcDbLine
10
773.540000000000
20
371.950000000000
30
0.0
11
798.540000000000
21
396.950000000000
31
0.0
0
LINE
5
448
100
AcDbEntity
8
0-303
6
CONTINUOUS
62
4
100
AcDbLine
10
754.430000000000
20
381.130000000000
30
0.0
11
770.260000000000
21
396.950000000000
31
0.0
0
LINE
5
449
100
AcDbEntity
8
0-303
6
CONTINUOUS
62
4
100
AcDbLine
10
757.530000000000
20
396.950000000000
30
0.0
11
782.530000000000
21
371.950000000000
31
0.0
0
LINE
5
44a
100
AcDbEntity
8
0-303
6
CONTINUOUS
62
4
100
AcDbLine
10
785.810000000000
20
396.950000000000
30
0.0
11
810.810000000000
21
371.950000000000
31
0.0
0
LINE
5
44b
100
AcDbEntity
8
0-303
6
CONTINUOUS
62
4
100
AcDbLine
10
814.100000000000
20
396.950000000000
30
0.0
11
839.100000000000
21
371.950000000000
31
0.0
0
LINE
5
44c
100
AcDbEntity
8
0-303
6
CONTINUOUS
62
4
100
AcDbLine
10
842.380000000000
20
396.950000000000
30
0.0
11
867.380000000000
21
371.950000000000
31
0.0
0
LINE
5
44d
100
AcDbEntity
8
0-303
6
CONTINUOUS
62
4
100
AcDbLine
10
870.660000000000
20
396.950000000000
30
0.0
11
895.660000000000
21
371.950000000000
31
0.0
0
LINE
5
44e
100
AcDbEntity
8
0-303
6
CONTINUOUS
62
4
100
AcDbLine
10
898.950000000000
20
396.950000000000
30
0.0
11
923.950000000000
21
371.950000000000
31
0.0
0
LINE
5
44f
100
AcDbEntity
8
0-303
6
CONTINUOUS
62
4
100
AcDbLine
10
927.230000000000
20
396.950000000000
30
0.0
11
951.710000000000
21
372.470000000000
31
0.0
0
LINE
5
450
100
AcDbEntity
8
0-303
6
CONTINUOUS
62
3
100
AcDbLine
10
951.710000000000
20
396.950000000000
30
0.0
11
754.430000000000
21
396.950000000000
31
0.0
0
LINE
5
451
100
AcDbEntity
8
0-303
6
CONTINUOUS
62
4
100
AcDbLine
10
804.430000000000
20
203.440000000000
30
0.0
11
819.430000000000
21
218.440000000000
31
0.0
0
LINE
5
452
100
AcDbEntity
8
0-303
6
CONTINUOUS
62
4
100
AcDbLine
10
804.430000000000
20
206.270000000000
30
0.0
11
819.430000000000
21
221.270000000000
31
0.0
0
LINE
5
453
100
AcDbEntity
8
0-303
6
CONTINUOUS
62
4
100
AcDbLine
10
804.430000000000
20
231.720000000000
30
0.0
11
819.430000000000
21
246.720000000000
31
0.0
0
LINE
5
454
100
AcDbEntity
8
0-303
6
CONTINUOUS
62
4
100
AcDbLine
10
804.430000000000
20
234.550000000000
30
0.0
11
819.430000000000
21
249.550000000000
31
0.0
0
LINE
5
455
100
AcDbEntity
8
0-303
6
CONTINUOUS
62
4
100
AcDbLine
10
804.430000000000
20
260.010000000000
30
0.0
11
819.430000000000
21
275.010000000000
31
0.0
0
LINE
5
456
100
AcDbEntity
8
0-303
6
CONTINUOUS
62
4
100
AcDbLine
10
804.430000000000
20
262.840000000000
30
0.0
11
819.430000000000
21
277.840000000000
31
0.0
0
LINE
5
457
100
AcDbEntity
8
0-303
6
CONTINUOUS
62
4
100
AcDbLine
10
804.430000000000
20
288.290000000000
30
0.0
11
819.430000000000
21
303.290000000000
31
0.0
0
LINE
5
458
100
AcDbEntity
8
0-303
6
CONTINUOUS
62
4
100
AcDbLine
10
804.430000000000
20
291.120000000000
30
0.0
11
819.430000000000
21
306.120000000000
31
0.0
0
LINE
5
459
100
AcDbEntity
8
0-303
6
CONTINUOUS
62
4
100
AcDbLine
10
804.430000000000
20
316.580000000000
30
0.0
11
819.430000000000
21
331.580000000000
31
0.0
0
LINE
5
45a
100
AcDbEntity
8
0-303
6
CONTINUOUS
62
4
100
AcDbLine
10
804.430000000000
20
319.410000000000
30
0.0
11
819.430000000000
21
334.410000000000
31
0.0
0
LINE
5
45b
100
AcDbEntity
8
0-303
6
CONTINUOUS
62
4
100
AcDbLine
10
804.430000000000
20
344.860000000000
30
0.0
11
819.430000000000
21
359.860000000000
31
0.0
0
LINE
5
45c
100
AcDbEntity
8
0-303
6
CONTINUOUS
62
4
100
AcDbLine
10
804.430000000000
20
347.690000000000
30
0.0
11
819.430000000000
21
362.690000000000
31
0.0
0
LINE
5
45d
100
AcDbEntity
8
0-303
6
CONTINUOUS
62
3
100
AcDbLine
10
879.430000000000
20
371.950000000000
30
0.0
11
879.430000000000
21
271.950000000000
31
0.0
0
LINE
5
45e
100
AcDbEntity
8
0-303
6
CONTINUOUS
62
3
100
AcDbLine
10
879.430000000000
20
351.950000000000
30
0.0
11
951.710000000000
21
351.950000000000
31
0.0
0
LINE
5
45f
100
AcDbEntity
8
0-303
6
CONTINUOUS
62
3
100
AcDbLine
10
879.430000000000
20
291.950000000000
30
0.0
11
951.710000000000
21
291.950000000000
31
0.0
0
LINE
5
460
100
AcDbEntity
8
0-303
6
CONTINUOUS
62
3
100
AcDbLine
10
879.430000000000
20
271.950000000000
30
0.0
11
951.710000000000
21
271.950000000000
31
0.0
0
LINE
5
461
100
AcDbEntity
8
0-303
6
CONTINUOUS
62
4
100
AcDbLine
10
734.430000000000
20
427.780000000000
30
0.0
11
734.430000000000
21
444.540000000000
31
0.0
0
LINE
5
462
100
AcDbEntity
8
0-303
6
CONTINUOUS
62
4
100
AcDbLine
10
866.930000000000
20
427.780000000000
30
0.0
11
866.930000000000
21
444.540000000000
31
0.0
0
LINE
5
463
100
AcDbEntity
8
0-303
6
CENTER2
62
4
100
AcDbLine
10
866.930000000000
20
380.810000000000
30
0.0
11
866.930000000000
21
427.780000000000
31
0.0
0
LINE
5
464
100
AcDbEntity
8
0-303
6
CONTINUOUS
62
7
100
AcDbLine
10
884.050000000000
20
401.050000000000
30
0.0
11
885.120000000000
21
405.050000000000
31
0.0
0
LINE
5
465
100
AcDbEntity
8
0-303
6
CONTINUOUS
62
7
100
AcDbLine
10
884.050000000000
20
401.050000000000
30
0.0
11
886.980000000000
21
403.980000000000
31
0.0
0
LINE
5
466
100
AcDbEntity
8
0-303
6
CONTINUOUS
62
7
100
AcDbLine
10
884.050000000000
20
401.050000000000
30
0.0
11
895.600000000000
21
421.050000000000
31
0.0
0
LINE
5
467
100
AcDbEntity
8
0-303
6
CONTINUOUS
62
4
100
AcDbLine
10
734.430000000000
20
444.540000000000
30
0.0
11
866.930000000000
21
444.540000000000
31
0.0
0
LINE
5
468
100
AcDbEntity
8
0-202
6
CONTINUOUS
62
3
100
AcDbLine
10
885.430000000000
20
764.030000000000
30
0.0
11
840.920000000000
21
755.120000000000
31
0.0
0
LINE
5
469
100
AcDbEntity
8
0-202
6
CONTINUOUS
62
3
100
AcDbLine
10
840.920000000000
20
755.120000000000
30
0.0
11
822.210000000000
21
848.670000000000
31
0.0
0
LINE
5
46a
100
AcDbEntity
8
0-202
6
CONTINUOUS
62
3
100
AcDbLine
10
866.270000000000
20
859.830000000000
30
0.0
11
821.750000000000
21
850.920000000000
31
0.0
0
LINE
5
46b
100
AcDbEntity
8
0-202
6
CONTINUOUS
62
3
100
AcDbLine
10
822.210000000000
20
848.670000000000
30
0.0
11
866.720000000000
21
857.570000000000
31
0.0
0
LINE
5
46c
100
AcDbEntity
8
0-202
6
CONTINUOUS
62
3
100
AcDbLine
10
872.450000000000
20
840.670000000000
30
0.0
11
868.980000000000
21
858.020000000000
31
0.0
0
LINE
5
46d
100
AcDbEntity
8
0-202
6
CONTINUOUS
62
3
100
AcDbLine
10
866.720000000000
20
857.570000000000
30
0.0
11
870.190000000000
21
840.220000000000
31
0.0
0
LINE
5
46e
100
AcDbEntity
8
0-202
6
CONTINUOUS
62
3
100
AcDbLine
10
870.190000000000
20
840.220000000000
30
0.0
11
872.450000000000
21
840.670000000000
31
0.0
0
LINE
5
46f
100
AcDbEntity
8
0-202
6
CONTINUOUS
62
3
100
AcDbLine
10
881.960000000000
20
781.380000000000
30
0.0
11
885.430000000000
21
764.030000000000
31
0.0
0
LINE
5
470
100
AcDbEntity
8
0-202
6
CONTINUOUS
62
3
100
AcDbLine
10
887.690000000000
20
764.480000000000
30
0.0
11
884.220000000000
21
781.830000000000
31
0.0
0
LINE
5
471
100
AcDbEntity
8
0-202
6
CONTINUOUS
62
3
100
AcDbLine
10
884.220000000000
20
781.830000000000
30
0.0
11
881.960000000000
21
781.380000000000
31
0.0
0
LINE
5
472
100
AcDbEntity
8
0-202
6
CONTINUOUS
62
3
100
AcDbLine
10
841.370000000000
20
752.870000000000
30
0.0
11
885.880000000000
21
761.770000000000
31
0.0
0
LINE
5
473
100
AcDbEntity
8
0-202
6
CONTINUOUS
62
3
100
AcDbLine
10
745.960000000000
20
861.260000000000
30
0.0
11
750.860000000000
21
836.740000000000
31
0.0
0
LINE
5
474
100
AcDbEntity
8
0-202
6
CONTINUOUS
62
7
100
AcDbLine
10
754.090000000000
20
821.570000000000
30
0.0
11
754.680000000000
21
821.690000000000
31
0.0
0
LINE
5
475
100
AcDbEntity
8
0-202
6
CONTINUOUS
62
7
100
AcDbLine
10
755.280000000000
20
821.740000000000
30
0.0
11
753.600000000000
21
830.150000000000
31
0.0
0
LINE
5
476
100
AcDbEntity
8
0-202
6
CONTINUOUS
62
7
100
AcDbLine
10
753.600000000000
20
830.150000000000
30
0.0
11
754.190000000000
21
830.270000000000
31
0.0
0
LINE
5
477
100
AcDbEntity
8
0-202
6
CONTINUOUS
62
7
100
AcDbLine
10
754.190000000000
20
830.270000000000
30
0.0
11
755.860000000000
21
821.930000000000
31
0.0
0
LINE
5
478
100
AcDbEntity
8
0-202
6
CONTINUOUS
62
7
100
AcDbLine
10
793.500000000000
20
872.590000000000
30
0.0
11
793.620000000000
21
872.000000000000
31
0.0
0
LINE
5
479
100
AcDbEntity
8
0-202
6
CONTINUOUS
62
7
100
AcDbLine
10
739.540000000000
20
857.630000000000
30
0.0
11
729.590000000000
21
855.640000000000
31
0.0
0
LINE
5
47a
100
AcDbEntity
8
0-202
6
CONTINUOUS
62
7
100
AcDbLine
10
739.540000000000
20
857.630000000000
30
0.0
11
739.660000000000
21
857.040000000000
31
0.0
0
LINE
5
47b
100
AcDbEntity
8
0-202
6
CONTINUOUS
62
7
100
AcDbLine
10
739.660000000000
20
857.040000000000
30
0.0
11
729.710000000000
21
855.050000000000
31
0.0
0
LINE
5
47c
100
AcDbEntity
8
0-202
6
CONTINUOUS
62
7
100
AcDbLine
10
808.810000000000
20
873.830000000000
30
0.0
11
733.920000000000
21
859.500000000000
31
0.0
0
LINE
5
47d
100
AcDbEntity
8
0-202
6
CONTINUOUS
62
7
100
AcDbLine
10
733.800000000000
20
860.090000000000
30
0.0
11
808.700000000000
21
874.420000000000
31
0.0
0
LINE
5
47e
100
AcDbEntity
8
0-202
6
DASHED
62
7
100
AcDbLine
10
809.610000000000
20
876.430000000000
30
0.0
11
813.960000000000
21
875.880000000000
31
0.0
0
LINE
5
47f
100
AcDbEntity
8
0-202
6
DASHED
62
7
100
AcDbLine
10
792.960000000000
20
873.100000000000
30
0.0
11
791.310000000000
21
872.160000000000
31
0.0
0
LINE
5
480
100
AcDbEntity
8
0-202
6
CONTINUOUS
62
7
100
AcDbLine
10
793.500000000000
20
872.590000000000
30
0.0
11
808.470000000000
21
875.590000000000
31
0.0
0
LINE
5
481
100
AcDbEntity
8
0-202
6
CONTINUOUS
62
7
100
AcDbLine
10
808.580000000000
20
875.010000000000
30
0.0
11
793.610000000000
21
872.010000000000
31
0.0
0
LINE
5
482
100
AcDbEntity
8
0-202
6
DASHED
62
7
100
AcDbLine
10
792.960000000000
20
873.100000000000
30
0.0
11
809.610000000000
21
876.430000000000
31
0.0
0
LINE
5
483
100
AcDbEntity
8
0-202
6
CONTINUOUS
62
7
100
AcDbLine
10
752.940000000000
20
821.230000000000
30
0.0
11
745.320000000000
21
859.330000000000
31
0.0
0
LINE
5
484
100
AcDbEntity
8
0-202
6
CONTINUOUS
62
7
100
AcDbLine
10
745.910000000000
20
859.450000000000
30
0.0
11
753.510000000000
21
821.460000000000
31
0.0
0
LINE
5
485
100
AcDbEntity
8
0-202
6
CONTINUOUS
62
7
100
AcDbLine
10
745.200000000000
20
859.920000000000
30
0.0
11
729.370000000000
21
856.750000000000
31
0.0
0
LINE
5
486
100
AcDbEntity
8
0-202
6
CONTINUOUS
62
7
100
AcDbLine
10
729.020000000000
20
858.520000000000
30
0.0
11
733.920000000000
21
859.500000000000
31
0.0
0
LINE
5
487
100
AcDbEntity
8
0-202
6
CONTINUOUS
62
7
100
AcDbLine
10
733.800000000000
20
860.090000000000
30
0.0
11
728.900000000000
21
859.100000000000
31
0.0
0
LINE
5
488
100
AcDbEntity
8
0-202
6
CONTINUOUS
62
7
100
AcDbLine
10
745.320000000000
20
859.330000000000
30
0.0
11
729.490000000000
21
856.160000000000
31
0.0
0
LINE
5
489
100
AcDbEntity
8
0-202
6
CONTINUOUS
62
7
100
AcDbLine
10
728.580000000000
20
860.660000000000
30
0.0
11
733.460000000000
21
861.630000000000
31
0.0
0
LINE
5
48a
100
AcDbEntity
8
0-202
6
CONTINUOUS
62
7
100
AcDbLine
10
754.680000000000
20
821.690000000000
30
0.0
11
751.840000000000
21
835.920000000000
31
0.0
0
LINE
5
48b
100
AcDbEntity
8
0-202
6
CONTINUOUS
62
7
100
AcDbLine
10
751.250000000000
20
835.800000000000
30
0.0
11
754.090000000000
21
821.570000000000
31
0.0
0
LINE
5
48c
100
AcDbEntity
8
0-202
6
CONTINUOUS
62
4
100
AcDbLine
10
840.630000000000
20
882.740000000000
30
0.0
11
850.440000000000
21
884.700000000000
31
0.0
0
LINE
5
48d
100
AcDbEntity
8
0-202
6
CONTINUOUS
62
4
100
AcDbLine
10
842.490000000000
20
883.630000000000
30
0.0
11
848.380000000000
21
884.800000000000
31
0.0
0
LINE
5
48e
100
AcDbEntity
8
0-202
6
CONTINUOUS
62
4
100
AcDbLine
10
850.440000000000
20
884.700000000000
30
0.0
11
850.510000000000
21
884.310000000000
31
0.0
0
LINE
5
48f
100
AcDbEntity
8
0-202
6
CONTINUOUS
62
4
100
AcDbLine
10
848.380000000000
20
884.800000000000
30
0.0
11
849.950000000000
21
884.610000000000
31
0.0
0
LINE
5
490
100
AcDbEntity
8
0-202
6
CONTINUOUS
62
4
100
AcDbLine
10
850.020000000000
20
873.530000000000
30
0.0
11
845.150000000000
21
873.380000000000
31
0.0
0
LINE
5
491
100
AcDbEntity
8
0-202
6
CONTINUOUS
62
4
100
AcDbLine
10
850.330000000000
20
871.970000000000
30
0.0
11
845.470000000000
21
871.810000000000
31
0.0
0
LINE
5
492
100
AcDbEntity
8
0-202
6
CONTINUOUS
62
4
100
AcDbLine
10
850.650000000000
20
870.400000000000
30
0.0
11
845.780000000000
21
870.240000000000
31
0.0
0
LINE
5
493
100
AcDbEntity
8
0-202
6
CONTINUOUS
62
4
100
AcDbLine
10
849.700000000000
20
875.100000000000
30
0.0
11
844.840000000000
21
874.950000000000
31
0.0
0
LINE
5
494
100
AcDbEntity
8
0-202
6
CONTINUOUS
62
4
100
AcDbLine
10
840.630000000000
20
882.740000000000
30
0.0
11
840.710000000000
21
882.350000000000
31
0.0
0
LINE
5
495
100
AcDbEntity
8
0-202
6
CONTINUOUS
62
4
100
AcDbLine
10
842.490000000000
20
883.630000000000
30
0.0
11
841.120000000000
21
882.840000000000
31
0.0
0
LINE
5
496
100
AcDbEntity
8
0-202
6
CONTINUOUS
62
4
100
AcDbLine
10
851.270000000000
20
867.260000000000
30
0.0
11
846.410000000000
21
867.100000000000
31
0.0
0
LINE
5
497
100
AcDbEntity
8
0-202
6
CONTINUOUS
62
4
100
AcDbLine
10
850.960000000000
20
868.830000000000
30
0.0
11
846.100000000000
21
868.670000000000
31
0.0
0
LINE
5
498
100
AcDbEntity
8
0-202
6
CONTINUOUS
62
4
100
AcDbLine
10
851.590000000000
20
865.690000000000
30
0.0
11
846.720000000000
21
865.530000000000
31
0.0
0
LINE
5
499
100
AcDbEntity
8
0-202
6
CONTINUOUS
62
4
100
AcDbLine
10
851.900000000000
20
864.120000000000
30
0.0
11
847.040000000000
21
863.960000000000
31
0.0
0
LINE
5
49a
100
AcDbEntity
8
0-202
6
CONTINUOUS
62
4
100
AcDbLine
10
853.460000000000
20
844.110000000000
30
0.0
11
851.180000000000
21
845.290000000000
31
0.0
0
LINE
5
49b
100
AcDbEntity
8
0-202
6
CONTINUOUS
62
4
100
AcDbLine
10
855.100000000000
20
846.070000000000
30
0.0
11
853.460000000000
21
844.110000000000
31
0.0
0
LINE
5
49c
100
AcDbEntity
8
0-202
6
CONTINUOUS
62
4
100
AcDbLine
10
840.710000000000
20
882.350000000000
30
0.0
11
850.510000000000
21
884.310000000000
31
0.0
0
LINE
5
49d
100
AcDbEntity
8
0-202
6
CONTINUOUS
62
4
100
AcDbLine
10
849.080000000000
20
878.240000000000
30
0.0
11
844.210000000000
21
878.080000000000
31
0.0
0
LINE
5
49e
100
AcDbEntity
8
0-202
6
CONTINUOUS
62
4
100
AcDbLine
10
849.390000000000
20
876.670000000000
30
0.0
11
844.530000000000
21
876.520000000000
31
0.0
0
LINE
5
49f
100
AcDbEntity
8
0-202
6
CONTINUOUS
62
4
100
AcDbLine
10
848.760000000000
20
879.810000000000
30
0.0
11
843.900000000000
21
879.650000000000
31
0.0
0
LINE
5
4a0
100
AcDbEntity
8
0-202
6
CONTINUOUS
62
4
100
AcDbLine
10
852.220000000000
20
862.550000000000
30
0.0
11
847.350000000000
21
862.400000000000
31
0.0
0
LINE
5
4a1
100
AcDbEntity
8
0-202
6
CONTINUOUS
62
4
100
AcDbLine
10
852.530000000000
20
860.980000000000
30
0.0
11
847.660000000000
21
860.830000000000
31
0.0
0
LINE
5
4a2
100
AcDbEntity
8
0-202
6
CONTINUOUS
62
4
100
AcDbLine
10
852.840000000000
20
859.410000000000
30
0.0
11
847.980000000000
21
859.260000000000
31
0.0
0
LINE
5
4a3
100
AcDbEntity
8
0-202
6
CONTINUOUS
62
4
100
AcDbLine
10
853.160000000000
20
857.850000000000
30
0.0
11
848.290000000000
21
857.690000000000
31
0.0
0
LINE
5
4a4
100
AcDbEntity
8
0-202
6
CONTINUOUS
62
4
100
AcDbLine
10
853.470000000000
20
856.280000000000
30
0.0
11
848.610000000000
21
856.120000000000
31
0.0
0
LINE
5
4a5
100
AcDbEntity
8
0-202
6
CONTINUOUS
62
7
100
AcDbLine
10
728.700000000000
20
860.070000000000
30
0.0
11
733.600000000000
21
861.050000000000
31
0.0
0
LINE
5
4a6
100
AcDbEntity
8
0-202
6
CONTINUOUS
62
4
100
AcDbLine
10
853.780000000000
20
854.710000000000
30
0.0
11
848.920000000000
21
854.550000000000
31
0.0
0
LINE
5
4a7
100
AcDbEntity
8
0-202
6
CONTINUOUS
62
4
100
AcDbLine
10
854.100000000000
20
853.140000000000
30
0.0
11
849.230000000000
21
852.980000000000
31
0.0
0
LINE
5
4a8
100
AcDbEntity
8
0-202
6
CONTINUOUS
62
4
100
AcDbLine
10
854.410000000000
20
851.570000000000
30
0.0
11
849.550000000000
21
851.410000000000
31
0.0
0
LINE
5
4a9
100
AcDbEntity
8
0-202
6
CONTINUOUS
62
4
100
AcDbLine
10
854.730000000000
20
850.000000000000
30
0.0
11
849.860000000000
21
849.850000000000
31
0.0
0
LINE
5
4aa
100
AcDbEntity
8
0-202
6
CONTINUOUS
62
4
100
AcDbLine
10
855.100000000000
20
846.070000000000
30
0.0
11
847.570000000000
21
883.720000000000
31
0.0
0
LINE
5
4ab
100
AcDbEntity
8
0-202
6
CONTINUOUS
62
4
100
AcDbLine
10
851.180000000000
20
845.290000000000
30
0.0
11
843.650000000000
21
882.940000000000
31
0.0
0
LINE
5
4ac
100
AcDbEntity
8
0-202
6
CONTINUOUS
62
7
100
AcDbLine
10
751.840000000000
20
835.920000000000
30
0.0
11
797.930000000000
21
845.140000000000
31
0.0
0
LINE
5
4ad
100
AcDbEntity
8
0-202
6
CONTINUOUS
62
7
100
AcDbLine
10
797.810000000000
20
845.730000000000
30
0.0
11
751.720000000000
21
836.510000000000
31
0.0
0
LINE
5
4ae
100
AcDbEntity
8
0-202
6
CONTINUOUS
62
7
100
AcDbLine
10
807.540000000000
20
797.090000000000
30
0.0
11
797.930000000000
21
845.140000000000
31
0.0
0
LINE
5
4af
100
AcDbEntity
8
0-202
6
CONTINUOUS
62
7
100
AcDbLine
10
798.510000000000
20
845.260000000000
30
0.0
11
808.120000000000
21
797.210000000000
31
0.0
0
LINE
5
4b0
100
AcDbEntity
8
0-202
6
CONTINUOUS
62
7
100
AcDbLine
10
808.710000000000
20
797.330000000000
30
0.0
11
806.750000000000
21
807.130000000000
31
0.0
0
LINE
5
4b1
100
AcDbEntity
8
0-202
6
CONTINUOUS
62
7
100
AcDbLine
10
806.750000000000
20
807.130000000000
30
0.0
11
807.340000000000
21
807.250000000000
31
0.0
0
LINE
5
4b2
100
AcDbEntity
8
0-202
6
CONTINUOUS
62
7
100
AcDbLine
10
807.340000000000
20
807.250000000000
30
0.0
11
809.300000000000
21
797.440000000000
31
0.0
0
LINE
5
4b3
100
AcDbEntity
8
0-202
6
CONTINUOUS
62
3
100
AcDbLine
10
944.310000000000
20
875.430000000000
30
0.0
11
750.860000000000
21
836.740000000000
31
0.0
0
LINE
5
4b4
100
AcDbEntity
8
0-202
6
DASHED
62
7
100
AcDbLine
10
939.210000000000
20
900.930000000000
30
0.0
11
813.960000000000
21
875.880000000000
31
0.0
0
LINE
5
4b5
100
AcDbEntity
8
0-202
6
CONTINUOUS
62
4
100
AcDbLine
10
936.010000000000
20
873.770000000000
30
0.0
11
942.650000000000
21
883.740000000000
31
0.0
0
LINE
5
4b6
100
AcDbEntity
8
0-202
6
CONTINUOUS
62
4
100
AcDbLine
10
908.270000000000
20
868.230000000000
30
0.0
11
927.880000000000
21
897.640000000000
31
0.0
0
LINE
5
4b7
100
AcDbEntity
8
0-202
6
CONTINUOUS
62
4
100
AcDbLine
10
880.540000000000
20
862.680000000000
30
0.0
11
900.150000000000
21
892.100000000000
31
0.0
0
LINE
5
4b8
100
AcDbEntity
8
0-202
6
CONTINUOUS
62
4
100
AcDbLine
10
852.800000000000
20
857.130000000000
30
0.0
11
872.410000000000
21
886.550000000000
31
0.0
0
LINE
5
4b9
100
AcDbEntity
8
0-202
6
CONTINUOUS
62
4
100
AcDbLine
10
825.070000000000
20
851.590000000000
30
0.0
11
844.680000000000
21
881.000000000000
31
0.0
0
LINE
5
4ba
100
AcDbEntity
8
0-202
6
CONTINUOUS
62
4
100
AcDbLine
10
797.330000000000
20
846.040000000000
30
0.0
11
816.940000000000
21
875.460000000000
31
0.0
0
LINE
5
4bb
100
AcDbEntity
8
0-202
6
CONTINUOUS
62
4
100
AcDbLine
10
769.600000000000
20
840.490000000000
30
0.0
11
789.210000000000
21
869.910000000000
31
0.0
0
LINE
5
4bc
100
AcDbEntity
8
0-202
6
CONTINUOUS
62
4
100
AcDbLine
10
749.060000000000
20
845.740000000000
30
0.0
11
761.470000000000
21
864.360000000000
31
0.0
0
LINE
5
4bd
100
AcDbEntity
8
0-202
6
CONTINUOUS
62
4
100
AcDbLine
10
748.990000000000
20
861.870000000000
30
0.0
11
778.410000000000
21
842.250000000000
31
0.0
0
LINE
5
4be
100
AcDbEntity
8
0-202
6
CONTINUOUS
62
4
100
AcDbLine
10
776.720000000000
20
867.410000000000
30
0.0
11
806.140000000000
21
847.800000000000
31
0.0
0
LINE
5
4bf
100
AcDbEntity
8
0-202
6
CONTINUOUS
62
4
100
AcDbLine
10
804.460000000000
20
872.960000000000
30
0.0
11
833.880000000000
21
853.350000000000
31
0.0
0
LINE
5
4c0
100
AcDbEntity
8
0-202
6
CONTINUOUS
62
4
100
AcDbLine
10
832.190000000000
20
878.510000000000
30
0.0
11
861.610000000000
21
858.900000000000
31
0.0
0
LINE
5
4c1
100
AcDbEntity
8
0-202
6
CONTINUOUS
62
4
100
AcDbLine
10
859.930000000000
20
884.050000000000
30
0.0
11
889.350000000000
21
864.440000000000
31
0.0
0
LINE
5
4c2
100
AcDbEntity
8
0-202
6
CONTINUOUS
62
4
100
AcDbLine
10
887.660000000000
20
889.600000000000
30
0.0
11
917.080000000000
21
869.990000000000
31
0.0
0
LINE
5
4c3
100
AcDbEntity
8
0-202
6
CONTINUOUS
62
4
100
AcDbLine
10
915.400000000000
20
895.150000000000
30
0.0
11
944.210000000000
21
875.940000000000
31
0.0
0
LINE
5
4c4
100
AcDbEntity
8
0-202
6
CONTINUOUS
62
3
100
AcDbLine
10
939.410000000000
20
899.950000000000
30
0.0
11
745.960000000000
21
861.260000000000
31
0.0
0
LINE
5
4c5
100
AcDbEntity
8
0-202
6
CONTINUOUS
62
7
100
AcDbLine
10
938.680000000000
20
903.580000000000
30
0.0
11
793.820000000000
21
874.610000000000
31
0.0
0
LINE
5
4c6
100
AcDbEntity
8
0-202
6
CONTINUOUS
62
7
100
AcDbLine
10
938.800000000000
20
902.990000000000
30
0.0
11
793.940000000000
21
874.020000000000
31
0.0
0
LINE
5
4c7
100
AcDbEntity
8
0-202
6
CONTINUOUS
62
4
100
AcDbLine
10
707.210000000000
20
953.030000000000
30
0.0
11
826.890000000000
21
976.960000000000
31
0.0
0
LINE
5
4c8
100
AcDbEntity
8
0-202
6
CONTINUOUS
62
3
100
AcDbLine
10
848.920000000000
20
703.390000000000
30
0.0
11
829.310000000000
21
699.460000000000
31
0.0
0
LINE
5
4c9
100
AcDbEntity
8
0-202
6
CONTINUOUS
62
7
100
AcDbLine
10
969.510000000000
20
749.430000000000
30
0.0
11
845.680000000000
21
724.660000000000
31
0.0
0
LINE
5
4ca
100
AcDbEntity
8
0-202
6
CONTINUOUS
62
7
100
AcDbLine
10
845.680000000000
20
724.660000000000
30
0.0
11
846.960000000000
21
718.290000000000
31
0.0
0
LINE
5
4cb
100
AcDbEntity
8
0-202
6
CONTINUOUS
62
7
100
AcDbLine
10
970.780000000000
20
743.060000000000
30
0.0
11
846.960000000000
21
718.290000000000
31
0.0
0
LINE
5
4cc
100
AcDbEntity
8
0-202
6
CONTINUOUS
62
3
100
AcDbLine
10
819.950000000000
20
848.220000000000
30
0.0
11
838.660000000000
21
754.670000000000
31
0.0
0
LINE
5
4cd
100
AcDbEntity
8
0-202
6
CONTINUOUS
62
3
100
AcDbLine
10
819.950000000000
20
848.220000000000
30
0.0
11
800.340000000000
21
844.300000000000
31
0.0
0
LINE
5
4ce
100
AcDbEntity
8
0-202
6
CONTINUOUS
62
4
100
AcDbLine
10
828.960000000000
20
701.190000000000
30
0.0
11
845.960000000000
21
718.190000000000
31
0.0
0
LINE
5
4cf
100
AcDbEntity
8
0-202
6
CONTINUOUS
62
4
100
AcDbLine
10
826.600000000000
20
712.980000000000
30
0.0
11
843.600000000000
21
729.980000000000
31
0.0
0
LINE
5
4d0
100
AcDbEntity
8
0-202
6
CONTINUOUS
62
4
100
AcDbLine
10
824.240000000000
20
724.760000000000
30
0.0
11
841.240000000000
21
741.760000000000
31
0.0
0
LINE
5
4d1
100
AcDbEntity
8
0-202
6
CONTINUOUS
62
4
100
AcDbLine
10
821.890000000000
20
736.550000000000
30
0.0
11
838.880000000000
21
753.550000000000
31
0.0
0
LINE
5
4d2
100
AcDbEntity
8
0-202
6
CONTINUOUS
62
4
100
AcDbLine
10
819.530000000000
20
748.330000000000
30
0.0
11
836.530000000000
21
765.330000000000
31
0.0
0
LINE
5
4d3
100
AcDbEntity
8
0-202
6
CONTINUOUS
62
4
100
AcDbLine
10
817.170000000000
20
760.120000000000
30
0.0
11
834.170000000000
21
777.120000000000
31
0.0
0
LINE
5
4d4
100
AcDbEntity
8
0-202
6
CONTINUOUS
62
4
100
AcDbLine
10
814.820000000000
20
771.900000000000
30
0.0
11
831.810000000000
21
788.900000000000
31
0.0
0
LINE
5
4d5
100
AcDbEntity
8
0-202
6
CONTINUOUS
62
4
100
AcDbLine
10
812.460000000000
20
783.690000000000
30
0.0
11
829.460000000000
21
800.690000000000
31
0.0
0
LINE
5
4d6
100
AcDbEntity
8
0-202
6
CONTINUOUS
62
4
100
AcDbLine
10
810.100000000000
20
795.470000000000
30
0.0
11
827.100000000000
21
812.470000000000
31
0.0
0
LINE
5
4d7
100
AcDbEntity
8
0-202
6
CONTINUOUS
62
4
100
AcDbLine
10
807.750000000000
20
807.260000000000
30
0.0
11
824.740000000000
21
824.260000000000
31
0.0
0
LINE
5
4d8
100
AcDbEntity
8
0-202
6
CONTINUOUS
62
4
100
AcDbLine
10
805.390000000000
20
819.040000000000
30
0.0
11
822.390000000000
21
836.040000000000
31
0.0
0
LINE
5
4d9
100
AcDbEntity
8
0-202
6
CONTINUOUS
62
4
100
AcDbLine
10
803.030000000000
20
830.830000000000
30
0.0
11
820.030000000000
21
847.830000000000
31
0.0
0
LINE
5
4da
100
AcDbEntity
8
0-202
6
CONTINUOUS
62
4
100
AcDbLine
10
800.670000000000
20
842.620000000000
30
0.0
11
802.860000000000
21
844.800000000000
31
0.0
0
LINE
5
4db
100
AcDbEntity
8
0-202
6
CONTINUOUS
62
3
100
AcDbLine
10
800.340000000000
20
844.300000000000
30
0.0
11
829.310000000000
21
699.460000000000
31
0.0
0
LINE
5
4dc
100
AcDbEntity
8
0-202
6
CONTINUOUS
62
3
100
AcDbLine
10
838.660000000000
20
754.670000000000
30
0.0
11
848.920000000000
21
703.390000000000
31
0.0
0
LINE
5
4dd
100
AcDbEntity
8
0-202
6
CONTINUOUS
62
4
100
AcDbLine
10
844.390000000000
20
702.480000000000
30
0.0
11
848.310000000000
21
706.400000000000
31
0.0
0
LINE
5
4de
100
AcDbEntity
8
0-404
6
CONTINUOUS
62
3
100
AcDbLine
10
1367.550000000000
20
680.330000000000
30
0.0
11
1323.030000000000
21
671.430000000000
31
0.0
0
LINE
5
4df
100
AcDbEntity
8
0-404
6
CONTINUOUS
62
3
100
AcDbLine
10
1323.030000000000
20
671.430000000000
30
0.0
11
1304.320000000000
21
764.980000000000
31
0.0
0
LINE
5
4e0
100
AcDbEntity
8
0-404
6
CONTINUOUS
62
3
100
AcDbLine
10
1348.390000000000
20
776.130000000000
30
0.0
11
1303.870000000000
21
767.230000000000
31
0.0
0
LINE
5
4e1
100
AcDbEntity
8
0-404
6
CONTINUOUS
62
3
100
AcDbLine
10
1304.320000000000
20
764.980000000000
30
0.0
11
1348.840000000000
21
773.880000000000
31
0.0
0
LINE
5
4e2
100
AcDbEntity
8
0-404
6
CONTINUOUS
62
3
100
AcDbLine
10
1354.570000000000
20
756.970000000000
30
0.0
11
1351.100000000000
21
774.330000000000
31
0.0
0
LINE
5
4e3
100
AcDbEntity
8
0-404
6
CONTINUOUS
62
3
100
AcDbLine
10
1348.840000000000
20
773.880000000000
30
0.0
11
1352.310000000000
21
756.520000000000
31
0.0
0
LINE
5
4e4
100
AcDbEntity
8
0-404
6
CONTINUOUS
62
3
100
AcDbLine
10
1352.310000000000
20
756.520000000000
30
0.0
11
1354.570000000000
21
756.970000000000
31
0.0
0
LINE
5
4e5
100
AcDbEntity
8
0-404
6
CONTINUOUS
62
3
100
AcDbLine
10
1364.080000000000
20
697.690000000000
30
0.0
11
1367.550000000000
21
680.330000000000
31
0.0
0
LINE
5
4e6
100
AcDbEntity
8
0-404
6
CONTINUOUS
62
3
100
AcDbLine
10
1369.800000000000
20
680.780000000000
30
0.0
11
1366.330000000000
21
698.140000000000
31
0.0
0
LINE
5
4e7
100
AcDbEntity
8
0-404
6
CONTINUOUS
62
3
100
AcDbLine
10
1366.330000000000
20
698.140000000000
30
0.0
11
1364.080000000000
21
697.690000000000
31
0.0
0
LINE
5
4e8
100
AcDbEntity
8
0-404
6
CONTINUOUS
62
3
100
AcDbLine
10
1323.480000000000
20
669.170000000000
30
0.0
11
1368.000000000000
21
678.080000000000
31
0.0
0
LINE
5
4e9
100
AcDbEntity
8
0-404
6
CONTINUOUS
62
4
100
AcDbLine
10
1315.830000000000
20
797.670000000000
30
0.0
11
1325.640000000000
21
799.630000000000
31
0.0
0
LINE
5
4ea
100
AcDbEntity
8
0-404
6
CONTINUOUS
62
4
100
AcDbLine
10
1317.700000000000
20
798.550000000000
30
0.0
11
1323.580000000000
21
799.730000000000
31
0.0
0
LINE
5
4eb
100
AcDbEntity
8
0-404
6
CONTINUOUS
62
4
100
AcDbLine
10
1325.640000000000
20
799.630000000000
30
0.0
11
1325.720000000000
21
799.240000000000
31
0.0
0
LINE
5
4ec
100
AcDbEntity
8
0-404
6
CONTINUOUS
62
4
100
AcDbLine
10
1323.580000000000
20
799.730000000000
30
0.0
11
1325.150000000000
21
799.530000000000
31
0.0
0
LINE
5
4ed
100
AcDbEntity
8
0-404
6
CONTINUOUS
62
4
100
AcDbLine
10
1325.220000000000
20
788.460000000000
30
0.0
11
1320.360000000000
21
788.300000000000
31
0.0
0
LINE
5
4ee
100
AcDbEntity
8
0-404
6
CONTINUOUS
62
4
100
AcDbLine
10
1325.530000000000
20
786.890000000000
30
0.0
11
1320.670000000000
21
786.730000000000
31
0.0
0
LINE
5
4ef
100
AcDbEntity
8
0-404
6
CONTINUOUS
62
4
100
AcDbLine
10
1325.850000000000
20
785.320000000000
30
0.0
11
1320.980000000000
21
785.160000000000
31
0.0
0
LINE
5
4f0
100
AcDbEntity
8
0-404
6
CONTINUOUS
62
4
100
AcDbLine
10
1324.910000000000
20
790.030000000000
30
0.0
11
1320.040000000000
21
789.870000000000
31
0.0
0
LINE
5
4f1
100
AcDbEntity
8
0-404
6
CONTINUOUS
62
4
100
AcDbLine
10
1315.830000000000
20
797.670000000000
30
0.0
11
1315.910000000000
21
797.280000000000
31
0.0
0
LINE
5
4f2
100
AcDbEntity
8
0-404
6
CONTINUOUS
62
4
100
AcDbLine
10
1317.700000000000
20
798.550000000000
30
0.0
11
1316.320000000000
21
797.770000000000
31
0.0
0
LINE
5
4f3
100
AcDbEntity
8
0-404
6
CONTINUOUS
62
4
100
AcDbLine
10
1326.480000000000
20
782.180000000000
30
0.0
11
1321.610000000000
21
782.030000000000
31
0.0
0
LINE
5
4f4
100
AcDbEntity
8
0-404
6
CONTINUOUS
62
4
100
AcDbLine
10
1326.160000000000
20
783.750000000000
30
0.0
11
1321.300000000000
21
783.600000000000
31
0.0
0
LINE
5
4f5
100
AcDbEntity
8
0-404
6
CONTINUOUS
62
4
100
AcDbLine
10
1326.790000000000
20
780.610000000000
30
0.0
11
1321.930000000000
21
780.460000000000
31
0.0
0
LINE
5
4f6
100
AcDbEntity
8
0-404
6
CONTINUOUS
62
4
100
AcDbLine
10
1327.100000000000
20
779.040000000000
30
0.0
11
1322.240000000000
21
778.890000000000
31
0.0
0
LINE
5
4f7
100
AcDbEntity
8
0-404
6
CONTINUOUS
62
4
100
AcDbLine
10
1328.660000000000
20
759.030000000000
30
0.0
11
1326.380000000000
21
760.210000000000
31
0.0
0
LINE
5
4f8
100
AcDbEntity
8
0-404
6
CONTINUOUS
62
4
100
AcDbLine
10
1330.310000000000
20
760.990000000000
30
0.0
11
1328.660000000000
21
759.030000000000
31
0.0
0
LINE
5
4f9
100
AcDbEntity
8
0-404
6
CONTINUOUS
62
4
100
AcDbLine
10
1315.910000000000
20
797.280000000000
30
0.0
11
1325.720000000000
21
799.240000000000
31
0.0
0
LINE
5
4fa
100
AcDbEntity
8
0-404
6
CONTINUOUS
62
4
100
AcDbLine
10
1324.280000000000
20
793.170000000000
30
0.0
11
1319.420000000000
21
793.010000000000
31
0.0
0
LINE
5
4fb
100
AcDbEntity
8
0-404
6
CONTINUOUS
62
4
100
AcDbLine
10
1324.590000000000
20
791.600000000000
30
0.0
11
1319.730000000000
21
791.440000000000
31
0.0
0
LINE
5
4fc
100
AcDbEntity
8
0-404
6
CONTINUOUS
62
4
100
AcDbLine
10
1323.970000000000
20
794.730000000000
30
0.0
11
1319.100000000000
21
794.580000000000
31
0.0
0
LINE
5
4fd
100
AcDbEntity
8
0-404
6
CONTINUOUS
62
4
100
AcDbLine
10
1327.420000000000
20
777.480000000000
30
0.0
11
1322.550000000000
21
777.320000000000
31
0.0
0
LINE
5
4fe
100
AcDbEntity
8
0-404
6
CONTINUOUS
62
4
100
AcDbLine
10
1327.730000000000
20
775.910000000000
30
0.0
11
1322.870000000000
21
775.750000000000
31
0.0
0
LINE
5
4ff
100
AcDbEntity
8
0-404
6
CONTINUOUS
62
4
100
AcDbLine
10
1328.050000000000
20
774.340000000000
30
0.0
11
1323.180000000000
21
774.180000000000
31
0.0
0
LINE
5
500
100
AcDbEntity
8
0-404
6
CONTINUOUS
62
4
100
AcDbLine
10
1328.360000000000
20
772.770000000000
30
0.0
11
1323.500000000000
21
772.610000000000
31
0.0
0
LINE
5
501
100
AcDbEntity
8
0-404
6
CONTINUOUS
62
4
100
AcDbLine
10
1328.670000000000
20
771.200000000000
30
0.0
11
1323.810000000000
21
771.040000000000
31
0.0
0
LINE
5
502
100
AcDbEntity
8
0-404
6
CONTINUOUS
62
4
100
AcDbLine
10
1328.990000000000
20
769.630000000000
30
0.0
11
1324.120000000000
21
769.480000000000
31
0.0
0
LINE
5
503
100
AcDbEntity
8
0-404
6
CONTINUOUS
62
4
100
AcDbLine
10
1329.300000000000
20
768.060000000000
30
0.0
11
1324.440000000000
21
767.910000000000
31
0.0
0
LINE
5
504
100
AcDbEntity
8
0-404
6
CONTINUOUS
62
4
100
AcDbLine
10
1329.610000000000
20
766.490000000000
30
0.0
11
1324.750000000000
21
766.340000000000
31
0.0
0
LINE
5
505
100
AcDbEntity
8
0-404
6
CONTINUOUS
62
4
100
AcDbLine
10
1329.930000000000
20
764.930000000000
30
0.0
11
1325.060000000000
21
764.770000000000
31
0.0
0
LINE
5
506
100
AcDbEntity
8
0-404
6
CENTER2
62
4
100
AcDbLine
10
1320.620000000000
20
799.240000000000
30
0.0
11
1329.970000000000
21
752.490000000000
31
0.0
0
LINE
5
507
100
AcDbEntity
8
0-404
6
CONTINUOUS
62
4
100
AcDbLine
10
1330.310000000000
20
760.990000000000
30
0.0
11
1322.780000000000
21
798.650000000000
31
0.0
0
LINE
5
508
100
AcDbEntity
8
0-404
6
CONTINUOUS
62
4
100
AcDbLine
10
1326.380000000000
20
760.210000000000
30
0.0
11
1318.850000000000
21
797.860000000000
31
0.0
0
LINE
5
509
100
AcDbEntity
8
0-404
6
CONTINUOUS
62
4
100
AcDbLine
10
1390.390000000000
20
784.530000000000
30
0.0
11
1410.000000000000
21
813.950000000000
31
0.0
0
LINE
5
50a
100
AcDbEntity
8
0-404
6
CONTINUOUS
62
4
100
AcDbLine
10
1362.650000000000
20
778.990000000000
30
0.0
11
1382.260000000000
21
808.400000000000
31
0.0
0
LINE
5
50b
100
AcDbEntity
8
0-404
6
CONTINUOUS
62
4
100
AcDbLine
10
1334.920000000000
20
773.440000000000
30
0.0
11
1354.530000000000
21
802.860000000000
31
0.0
0
LINE
5
50c
100
AcDbEntity
8
0-404
6
CONTINUOUS
62
4
100
AcDbLine
10
1307.180000000000
20
767.890000000000
30
0.0
11
1326.790000000000
21
797.310000000000
31
0.0
0
LINE
5
50d
100
AcDbEntity
8
0-404
6
CONTINUOUS
62
4
100
AcDbLine
10
1279.450000000000
20
762.350000000000
30
0.0
11
1299.060000000000
21
791.760000000000
31
0.0
0
LINE
5
50e
100
AcDbEntity
8
0-404
6
CONTINUOUS
62
4
100
AcDbLine
10
1251.710000000000
20
756.800000000000
30
0.0
11
1271.320000000000
21
786.220000000000
31
0.0
0
LINE
5
50f
100
AcDbEntity
8
0-404
6
CONTINUOUS
62
4
100
AcDbLine
10
1231.170000000000
20
762.050000000000
30
0.0
11
1243.590000000000
21
780.670000000000
31
0.0
0
LINE
5
510
100
AcDbEntity
8
0-404
6
CONTINUOUS
62
4
100
AcDbLine
10
1231.110000000000
20
778.170000000000
30
0.0
11
1260.520000000000
21
758.560000000000
31
0.0
0
LINE
5
511
100
AcDbEntity
8
0-404
6
CONTINUOUS
62
4
100
AcDbLine
10
1258.840000000000
20
783.720000000000
30
0.0
11
1288.260000000000
21
764.110000000000
31
0.0
0
LINE
5
512
100
AcDbEntity
8
0-404
6
CONTINUOUS
62
4
100
AcDbLine
10
1286.580000000000
20
789.270000000000
30
0.0
11
1315.990000000000
21
769.660000000000
31
0.0
0
LINE
5
513
100
AcDbEntity
8
0-404
6
CONTINUOUS
62
4
100
AcDbLine
10
1314.310000000000
20
794.810000000000
30
0.0
11
1343.730000000000
21
775.200000000000
31
0.0
0
LINE
5
514
100
AcDbEntity
8
0-404
6
CONTINUOUS
62
4
100
AcDbLine
10
1342.050000000000
20
800.360000000000
30
0.0
11
1371.460000000000
21
780.750000000000
31
0.0
0
LINE
5
515
100
AcDbEntity
8
0-404
6
CONTINUOUS
62
4
100
AcDbLine
10
1369.780000000000
20
805.910000000000
30
0.0
11
1399.200000000000
21
786.300000000000
31
0.0
0
LINE
5
516
100
AcDbEntity
8
0-404
6
CONTINUOUS
62
3
100
AcDbLine
10
1302.070000000000
20
764.520000000000
30
0.0
11
1320.780000000000
21
670.980000000000
31
0.0
0
LINE
5
517
100
AcDbEntity
8
0-404
6
CONTINUOUS
62
7
100
AcDbLine
10
1308.890000000000
20
819.430000000000
30
0.0
11
1309.010000000000
21
818.840000000000
31
0.0
0
LINE
5
518
100
AcDbEntity
8
0-404
6
CONTINUOUS
62
7
100
AcDbLine
10
1308.890000000000
20
819.430000000000
30
0.0
11
1294.180000000000
21
816.490000000000
31
0.0
0
LINE
5
519
100
AcDbEntity
8
0-404
6
CONTINUOUS
62
7
100
AcDbLine
10
1309.010000000000
20
818.840000000000
30
0.0
11
1294.300000000000
21
815.900000000000
31
0.0
0
LINE
5
51a
100
AcDbEntity
8
0-404
6
CONTINUOUS
62
7
100
AcDbLine
10
1313.680000000000
20
821.000000000000
30
0.0
11
1294.070000000000
21
817.080000000000
31
0.0
0
LINE
5
51b
100
AcDbEntity
8
0-404
6
CONTINUOUS
62
7
100
AcDbLine
10
1313.560000000000
20
821.590000000000
30
0.0
11
1293.950000000000
21
817.660000000000
31
0.0
0
LINE
5
51c
100
AcDbEntity
8
0-404
6
CONTINUOUS
62
7
100
AcDbLine
10
1338.080000000000
20
826.490000000000
30
0.0
11
1338.190000000000
21
825.900000000000
31
0.0
0
LINE
5
51d
100
AcDbEntity
8
0-404
6
CONTINUOUS
62
7
100
AcDbLine
10
1343.100000000000
20
826.880000000000
30
0.0
11
1338.190000000000
21
825.900000000000
31
0.0
0
LINE
5
51e
100
AcDbEntity
8
0-404
6
CONTINUOUS
62
7
100
AcDbLine
10
1342.980000000000
20
827.470000000000
30
0.0
11
1338.080000000000
21
826.490000000000
31
0.0
0
LINE
5
51f
100
AcDbEntity
8
0-404
6
CONTINUOUS
62
7
100
AcDbLine
10
1323.680000000000
20
822.390000000000
30
0.0
11
1343.210000000000
21
826.290000000000
31
0.0
0
LINE
5
520
100
AcDbEntity
8
0-404
6
CONTINUOUS
62
7
100
AcDbLine
10
1313.960000000000
20
822.280000000000
30
0.0
11
1293.830000000000
21
818.250000000000
31
0.0
0
LINE
5
521
100
AcDbEntity
8
0-404
6
CONTINUOUS
62
7
100
AcDbLine
10
1323.640000000000
20
821.790000000000
30
0.0
11
1314.110000000000
21
822.290000000000
31
0.0
0
LINE
5
522
100
AcDbEntity
8
0-404
6
CONTINUOUS
62
7
100
AcDbLine
10
1323.790000000000
20
821.800000000000
30
0.0
11
1343.330000000000
21
825.710000000000
31
0.0
0
LINE
5
523
100
AcDbEntity
8
0-404
6
CONTINUOUS
62
7
100
AcDbLine
10
1313.840000000000
20
822.870000000000
30
0.0
11
1293.710000000000
21
818.840000000000
31
0.0
0
LINE
5
524
100
AcDbEntity
8
0-404
6
CONTINUOUS
62
7
100
AcDbLine
10
1313.990000000000
20
822.880000000000
30
0.0
11
1323.530000000000
21
822.380000000000
31
0.0
0
LINE
5
525
100
AcDbEntity
8
0-404
6
CONTINUOUS
62
3
100
AcDbLine
10
1458.980000000000
20
798.250000000000
30
0.0
11
1232.970000000000
21
753.050000000000
31
0.0
0
LINE
5
526
100
AcDbEntity
8
0-404
6
CONTINUOUS
62
4
100
AcDbLine
10
1418.120000000000
20
790.080000000000
30
0.0
11
1437.730000000000
21
819.500000000000
31
0.0
0
LINE
5
527
100
AcDbEntity
8
0-404
6
CONTINUOUS
62
4
100
AcDbLine
10
1397.520000000000
20
811.450000000000
30
0.0
11
1426.930000000000
21
791.840000000000
31
0.0
0
LINE
5
528
100
AcDbEntity
8
0-404
6
CONTINUOUS
62
4
100
AcDbLine
10
1425.250000000000
20
817.000000000000
30
0.0
11
1454.670000000000
21
797.390000000000
31
0.0
0
LINE
5
529
100
AcDbEntity
8
0-404
6
CONTINUOUS
62
3
100
AcDbLine
10
1454.080000000000
20
822.770000000000
30
0.0
11
1228.070000000000
21
777.570000000000
31
0.0
0
LINE
5
52a
100
AcDbEntity
8
0-404
6
CONTINUOUS
62
3
100
AcDbLine
10
1458.980000000000
20
798.250000000000
30
0.0
11
1454.530000000000
21
820.510000000000
31
0.0
0
LINE
5
52b
100
AcDbEntity
8
0-404
6
CONTINUOUS
62
7
100
AcDbLine
10
1454.530000000000
20
820.510000000000
30
0.0
11
1454.080000000000
21
822.770000000000
31
0.0
0
LINE
5
52c
100
AcDbEntity
8
0-404
6
CONTINUOUS
62
4
100
AcDbLine
10
1445.860000000000
20
795.630000000000
30
0.0
11
1456.360000000000
21
811.380000000000
31
0.0
0
LINE
5
52d
100
AcDbEntity
8
0-404
6
CONTINUOUS
62
4
100
AcDbLine
10
1332.020000000000
20
812.330000000000
30
0.0
11
1329.770000000000
21
823.600000000000
31
0.0
0
LINE
5
52e
100
AcDbEntity
8
0-404
6
CONTINUOUS
62
4
100
AcDbLine
10
1332.220000000000
20
824.090000000000
30
0.0
11
1334.470000000000
21
812.820000000000
31
0.0
0
LINE
5
52f
100
AcDbEntity
8
0-404
6
CONTINUOUS
62
4
100
AcDbLine
10
1326.010000000000
20
823.260000000000
30
0.0
11
1335.820000000000
21
825.220000000000
31
0.0
0
LINE
5
530
100
AcDbEntity
8
0-404
6
CONTINUOUS
62
4
100
AcDbLine
10
1327.870000000000
20
824.140000000000
30
0.0
11
1333.760000000000
21
825.320000000000
31
0.0
0
LINE
5
531
100
AcDbEntity
8
0-404
6
CONTINUOUS
62
4
100
AcDbLine
10
1335.820000000000
20
825.220000000000
30
0.0
11
1335.900000000000
21
824.830000000000
31
0.0
0
LINE
5
532
100
AcDbEntity
8
0-404
6
CONTINUOUS
62
4
100
AcDbLine
10
1333.760000000000
20
825.320000000000
30
0.0
11
1335.330000000000
21
825.120000000000
31
0.0
0
LINE
5
533
100
AcDbEntity
8
0-404
6
CONTINUOUS
62
4
100
AcDbLine
10
1333.130000000000
20
820.790000000000
30
0.0
11
1330.090000000000
21
820.690000000000
31
0.0
0
LINE
5
534
100
AcDbEntity
8
0-404
6
CONTINUOUS
62
4
100
AcDbLine
10
1333.330000000000
20
819.810000000000
30
0.0
11
1330.290000000000
21
819.710000000000
31
0.0
0
LINE
5
535
100
AcDbEntity
8
0-404
6
CONTINUOUS
62
4
100
AcDbLine
10
1333.530000000000
20
818.830000000000
30
0.0
11
1330.490000000000
21
818.730000000000
31
0.0
0
LINE
5
536
100
AcDbEntity
8
0-404
6
CONTINUOUS
62
4
100
AcDbLine
10
1332.940000000000
20
821.770000000000
30
0.0
11
1329.900000000000
21
821.670000000000
31
0.0
0
LINE
5
537
100
AcDbEntity
8
0-404
6
CONTINUOUS
62
4
100
AcDbLine
10
1326.010000000000
20
823.260000000000
30
0.0
11
1326.090000000000
21
822.870000000000
31
0.0
0
LINE
5
538
100
AcDbEntity
8
0-404
6
CONTINUOUS
62
4
100
AcDbLine
10
1327.870000000000
20
824.140000000000
30
0.0
11
1326.500000000000
21
823.360000000000
31
0.0
0
LINE
5
539
100
AcDbEntity
8
0-404
6
CONTINUOUS
62
4
100
AcDbLine
10
1333.920000000000
20
816.870000000000
30
0.0
11
1330.880000000000
21
816.770000000000
31
0.0
0
LINE
5
53a
100
AcDbEntity
8
0-404
6
CONTINUOUS
62
4
100
AcDbLine
10
1333.720000000000
20
817.850000000000
30
0.0
11
1330.680000000000
21
817.750000000000
31
0.0
0
LINE
5
53b
100
AcDbEntity
8
0-404
6
CONTINUOUS
62
4
100
AcDbLine
10
1334.110000000000
20
815.890000000000
30
0.0
11
1331.070000000000
21
815.790000000000
31
0.0
0
LINE
5
53c
100
AcDbEntity
8
0-404
6
CONTINUOUS
62
4
100
AcDbLine
10
1334.310000000000
20
814.910000000000
30
0.0
11
1331.270000000000
21
814.810000000000
31
0.0
0
LINE
5
53d
100
AcDbEntity
8
0-404
6
CONTINUOUS
62
4
100
AcDbLine
10
1333.440000000000
20
811.590000000000
30
0.0
11
1332.020000000000
21
812.330000000000
31
0.0
0
LINE
5
53e
100
AcDbEntity
8
0-404
6
CONTINUOUS
62
4
100
AcDbLine
10
1334.470000000000
20
812.820000000000
30
0.0
11
1333.440000000000
21
811.590000000000
31
0.0
0
LINE
5
53f
100
AcDbEntity
8
0-404
6
CONTINUOUS
62
4
100
AcDbLine
10
1326.090000000000
20
822.870000000000
30
0.0
11
1335.900000000000
21
824.830000000000
31
0.0
0
LINE
5
540
100
AcDbEntity
8
0-404
6
DASHED
62
7
100
AcDbLine
10
1453.960000000000
20
823.760000000000
30
0.0
11
1227.880000000000
21
778.550000000000
31
0.0
0
LINE
5
541
100
AcDbEntity
8
0-404
6
CONTINUOUS
62
7
100
AcDbLine
10
1450.580000000000
20
846.540000000000
30
0.0
11
1223.360000000000
21
801.100000000000
31
0.0
0
LINE
5
542
100
AcDbEntity
8
0-404
6
CONTINUOUS
62
7
100
AcDbLine
10
1313.680000000000
20
824.060000000000
30
0.0
11
1293.480000000000
21
820.020000000000
31
0.0
0
LINE
5
543
100
AcDbEntity
8
0-404
6
CONTINUOUS
62
7
100
AcDbLine
10
1313.800000000000
20
823.470000000000
30
0.0
11
1293.600000000000
21
819.430000000000
31
0.0
0
LINE
5
544
100
AcDbEntity
8
0-404
6
CONTINUOUS
62
7
100
AcDbLine
10
1454.730000000000
20
849.050000000000
30
0.0
11
1313.690000000000
21
824.060000000000
31
0.0
0
LINE
5
545
100
AcDbEntity
8
0-404
6
CONTINUOUS
62
4
100
AcDbLine
10
1269.490000000000
20
944.070000000000
30
0.0
11
1434.270000000000
21
977.030000000000
31
0.0
0
LINE
5
546
100
AcDbEntity
8
0-404
6
CONTINUOUS
62
7
100
AcDbLine
10
1313.800000000000
20
823.470000000000
30
0.0
11
1454.840000000000
21
848.460000000000
31
0.0
0
LINE
5
547
100
AcDbEntity
8
0-404
6
CONTINUOUS
62
3
100
AcDbLine
10
1473.780000000000
20
901.210000000000
30
0.0
11
1473.780000000000
21
946.610000000000
31
0.0
0
LINE
5
548
100
AcDbEntity
8
0-404
6
CONTINUOUS
62
3
100
AcDbLine
10
1569.180000000000
20
948.910000000000
30
0.0
11
1473.780000000000
21
948.910000000000
31
0.0
0
LINE
5
549
100
AcDbEntity
8
0-404
6
CONTINUOUS
62
3
100
AcDbLine
10
1473.780000000000
20
946.610000000000
30
0.0
11
1569.180000000000
21
946.610000000000
31
0.0
0
LINE
5
54a
100
AcDbEntity
8
0-404
6
CONTINUOUS
62
3
100
AcDbLine
10
1571.480000000000
20
901.210000000000
30
0.0
11
1571.480000000000
21
946.610000000000
31
0.0
0
LINE
5
54b
100
AcDbEntity
8
0-404
6
CONTINUOUS
62
3
100
AcDbLine
10
1569.180000000000
20
946.610000000000
30
0.0
11
1569.180000000000
21
901.210000000000
31
0.0
0
LINE
5
54c
100
AcDbEntity
8
0-404
6
CONTINUOUS
62
3
100
AcDbLine
10
1551.480000000000
20
898.910000000000
30
0.0
11
1569.180000000000
21
898.910000000000
31
0.0
0
LINE
5
54d
100
AcDbEntity
8
0-404
6
CONTINUOUS
62
3
100
AcDbLine
10
1569.180000000000
20
901.210000000000
30
0.0
11
1551.480000000000
21
901.210000000000
31
0.0
0
LINE
5
54e
100
AcDbEntity
8
0-404
6
CONTINUOUS
62
3
100
AcDbLine
10
1551.480000000000
20
901.210000000000
30
0.0
11
1551.480000000000
21
898.910000000000
31
0.0
0
LINE
5
54f
100
AcDbEntity
8
0-404
6
CONTINUOUS
62
3
100
AcDbLine
10
1491.480000000000
20
901.210000000000
30
0.0
11
1473.780000000000
21
901.210000000000
31
0.0
0
LINE
5
550
100
AcDbEntity
8
0-404
6
CONTINUOUS
62
3
100
AcDbLine
10
1473.780000000000
20
898.910000000000
30
0.0
11
1491.480000000000
21
898.910000000000
31
0.0
0
LINE
5
551
100
AcDbEntity
8
0-404
6
CONTINUOUS
62
3
100
AcDbLine
10
1491.480000000000
20
898.910000000000
30
0.0
11
1491.480000000000
21
901.210000000000
31
0.0
0
LINE
5
552
100
AcDbEntity
8
0-404
6
CONTINUOUS
62
3
100
AcDbLine
10
1471.480000000000
20
946.610000000000
30
0.0
11
1471.480000000000
21
901.210000000000
31
0.0
0
LINE
5
553
100
AcDbEntity
8
0-404
6
CONTINUOUS
62
7
100
AcDbLine
10
1455.780000000000
20
992.490000000000
30
0.0
11
1455.180000000000
21
992.490000000000
31
0.0
0
LINE
5
554
100
AcDbEntity
8
0-404
6
CONTINUOUS
62
7
100
AcDbLine
10
1428.480000000000
20
864.050000000000
30
0.0
11
1443.480000000000
21
864.050000000000
31
0.0
0
LINE
5
555
100
AcDbEntity
8
0-404
6
CONTINUOUS
62
4
100
AcDbLine
10
1455.220000000000
20
858.760000000000
30
0.0
11
1434.270000000000
21
977.030000000000
31
0.0
0
LINE
5
556
100
AcDbEntity
8
0-404
6
CONTINUOUS
62
4
100
AcDbLine
10
1289.800000000000
20
829.450000000000
30
0.0
11
1269.490000000000
21
944.070000000000
31
0.0
0
LINE
5
557
100
AcDbEntity
8
0-404
6
CONTINUOUS
62
4
100
AcDbLine
10
1428.480000000000
20
872.930000000000
30
0.0
11
1443.480000000000
21
887.930000000000
31
0.0
0
LINE
5
558
100
AcDbEntity
8
0-404
6
CONTINUOUS
62
4
100
AcDbLine
10
1428.480000000000
20
875.760000000000
30
0.0
11
1443.480000000000
21
890.760000000000
31
0.0
0
LINE
5
559
100
AcDbEntity
8
0-404
6
CONTINUOUS
62
4
100
AcDbLine
10
1428.480000000000
20
901.210000000000
30
0.0
11
1443.480000000000
21
916.220000000000
31
0.0
0
LINE
5
55a
100
AcDbEntity
8
0-404
6
CONTINUOUS
62
4
100
AcDbLine
10
1428.480000000000
20
904.040000000000
30
0.0
11
1443.480000000000
21
919.040000000000
31
0.0
0
LINE
5
55b
100
AcDbEntity
8
0-404
6
CONTINUOUS
62
4
100
AcDbLine
10
1428.480000000000
20
929.500000000000
30
0.0
11
1443.480000000000
21
944.500000000000
31
0.0
0
LINE
5
55c
100
AcDbEntity
8
0-404
6
CONTINUOUS
62
4
100
AcDbLine
10
1428.480000000000
20
932.330000000000
30
0.0
11
1443.480000000000
21
947.330000000000
31
0.0
0
LINE
5
55d
100
AcDbEntity
8
0-404
6
CONTINUOUS
62
4
100
AcDbLine
10
1428.480000000000
20
957.780000000000
30
0.0
11
1443.480000000000
21
972.780000000000
31
0.0
0
LINE
5
55e
100
AcDbEntity
8
0-404
6
CONTINUOUS
62
4
100
AcDbLine
10
1428.480000000000
20
960.610000000000
30
0.0
11
1443.480000000000
21
975.610000000000
31
0.0
0
LINE
5
55f
100
AcDbEntity
8
0-404
6
CONTINUOUS
62
4
100
AcDbLine
10
1465.130000000000
20
848.910000000000
30
0.0
11
1507.070000000000
21
848.910000000000
31
0.0
0
LINE
5
560
100
AcDbEntity
8
0-101
6
CONTINUOUS
62
3
100
AcDbLine
10
271.580000000000
20
210.630000000000
30
0.0
11
227.060000000000
21
201.720000000000
31
0.0
0
LINE
5
561
100
AcDbEntity
8
0-101
6
CONTINUOUS
62
3
100
AcDbLine
10
227.060000000000
20
201.720000000000
30
0.0
11
208.350000000000
21
295.270000000000
31
0.0
0
LINE
5
562
100
AcDbEntity
8
0-101
6
CONTINUOUS
62
3
100
AcDbLine
10
252.420000000000
20
306.430000000000
30
0.0
11
207.900000000000
21
297.520000000000
31
0.0
0
LINE
5
563
100
AcDbEntity
8
0-101
6
CONTINUOUS
62
3
100
AcDbLine
10
208.350000000000
20
295.270000000000
30
0.0
11
252.870000000000
21
304.170000000000
31
0.0
0
LINE
5
564
100
AcDbEntity
8
0-101
6
CONTINUOUS
62
3
100
AcDbLine
10
258.590000000000
20
287.270000000000
30
0.0
11
255.120000000000
21
304.620000000000
31
0.0
0
LINE
5
565
100
AcDbEntity
8
0-101
6
CONTINUOUS
62
3
100
AcDbLine
10
252.870000000000
20
304.170000000000
30
0.0
11
256.340000000000
21
286.820000000000
31
0.0
0
LINE
5
566
100
AcDbEntity
8
0-101
6
CONTINUOUS
62
3
100
AcDbLine
10
256.340000000000
20
286.820000000000
30
0.0
11
258.590000000000
21
287.270000000000
31
0.0
0
LINE
5
567
100
AcDbEntity
8
0-101
6
CONTINUOUS
62
3
100
AcDbLine
10
268.110000000000
20
227.980000000000
30
0.0
11
271.580000000000
21
210.630000000000
31
0.0
0
LINE
5
568
100
AcDbEntity
8
0-101
6
CONTINUOUS
62
3
100
AcDbLine
10
273.830000000000
20
211.080000000000
30
0.0
11
270.360000000000
21
228.430000000000
31
0.0
0
LINE
5
569
100
AcDbEntity
8
0-101
6
CONTINUOUS
62
3
100
AcDbLine
10
270.360000000000
20
228.430000000000
30
0.0
11
268.110000000000
21
227.980000000000
31
0.0
0
LINE
5
56a
100
AcDbEntity
8
0-101
6
CONTINUOUS
62
3
100
AcDbLine
10
227.510000000000
20
199.470000000000
30
0.0
11
272.030000000000
21
208.370000000000
31
0.0
0
LINE
5
56b
100
AcDbEntity
8
0-101
6
CONTINUOUS
62
4
100
AcDbLine
10
219.860000000000
20
327.960000000000
30
0.0
11
229.670000000000
21
329.920000000000
31
0.0
0
LINE
5
56c
100
AcDbEntity
8
0-101
6
CONTINUOUS
62
4
100
AcDbLine
10
221.720000000000
20
328.840000000000
30
0.0
11
227.610000000000
21
330.020000000000
31
0.0
0
LINE
5
56d
100
AcDbEntity
8
0-101
6
CONTINUOUS
62
4
100
AcDbLine
10
229.670000000000
20
329.920000000000
30
0.0
11
229.750000000000
21
329.530000000000
31
0.0
0
LINE
5
56e
100
AcDbEntity
8
0-101
6
CONTINUOUS
62
4
100
AcDbLine
10
227.610000000000
20
330.020000000000
30
0.0
11
229.180000000000
21
329.830000000000
31
0.0
0
LINE
5
56f
100
AcDbEntity
8
0-101
6
CONTINUOUS
62
4
100
AcDbLine
10
229.250000000000
20
318.750000000000
30
0.0
11
224.390000000000
21
318.600000000000
31
0.0
0
LINE
5
570
100
AcDbEntity
8
0-101
6
CONTINUOUS
62
4
100
AcDbLine
10
229.560000000000
20
317.180000000000
30
0.0
11
224.700000000000
21
317.030000000000
31
0.0
0
LINE
5
571
100
AcDbEntity
8
0-101
6
CONTINUOUS
62
4
100
AcDbLine
10
229.880000000000
20
315.610000000000
30
0.0
11
225.010000000000
21
315.460000000000
31
0.0
0
LINE
5
572
100
AcDbEntity
8
0-101
6
CONTINUOUS
62
4
100
AcDbLine
10
228.940000000000
20
320.320000000000
30
0.0
11
224.070000000000
21
320.160000000000
31
0.0
0
LINE
5
573
100
AcDbEntity
8
0-101
6
CONTINUOUS
62
4
100
AcDbLine
10
219.860000000000
20
327.960000000000
30
0.0
11
219.940000000000
21
327.570000000000
31
0.0
0
LINE
5
574
100
AcDbEntity
8
0-101
6
CONTINUOUS
62
4
100
AcDbLine
10
221.720000000000
20
328.840000000000
30
0.0
11
220.350000000000
21
328.060000000000
31
0.0
0
LINE
5
575
100
AcDbEntity
8
0-101
6
CONTINUOUS
62
4
100
AcDbLine
10
230.510000000000
20
312.480000000000
30
0.0
11
225.640000000000
21
312.320000000000
31
0.0
0
LINE
5
576
100
AcDbEntity
8
0-101
6
CONTINUOUS
62
4
100
AcDbLine
10
230.190000000000
20
314.050000000000
30
0.0
11
225.330000000000
21
313.890000000000
31
0.0
0
LINE
5
577
100
AcDbEntity
8
0-101
6
CONTINUOUS
62
4
100
AcDbLine
10
230.820000000000
20
310.910000000000
30
0.0
11
225.950000000000
21
310.750000000000
31
0.0
0
LINE
5
578
100
AcDbEntity
8
0-101
6
CONTINUOUS
62
4
100
AcDbLine
10
231.130000000000
20
309.340000000000
30
0.0
11
226.270000000000
21
309.180000000000
31
0.0
0
LINE
5
579
100
AcDbEntity
8
0-101
6
CONTINUOUS
62
4
100
AcDbLine
10
232.690000000000
20
289.330000000000
30
0.0
11
230.410000000000
21
290.500000000000
31
0.0
0
LINE
5
57a
100
AcDbEntity
8
0-101
6
CONTINUOUS
62
4
100
AcDbLine
10
234.340000000000
20
291.290000000000
30
0.0
11
232.690000000000
21
289.330000000000
31
0.0
0
LINE
5
57b
100
AcDbEntity
8
0-101
6
CONTINUOUS
62
4
100
AcDbLine
10
219.940000000000
20
327.570000000000
30
0.0
11
229.750000000000
21
329.530000000000
31
0.0
0
LINE
5
57c
100
AcDbEntity
8
0-101
6
CONTINUOUS
62
4
100
AcDbLine
10
228.310000000000
20
323.460000000000
30
0.0
11
223.440000000000
21
323.300000000000
31
0.0
0
LINE
5
57d
100
AcDbEntity
8
0-101
6
CONTINUOUS
62
4
100
AcDbLine
10
228.620000000000
20
321.890000000000
30
0.0
11
223.760000000000
21
321.730000000000
31
0.0
0
LINE
5
57e
100
AcDbEntity
8
0-101
6
CONTINUOUS
62
4
100
AcDbLine
10
227.990000000000
20
325.030000000000
30
0.0
11
223.130000000000
21
324.870000000000
31
0.0
0
LINE
5
57f
100
AcDbEntity
8
0-101
6
CONTINUOUS
62
4
100
AcDbLine
10
231.450000000000
20
307.770000000000
30
0.0
11
226.580000000000
21
307.610000000000
31
0.0
0
LINE
5
580
100
AcDbEntity
8
0-101
6
CONTINUOUS
62
4
100
AcDbLine
10
231.760000000000
20
306.200000000000
30
0.0
11
226.900000000000
21
306.040000000000
31
0.0
0
LINE
5
581
100
AcDbEntity
8
0-101
6
CONTINUOUS
62
4
100
AcDbLine
10
232.070000000000
20
304.630000000000
30
0.0
11
227.210000000000
21
304.480000000000
31
0.0
0
LINE
5
582
100
AcDbEntity
8
0-101
6
CONTINUOUS
62
4
100
AcDbLine
10
232.390000000000
20
303.060000000000
30
0.0
11
227.520000000000
21
302.910000000000
31
0.0
0
LINE
5
583
100
AcDbEntity
8
0-101
6
CONTINUOUS
62
4
100
AcDbLine
10
232.700000000000
20
301.500000000000
30
0.0
11
227.840000000000
21
301.340000000000
31
0.0
0
LINE
5
584
100
AcDbEntity
8
0-101
6
CONTINUOUS
62
4
100
AcDbLine
10
233.020000000000
20
299.930000000000
30
0.0
11
228.150000000000
21
299.770000000000
31
0.0
0
LINE
5
585
100
AcDbEntity
8
0-101
6
CONTINUOUS
62
4
100
AcDbLine
10
233.330000000000
20
298.360000000000
30
0.0
11
228.460000000000
21
298.200000000000
31
0.0
0
LINE
5
586
100
AcDbEntity
8
0-101
6
CONTINUOUS
62
4
100
AcDbLine
10
233.640000000000
20
296.790000000000
30
0.0
11
228.780000000000
21
296.630000000000
31
0.0
0
LINE
5
587
100
AcDbEntity
8
0-101
6
CONTINUOUS
62
4
100
AcDbLine
10
233.960000000000
20
295.220000000000
30
0.0
11
229.090000000000
21
295.060000000000
31
0.0
0
LINE
5
588
100
AcDbEntity
8
0-101
6
CENTER2
62
4
100
AcDbLine
10
224.650000000000
20
329.530000000000
30
0.0
11
234.000000000000
21
282.790000000000
31
0.0
0
LINE
5
589
100
AcDbEntity
8
0-101
6
CONTINUOUS
62
4
100
AcDbLine
10
234.340000000000
20
291.290000000000
30
0.0
11
226.800000000000
21
328.940000000000
31
0.0
0
LINE
5
58a
100
AcDbEntity
8
0-101
6
CONTINUOUS
62
4
100
AcDbLine
10
230.410000000000
20
290.500000000000
30
0.0
11
222.880000000000
21
328.160000000000
31
0.0
0
LINE
5
58b
100
AcDbEntity
8
0-101
6
CONTINUOUS
62
4
100
AcDbLine
10
294.420000000000
20
314.830000000000
30
0.0
11
314.030000000000
21
344.250000000000
31
0.0
0
LINE
5
58c
100
AcDbEntity
8
0-101
6
CONTINUOUS
62
4
100
AcDbLine
10
266.680000000000
20
309.280000000000
30
0.0
11
286.290000000000
21
338.700000000000
31
0.0
0
LINE
5
58d
100
AcDbEntity
8
0-101
6
CONTINUOUS
62
4
100
AcDbLine
10
238.950000000000
20
303.730000000000
30
0.0
11
258.560000000000
21
333.150000000000
31
0.0
0
LINE
5
58e
100
AcDbEntity
8
0-101
6
CONTINUOUS
62
4
100
AcDbLine
10
211.210000000000
20
298.190000000000
30
0.0
11
230.820000000000
21
327.600000000000
31
0.0
0
LINE
5
58f
100
AcDbEntity
8
0-101
6
CONTINUOUS
62
4
100
AcDbLine
10
183.480000000000
20
292.640000000000
30
0.0
11
203.090000000000
21
322.060000000000
31
0.0
0
LINE
5
590
100
AcDbEntity
8
0-101
6
CONTINUOUS
62
4
100
AcDbLine
10
155.740000000000
20
287.090000000000
30
0.0
11
175.350000000000
21
316.510000000000
31
0.0
0
LINE
5
591
100
AcDbEntity
8
0-101
6
CONTINUOUS
62
4
100
AcDbLine
10
135.200000000000
20
292.340000000000
30
0.0
11
147.620000000000
21
310.960000000000
31
0.0
0
LINE
5
592
100
AcDbEntity
8
0-101
6
CONTINUOUS
62
4
100
AcDbLine
10
135.130000000000
20
308.470000000000
30
0.0
11
164.550000000000
21
288.860000000000
31
0.0
0
LINE
5
593
100
AcDbEntity
8
0-101
6
CONTINUOUS
62
4
100
AcDbLine
10
162.870000000000
20
314.010000000000
30
0.0
11
192.290000000000
21
294.400000000000
31
0.0
0
LINE
5
594
100
AcDbEntity
8
0-101
6
CONTINUOUS
62
4
100
AcDbLine
10
190.600000000000
20
319.560000000000
30
0.0
11
220.020000000000
21
299.950000000000
31
0.0
0
LINE
5
595
100
AcDbEntity
8
0-101
6
CONTINUOUS
62
4
100
AcDbLine
10
218.340000000000
20
325.110000000000
30
0.0
11
247.760000000000
21
305.500000000000
31
0.0
0
LINE
5
596
100
AcDbEntity
8
0-101
6
CONTINUOUS
62
4
100
AcDbLine
10
246.070000000000
20
330.650000000000
30
0.0
11
275.490000000000
21
311.040000000000
31
0.0
0
LINE
5
597
100
AcDbEntity
8
0-101
6
CONTINUOUS
62
4
100
AcDbLine
10
273.810000000000
20
336.200000000000
30
0.0
11
303.230000000000
21
316.590000000000
31
0.0
0
LINE
5
598
100
AcDbEntity
8
0-101
6
CONTINUOUS
62
3
100
AcDbLine
10
206.090000000000
20
294.820000000000
30
0.0
11
224.800000000000
21
201.270000000000
31
0.0
0
LINE
5
599
100
AcDbEntity
8
0-101
6
CONTINUOUS
62
7
100
AcDbLine
10
195.270000000000
20
346.190000000000
30
0.0
11
195.390000000000
21
345.610000000000
31
0.0
0
LINE
5
59a
100
AcDbEntity
8
0-101
6
CONTINUOUS
62
7
100
AcDbLine
10
195.270000000000
20
346.190000000000
30
0.0
11
180.560000000000
21
343.250000000000
31
0.0
0
LINE
5
59b
100
AcDbEntity
8
0-101
6
CONTINUOUS
62
7
100
AcDbLine
10
195.390000000000
20
345.610000000000
30
0.0
11
180.680000000000
21
342.660000000000
31
0.0
0
LINE
5
59c
100
AcDbEntity
8
0-101
6
CONTINUOUS
62
7
100
AcDbLine
10
200.060000000000
20
347.760000000000
30
0.0
11
180.440000000000
21
343.840000000000
31
0.0
0
LINE
5
59d
100
AcDbEntity
8
0-101
6
CONTINUOUS
62
7
100
AcDbLine
10
199.940000000000
20
348.350000000000
30
0.0
11
180.330000000000
21
344.430000000000
31
0.0
0
LINE
5
59e
100
AcDbEntity
8
0-101
6
CONTINUOUS
62
7
100
AcDbLine
10
224.450000000000
20
353.250000000000
30
0.0
11
224.570000000000
21
352.670000000000
31
0.0
0
LINE
5
59f
100
AcDbEntity
8
0-101
6
CONTINUOUS
62
7
100
AcDbLine
10
229.470000000000
20
353.650000000000
30
0.0
11
224.570000000000
21
352.670000000000
31
0.0
0
LINE
5
5a0
100
AcDbEntity
8
0-101
6
CONTINUOUS
62
7
100
AcDbLine
10
229.360000000000
20
354.230000000000
30
0.0
11
224.450000000000
21
353.250000000000
31
0.0
0
LINE
5
5a1
100
AcDbEntity
8
0-101
6
CONTINUOUS
62
7
100
AcDbLine
10
210.050000000000
20
349.150000000000
30
0.0
11
229.590000000000
21
353.060000000000
31
0.0
0
LINE
5
5a2
100
AcDbEntity
8
0-101
6
CONTINUOUS
62
7
100
AcDbLine
10
200.340000000000
20
349.040000000000
30
0.0
11
180.210000000000
21
345.020000000000
31
0.0
0
LINE
5
5a3
100
AcDbEntity
8
0-101
6
CONTINUOUS
62
7
100
AcDbLine
10
210.020000000000
20
348.550000000000
30
0.0
11
200.480000000000
21
349.050000000000
31
0.0
0
LINE
5
5a4
100
AcDbEntity
8
0-101
6
CONTINUOUS
62
7
100
AcDbLine
10
210.170000000000
20
348.560000000000
30
0.0
11
229.710000000000
21
352.470000000000
31
0.0
0
LINE
5
5a5
100
AcDbEntity
8
0-101
6
CONTINUOUS
62
7
100
AcDbLine
10
200.220000000000
20
349.630000000000
30
0.0
11
180.090000000000
21
345.610000000000
31
0.0
0
LINE
5
5a6
100
AcDbEntity
8
0-101
6
CONTINUOUS
62
7
100
AcDbLine
10
200.370000000000
20
349.640000000000
30
0.0
11
209.900000000000
21
349.140000000000
31
0.0
0
LINE
5
5a7
100
AcDbEntity
8
0-101
6
CONTINUOUS
62
7
100
AcDbLine
10
205.270000000000
20
330.620000000000
30
0.0
11
207.050000000000
21
339.220000000000
31
0.0
0
LINE
5
5a8
100
AcDbEntity
8
0-101
6
CONTINUOUS
62
7
100
AcDbLine
10
207.050000000000
20
339.220000000000
30
0.0
11
207.640000000000
21
339.100000000000
31
0.0
0
LINE
5
5a9
100
AcDbEntity
8
0-101
6
CONTINUOUS
62
7
100
AcDbLine
10
205.860000000000
20
330.490000000000
30
0.0
11
207.640000000000
21
339.100000000000
31
0.0
0
LINE
5
5aa
100
AcDbEntity
8
0-101
6
CONTINUOUS
62
4
100
AcDbLine
10
218.400000000000
20
339.090000000000
30
0.0
11
216.150000000000
21
350.370000000000
31
0.0
0
LINE
5
5ab
100
AcDbEntity
8
0-101
6
CONTINUOUS
62
4
100
AcDbLine
10
218.600000000000
20
350.860000000000
30
0.0
11
220.850000000000
21
339.580000000000
31
0.0
0
LINE
5
5ac
100
AcDbEntity
8
0-101
6
CONTINUOUS
62
4
100
AcDbLine
10
212.390000000000
20
350.030000000000
30
0.0
11
222.190000000000
21
351.990000000000
31
0.0
0
LINE
5
5ad
100
AcDbEntity
8
0-101
6
CONTINUOUS
62
4
100
AcDbLine
10
214.250000000000
20
350.910000000000
30
0.0
11
220.140000000000
21
352.080000000000
31
0.0
0
LINE
5
5ae
100
AcDbEntity
8
0-101
6
CONTINUOUS
62
4
100
AcDbLine
10
222.190000000000
20
351.990000000000
30
0.0
11
222.270000000000
21
351.590000000000
31
0.0
0
LINE
5
5af
100
AcDbEntity
8
0-101
6
CONTINUOUS
62
4
100
AcDbLine
10
220.140000000000
20
352.080000000000
30
0.0
11
221.710000000000
21
351.890000000000
31
0.0
0
LINE
5
5b0
100
AcDbEntity
8
0-101
6
CONTINUOUS
62
4
100
AcDbLine
10
219.510000000000
20
347.550000000000
30
0.0
11
216.470000000000
21
347.460000000000
31
0.0
0
LINE
5
5b1
100
AcDbEntity
8
0-101
6
CONTINUOUS
62
4
100
AcDbLine
10
219.710000000000
20
346.570000000000
30
0.0
11
216.670000000000
21
346.480000000000
31
0.0
0
LINE
5
5b2
100
AcDbEntity
8
0-101
6
CONTINUOUS
62
4
100
AcDbLine
10
219.900000000000
20
345.590000000000
30
0.0
11
216.860000000000
21
345.490000000000
31
0.0
0
LINE
5
5b3
100
AcDbEntity
8
0-101
6
CONTINUOUS
62
4
100
AcDbLine
10
219.320000000000
20
348.530000000000
30
0.0
11
216.280000000000
21
348.440000000000
31
0.0
0
LINE
5
5b4
100
AcDbEntity
8
0-101
6
CONTINUOUS
62
4
100
AcDbLine
10
212.390000000000
20
350.030000000000
30
0.0
11
212.470000000000
21
349.630000000000
31
0.0
0
LINE
5
5b5
100
AcDbEntity
8
0-101
6
CONTINUOUS
62
4
100
AcDbLine
10
214.250000000000
20
350.910000000000
30
0.0
11
212.880000000000
21
350.120000000000
31
0.0
0
LINE
5
5b6
100
AcDbEntity
8
0-101
6
CONTINUOUS
62
4
100
AcDbLine
10
220.300000000000
20
343.630000000000
30
0.0
11
217.260000000000
21
343.530000000000
31
0.0
0
LINE
5
5b7
100
AcDbEntity
8
0-101
6
CONTINUOUS
62
4
100
AcDbLine
10
220.100000000000
20
344.610000000000
30
0.0
11
217.060000000000
21
344.510000000000
31
0.0
0
LINE
5
5b8
100
AcDbEntity
8
0-101
6
CONTINUOUS
62
4
100
AcDbLine
10
220.490000000000
20
342.650000000000
30
0.0
11
217.450000000000
21
342.550000000000
31
0.0
0
LINE
5
5b9
100
AcDbEntity
8
0-101
6
CONTINUOUS
62
4
100
AcDbLine
10
220.690000000000
20
341.670000000000
30
0.0
11
217.650000000000
21
341.570000000000
31
0.0
0
LINE
5
5ba
100
AcDbEntity
8
0-101
6
CONTINUOUS
62
4
100
AcDbLine
10
219.820000000000
20
338.360000000000
30
0.0
11
218.400000000000
21
339.090000000000
31
0.0
0
LINE
5
5bb
100
AcDbEntity
8
0-101
6
CONTINUOUS
62
4
100
AcDbLine
10
220.850000000000
20
339.580000000000
30
0.0
11
219.820000000000
21
338.360000000000
31
0.0
0
LINE
5
5bc
100
AcDbEntity
8
0-101
6
CONTINUOUS
62
4
100
AcDbLine
10
212.470000000000
20
349.630000000000
30
0.0
11
222.270000000000
21
351.590000000000
31
0.0
0
LINE
5
5bd
100
AcDbEntity
8
0-101
6
DOT
62
7
100
AcDbLine
10
301.300000000000
20
365.600000000000
30
0.0
11
301.180000000000
21
366.190000000000
31
0.0
0
LINE
5
5be
100
AcDbEntity
8
0-101
6
DOT
62
7
100
AcDbLine
10
319.540000000000
20
369.250000000000
30
0.0
11
301.300000000000
21
365.600000000000
31
0.0
0
LINE
5
5bf
100
AcDbEntity
8
0-101
6
CONTINUOUS
62
7
100
AcDbLine
10
200.060000000000
20
350.820000000000
30
0.0
11
179.860000000000
21
346.780000000000
31
0.0
0
LINE
5
5c0
100
AcDbEntity
8
0-101
6
CONTINUOUS
62
7
100
AcDbLine
10
200.170000000000
20
350.230000000000
30
0.0
11
179.970000000000
21
346.190000000000
31
0.0
0
LINE
5
5c1
100
AcDbEntity
8
0-101
6
CONTINUOUS
62
7
100
AcDbLine
10
319.820000000000
20
369.880000000000
30
0.0
11
127.390000000000
21
331.390000000000
31
0.0
0
LINE
5
5c2
100
AcDbEntity
8
0-101
6
CONTINUOUS
62
4
100
AcDbLine
10
322.150000000000
20
320.380000000000
30
0.0
11
327.000000000000
21
327.650000000000
31
0.0
0
LINE
5
5c3
100
AcDbEntity
8
0-101
6
CONTINUOUS
62
4
100
AcDbLine
10
301.540000000000
20
341.750000000000
30
0.0
11
327.670000000000
21
324.330000000000
31
0.0
0
LINE
5
5c4
100
AcDbEntity
8
0-101
6
CONTINUOUS
62
3
100
AcDbLine
10
328.220000000000
20
321.590000000000
30
0.0
11
137.000000000000
21
283.350000000000
31
0.0
0
LINE
5
5c5
100
AcDbEntity
8
0-101
6
CONTINUOUS
62
3
100
AcDbLine
10
323.310000000000
20
346.100000000000
30
0.0
11
132.100000000000
21
307.860000000000
31
0.0
0
LINE
5
5c6
100
AcDbEntity
8
0-101
6
CONTINUOUS
62
3
100
AcDbLine
10
328.220000000000
20
321.590000000000
30
0.0
11
323.310000000000
21
346.100000000000
31
0.0
0
LINE
5
5c7
100
AcDbEntity
8
0-101
6
CONTINUOUS
62
3
100
AcDbLine
10
384.850000000000
20
210.630000000000
30
0.0
11
429.370000000000
21
201.720000000000
31
0.0
0
LINE
5
5c8
100
AcDbEntity
8
0-101
6
CONTINUOUS
62
3
100
AcDbLine
10
429.370000000000
20
201.720000000000
30
0.0
11
448.080000000000
21
295.270000000000
31
0.0
0
LINE
5
5c9
100
AcDbEntity
8
0-101
6
CONTINUOUS
62
3
100
AcDbLine
10
404.010000000000
20
306.430000000000
30
0.0
11
448.530000000000
21
297.520000000000
31
0.0
0
LINE
5
5ca
100
AcDbEntity
8
0-101
6
CONTINUOUS
62
3
100
AcDbLine
10
448.080000000000
20
295.270000000000
30
0.0
11
403.560000000000
21
304.170000000000
31
0.0
0
LINE
5
5cb
100
AcDbEntity
8
0-101
6
CONTINUOUS
62
3
100
AcDbLine
10
397.840000000000
20
287.270000000000
30
0.0
11
401.310000000000
21
304.620000000000
31
0.0
0
LINE
5
5cc
100
AcDbEntity
8
0-101
6
CONTINUOUS
62
3
100
AcDbLine
10
403.560000000000
20
304.170000000000
30
0.0
11
400.090000000000
21
286.820000000000
31
0.0
0
LINE
5
5cd
100
AcDbEntity
8
0-101
6
CONTINUOUS
62
3
100
AcDbLine
10
400.090000000000
20
286.820000000000
30
0.0
11
397.840000000000
21
287.270000000000
31
0.0
0
LINE
5
5ce
100
AcDbEntity
8
0-101
6
CONTINUOUS
62
3
100
AcDbLine
10
388.330000000000
20
227.980000000000
30
0.0
11
384.850000000000
21
210.630000000000
31
0.0
0
LINE
5
5cf
100
AcDbEntity
8
0-101
6
CONTINUOUS
62
3
100
AcDbLine
10
382.600000000000
20
211.080000000000
30
0.0
11
386.070000000000
21
228.430000000000
31
0.0
0
LINE
5
5d0
100
AcDbEntity
8
0-101
6
CONTINUOUS
62
3
100
AcDbLine
10
386.070000000000
20
228.430000000000
30
0.0
11
388.330000000000
21
227.980000000000
31
0.0
0
LINE
5
5d1
100
AcDbEntity
8
0-101
6
CONTINUOUS
62
3
100
AcDbLine
10
428.920000000000
20
199.470000000000
30
0.0
11
384.400000000000
21
208.370000000000
31
0.0
0
LINE
5
5d2
100
AcDbEntity
8
0-101
6
CONTINUOUS
62
4
100
AcDbLine
10
436.570000000000
20
327.960000000000
30
0.0
11
426.760000000000
21
329.920000000000
31
0.0
0
LINE
5
5d3
100
AcDbEntity
8
0-101
6
CONTINUOUS
62
4
100
AcDbLine
10
434.710000000000
20
328.840000000000
30
0.0
11
428.820000000000
21
330.020000000000
31
0.0
0
LINE
5
5d4
100
AcDbEntity
8
0-101
6
CONTINUOUS
62
4
100
AcDbLine
10
426.760000000000
20
329.920000000000
30
0.0
11
426.690000000000
21
329.530000000000
31
0.0
0
LINE
5
5d5
100
AcDbEntity
8
0-101
6
CONTINUOUS
62
4
100
AcDbLine
10
428.820000000000
20
330.020000000000
30
0.0
11
427.250000000000
21
329.830000000000
31
0.0
0
LINE
5
5d6
100
AcDbEntity
8
0-101
6
CONTINUOUS
62
4
100
AcDbLine
10
427.180000000000
20
318.750000000000
30
0.0
11
432.050000000000
21
318.600000000000
31
0.0
0
LINE
5
5d7
100
AcDbEntity
8
0-101
6
CONTINUOUS
62
4
100
AcDbLine
10
426.870000000000
20
317.180000000000
30
0.0
11
431.730000000000
21
317.030000000000
31
0.0
0
LINE
5
5d8
100
AcDbEntity
8
0-101
6
CONTINUOUS
62
4
100
AcDbLine
10
426.550000000000
20
315.610000000000
30
0.0
11
431.420000000000
21
315.460000000000
31
0.0
0
LINE
5
5d9
100
AcDbEntity
8
0-101
6
CONTINUOUS
62
4
100
AcDbLine
10
427.500000000000
20
320.320000000000
30
0.0
11
432.360000000000
21
320.160000000000
31
0.0
0
LINE
5
5da
100
AcDbEntity
8
0-101
6
CONTINUOUS
62
4
100
AcDbLine
10
436.570000000000
20
327.960000000000
30
0.0
11
436.490000000000
21
327.570000000000
31
0.0
0
LINE
5
5db
100
AcDbEntity
8
0-101
6
CONTINUOUS
62
4
100
AcDbLine
10
434.710000000000
20
328.840000000000
30
0.0
11
436.080000000000
21
328.060000000000
31
0.0
0
LINE
5
5dc
100
AcDbEntity
8
0-101
6
CONTINUOUS
62
4
100
AcDbLine
10
425.930000000000
20
312.480000000000
30
0.0
11
430.790000000000
21
312.320000000000
31
0.0
0
LINE
5
5dd
100
AcDbEntity
8
0-101
6
CONTINUOUS
62
4
100
AcDbLine
10
426.240000000000
20
314.050000000000
30
0.0
11
431.110000000000
21
313.890000000000
31
0.0
0
LINE
5
5de
100
AcDbEntity
8
0-101
6
CONTINUOUS
62
4
100
AcDbLine
10
425.610000000000
20
310.910000000000
30
0.0
11
430.480000000000
21
310.750000000000
31
0.0
0
LINE
5
5df
100
AcDbEntity
8
0-101
6
CONTINUOUS
62
4
100
AcDbLine
10
425.300000000000
20
309.340000000000
30
0.0
11
430.160000000000
21
309.180000000000
31
0.0
0
LINE
5
5e0
100
AcDbEntity
8
0-101
6
CONTINUOUS
62
4
100
AcDbLine
10
423.740000000000
20
289.330000000000
30
0.0
11
426.020000000000
21
290.500000000000
31
0.0
0
LINE
5
5e1
100
AcDbEntity
8
0-101
6
CONTINUOUS
62
4
100
AcDbLine
10
422.100000000000
20
291.290000000000
30
0.0
11
423.740000000000
21
289.330000000000
31
0.0
0
LINE
5
5e2
100
AcDbEntity
8
0-101
6
CONTINUOUS
62
4
100
AcDbLine
10
436.490000000000
20
327.570000000000
30
0.0
11
426.690000000000
21
329.530000000000
31
0.0
0
LINE
5
5e3
100
AcDbEntity
8
0-101
6
CONTINUOUS
62
4
100
AcDbLine
10
428.120000000000
20
323.460000000000
30
0.0
11
432.990000000000
21
323.300000000000
31
0.0
0
LINE
5
5e4
100
AcDbEntity
8
0-101
6
CONTINUOUS
62
4
100
AcDbLine
10
427.810000000000
20
321.890000000000
30
0.0
11
432.670000000000
21
321.730000000000
31
0.0
0
LINE
5
5e5
100
AcDbEntity
8
0-101
6
CONTINUOUS
62
4
100
AcDbLine
10
428.440000000000
20
325.030000000000
30
0.0
11
433.300000000000
21
324.870000000000
31
0.0
0
LINE
5
5e6
100
AcDbEntity
8
0-101
6
CONTINUOUS
62
4
100
AcDbLine
10
424.990000000000
20
307.770000000000
30
0.0
11
429.850000000000
21
307.610000000000
31
0.0
0
LINE
5
5e7
100
AcDbEntity
8
0-101
6
CONTINUOUS
62
4
100
AcDbLine
10
424.670000000000
20
306.200000000000
30
0.0
11
429.540000000000
21
306.040000000000
31
0.0
0
LINE
5
5e8
100
AcDbEntity
8
0-101
6
CONTINUOUS
62
4
100
AcDbLine
10
424.360000000000
20
304.630000000000
30
0.0
11
429.220000000000
21
304.480000000000
31
0.0
0
LINE
5
5e9
100
AcDbEntity
8
0-101
6
CONTINUOUS
62
4
100
AcDbLine
10
424.040000000000
20
303.060000000000
30
0.0
11
428.910000000000
21
302.910000000000
31
0.0
0
LINE
5
5ea
100
AcDbEntity
8
0-101
6
CONTINUOUS
62
4
100
AcDbLine
10
423.730000000000
20
301.500000000000
30
0.0
11
428.590000000000
21
301.340000000000
31
0.0
0
LINE
5
5eb
100
AcDbEntity
8
0-101
6
CONTINUOUS
62
4
100
AcDbLine
10
423.420000000000
20
299.930000000000
30
0.0
11
428.280000000000
21
299.770000000000
31
0.0
0
LINE
5
5ec
100
AcDbEntity
8
0-101
6
CONTINUOUS
62
4
100
AcDbLine
10
423.100000000000
20
298.360000000000
30
0.0
11
427.970000000000
21
298.200000000000
31
0.0
0
LINE
5
5ed
100
AcDbEntity
8
0-101
6
CONTINUOUS
62
4
100
AcDbLine
10
422.790000000000
20
296.790000000000
30
0.0
11
427.650000000000
21
296.630000000000
31
0.0
0
LINE
5
5ee
100
AcDbEntity
8
0-101
6
CONTINUOUS
62
4
100
AcDbLine
10
422.480000000000
20
295.220000000000
30
0.0
11
427.340000000000
21
295.060000000000
31
0.0
0
LINE
5
5ef
100
AcDbEntity
8
0-101
6
CENTER2
62
4
100
AcDbLine
10
431.790000000000
20
329.530000000000
30
0.0
11
422.440000000000
21
282.790000000000
31
0.0
0
LINE
5
5f0
100
AcDbEntity
8
0-101
6
CONTINUOUS
62
4
100
AcDbLine
10
422.100000000000
20
291.290000000000
30
0.0
11
429.630000000000
21
328.940000000000
31
0.0
0
LINE
5
5f1
100
AcDbEntity
8
0-101
6
CONTINUOUS
62
4
100
AcDbLine
10
426.020000000000
20
290.500000000000
30
0.0
11
433.550000000000
21
328.160000000000
31
0.0
0
LINE
5
5f2
100
AcDbEntity
8
0-101
6
CONTINUOUS
62
4
100
AcDbLine
10
362.020000000000
20
314.830000000000
30
0.0
11
342.400000000000
21
344.250000000000
31
0.0
0
LINE
5
5f3
100
AcDbEntity
8
0-101
6
CONTINUOUS
62
4
100
AcDbLine
10
389.750000000000
20
309.280000000000
30
0.0
11
370.140000000000
21
338.700000000000
31
0.0
0
LINE
5
5f4
100
AcDbEntity
8
0-101
6
CONTINUOUS
62
4
100
AcDbLine
10
417.490000000000
20
303.730000000000
30
0.0
11
397.870000000000
21
333.150000000000
31
0.0
0
LINE
5
5f5
100
AcDbEntity
8
0-101
6
CONTINUOUS
62
4
100
AcDbLine
10
445.220000000000
20
298.190000000000
30
0.0
11
425.610000000000
21
327.600000000000
31
0.0
0
LINE
5
5f6
100
AcDbEntity
8
0-101
6
CONTINUOUS
62
4
100
AcDbLine
10
472.960000000000
20
292.640000000000
30
0.0
11
453.340000000000
21
322.060000000000
31
0.0
0
LINE
5
5f7
100
AcDbEntity
8
0-101
6
CONTINUOUS
62
4
100
AcDbLine
10
500.690000000000
20
287.090000000000
30
0.0
11
481.080000000000
21
316.510000000000
31
0.0
0
LINE
5
5f8
100
AcDbEntity
8
0-101
6
CONTINUOUS
62
4
100
AcDbLine
10
521.230000000000
20
292.340000000000
30
0.0
11
508.810000000000
21
310.960000000000
31
0.0
0
LINE
5
5f9
100
AcDbEntity
8
0-101
6
CONTINUOUS
62
4
100
AcDbLine
10
521.300000000000
20
308.470000000000
30
0.0
11
491.880000000000
21
288.860000000000
31
0.0
0
LINE
5
5fa
100
AcDbEntity
8
0-101
6
CONTINUOUS
62
4
100
AcDbLine
10
493.560000000000
20
314.010000000000
30
0.0
11
464.150000000000
21
294.400000000000
31
0.0
0
LINE
5
5fb
100
AcDbEntity
8
0-101
6
CONTINUOUS
62
4
100
AcDbLine
10
465.830000000000
20
319.560000000000
30
0.0
11
436.410000000000
21
299.950000000000
31
0.0
0
LINE
5
5fc
100
AcDbEntity
8
0-101
6
CONTINUOUS
62
4
100
AcDbLine
10
438.090000000000
20
325.110000000000
30
0.0
11
408.680000000000
21
305.500000000000
31
0.0
0
LINE
5
5fd
100
AcDbEntity
8
0-101
6
CONTINUOUS
62
4
100
AcDbLine
10
410.360000000000
20
330.650000000000
30
0.0
11
380.940000000000
21
311.040000000000
31
0.0
0
LINE
5
5fe
100
AcDbEntity
8
0-101
6
CONTINUOUS
62
4
100
AcDbLine
10
382.620000000000
20
336.200000000000
30
0.0
11
353.210000000000
21
316.590000000000
31
0.0
0
LINE
5
5ff
100
AcDbEntity
8
0-101
6
CONTINUOUS
62
3
100
AcDbLine
10
450.340000000000
20
294.820000000000
30
0.0
11
431.630000000000
21
201.270000000000
31
0.0
0
LINE
5
600
100
AcDbEntity
8
0-101
6
CONTINUOUS
62
7
100
AcDbLine
10
461.160000000000
20
346.190000000000
30
0.0
11
461.040000000000
21
345.610000000000
31
0.0
0
LINE
5
601
100
AcDbEntity
8
0-101
6
CONTINUOUS
62
7
100
AcDbLine
10
461.160000000000
20
346.190000000000
30
0.0
11
475.870000000000
21
343.250000000000
31
0.0
0
LINE
5
602
100
AcDbEntity
8
0-101
6
CONTINUOUS
62
7
100
AcDbLine
10
461.040000000000
20
345.610000000000
30
0.0
11
475.750000000000
21
342.660000000000
31
0.0
0
LINE
5
603
100
AcDbEntity
8
0-101
6
CONTINUOUS
62
7
100
AcDbLine
10
456.380000000000
20
347.760000000000
30
0.0
11
475.990000000000
21
343.840000000000
31
0.0
0
LINE
5
604
100
AcDbEntity
8
0-101
6
CONTINUOUS
62
7
100
AcDbLine
10
456.490000000000
20
348.350000000000
30
0.0
11
476.110000000000
21
344.430000000000
31
0.0
0
LINE
5
605
100
AcDbEntity
8
0-101
6
CONTINUOUS
62
7
100
AcDbLine
10
431.980000000000
20
353.250000000000
30
0.0
11
431.860000000000
21
352.670000000000
31
0.0
0
LINE
5
606
100
AcDbEntity
8
0-101
6
CONTINUOUS
62
7
100
AcDbLine
10
426.960000000000
20
353.650000000000
30
0.0
11
431.860000000000
21
352.670000000000
31
0.0
0
LINE
5
607
100
AcDbEntity
8
0-101
6
CONTINUOUS
62
7
100
AcDbLine
10
427.080000000000
20
354.230000000000
30
0.0
11
431.980000000000
21
353.250000000000
31
0.0
0
LINE
5
608
100
AcDbEntity
8
0-101
6
CONTINUOUS
62
7
100
AcDbLine
10
446.380000000000
20
349.150000000000
30
0.0
11
426.840000000000
21
353.060000000000
31
0.0
0
LINE
5
609
100
AcDbEntity
8
0-101
6
CONTINUOUS
62
7
100
AcDbLine
10
456.100000000000
20
349.040000000000
30
0.0
11
476.220000000000
21
345.020000000000
31
0.0
0
LINE
5
60a
100
AcDbEntity
8
0-101
6
CONTINUOUS
62
7
100
AcDbLine
10
446.410000000000
20
348.550000000000
30
0.0
11
455.950000000000
21
349.050000000000
31
0.0
0
LINE
5
60b
100
AcDbEntity
8
0-101
6
CONTINUOUS
62
7
100
AcDbLine
10
446.260000000000
20
348.560000000000
30
0.0
11
426.720000000000
21
352.470000000000
31
0.0
0
LINE
5
60c
100
AcDbEntity
8
0-101
6
CONTINUOUS
62
7
100
AcDbLine
10
456.210000000000
20
349.630000000000
30
0.0
11
476.340000000000
21
345.610000000000
31
0.0
0
LINE
5
60d
100
AcDbEntity
8
0-101
6
CONTINUOUS
62
7
100
AcDbLine
10
456.070000000000
20
349.640000000000
30
0.0
11
446.530000000000
21
349.140000000000
31
0.0
0
LINE
5
60e
100
AcDbEntity
8
0-101
6
CONTINUOUS
62
4
100
AcDbLine
10
438.030000000000
20
339.090000000000
30
0.0
11
440.290000000000
21
350.370000000000
31
0.0
0
LINE
5
60f
100
AcDbEntity
8
0-101
6
CONTINUOUS
62
4
100
AcDbLine
10
437.840000000000
20
350.860000000000
30
0.0
11
435.580000000000
21
339.580000000000
31
0.0
0
LINE
5
610
100
AcDbEntity
8
0-101
6
CONTINUOUS
62
4
100
AcDbLine
10
444.040000000000
20
350.030000000000
30
0.0
11
434.240000000000
21
351.990000000000
31
0.0
0
LINE
5
611
100
AcDbEntity
8
0-101
6
CONTINUOUS
62
4
100
AcDbLine
10
442.180000000000
20
350.910000000000
30
0.0
11
436.300000000000
21
352.080000000000
31
0.0
0
LINE
5
612
100
AcDbEntity
8
0-101
6
CONTINUOUS
62
4
100
AcDbLine
10
434.240000000000
20
351.990000000000
30
0.0
11
434.160000000000
21
351.590000000000
31
0.0
0
LINE
5
613
100
AcDbEntity
8
0-101
6
CONTINUOUS
62
4
100
AcDbLine
10
436.300000000000
20
352.080000000000
30
0.0
11
434.730000000000
21
351.890000000000
31
0.0
0
LINE
5
614
100
AcDbEntity
8
0-101
6
CONTINUOUS
62
4
100
AcDbLine
10
436.920000000000
20
347.550000000000
30
0.0
11
439.960000000000
21
347.460000000000
31
0.0
0
LINE
5
615
100
AcDbEntity
8
0-101
6
CONTINUOUS
62
4
100
AcDbLine
10
436.720000000000
20
346.570000000000
30
0.0
11
439.760000000000
21
346.480000000000
31
0.0
0
LINE
5
616
100
AcDbEntity
8
0-101
6
CONTINUOUS
62
4
100
AcDbLine
10
436.530000000000
20
345.590000000000
30
0.0
11
439.570000000000
21
345.490000000000
31
0.0
0
LINE
5
617
100
AcDbEntity
8
0-101
6
CONTINUOUS
62
4
100
AcDbLine
10
437.120000000000
20
348.530000000000
30
0.0
11
440.160000000000
21
348.440000000000
31
0.0
0
LINE
5
618
100
AcDbEntity
8
0-101
6
CONTINUOUS
62
4
100
AcDbLine
10
444.040000000000
20
350.030000000000
30
0.0
11
443.960000000000
21
349.630000000000
31
0.0
0
LINE
5
619
100
AcDbEntity
8
0-101
6
CONTINUOUS
62
4
100
AcDbLine
10
442.180000000000
20
350.910000000000
30
0.0
11
443.550000000000
21
350.120000000000
31
0.0
0
LINE
5
61a
100
AcDbEntity
8
0-101
6
CONTINUOUS
62
4
100
AcDbLine
10
436.140000000000
20
343.630000000000
30
0.0
11
439.180000000000
21
343.530000000000
31
0.0
0
LINE
5
61b
100
AcDbEntity
8
0-101
6
CONTINUOUS
62
4
100
AcDbLine
10
436.330000000000
20
344.610000000000
30
0.0
11
439.370000000000
21
344.510000000000
31
0.0
0
LINE
5
61c
100
AcDbEntity
8
0-101
6
CONTINUOUS
62
4
100
AcDbLine
10
435.940000000000
20
342.650000000000
30
0.0
11
438.980000000000
21
342.550000000000
31
0.0
0
LINE
5
61d
100
AcDbEntity
8
0-101
6
CONTINUOUS
62
4
100
AcDbLine
10
435.740000000000
20
341.670000000000
30
0.0
11
438.780000000000
21
341.570000000000
31
0.0
0
LINE
5
61e
100
AcDbEntity
8
0-101
6
CONTINUOUS
62
4
100
AcDbLine
10
436.610000000000
20
338.360000000000
30
0.0
11
438.030000000000
21
339.090000000000
31
0.0
0
LINE
5
61f
100
AcDbEntity
8
0-101
6
CONTINUOUS
62
4
100
AcDbLine
10
435.580000000000
20
339.580000000000
30
0.0
11
436.610000000000
21
338.360000000000
31
0.0
0
LINE
5
620
100
AcDbEntity
8
0-101
6
CONTINUOUS
62
4
100
AcDbLine
10
443.960000000000
20
349.630000000000
30
0.0
11
434.160000000000
21
351.590000000000
31
0.0
0
LINE
5
621
100
AcDbEntity
8
0-101
6
CONTINUOUS
62
7
100
AcDbLine
10
333.260000000000
20
353.110000000000
30
0.0
11
336.610000000000
21
369.880000000000
31
0.0
0
LINE
5
622
100
AcDbEntity
8
0-101
6
CONTINUOUS
62
7
100
AcDbLine
10
456.380000000000
20
350.820000000000
30
0.0
11
476.580000000000
21
346.780000000000
31
0.0
0
LINE
5
623
100
AcDbEntity
8
0-101
6
CONTINUOUS
62
7
100
AcDbLine
10
456.260000000000
20
350.230000000000
30
0.0
11
476.460000000000
21
346.190000000000
31
0.0
0
LINE
5
624
100
AcDbEntity
8
0-101
6
CONTINUOUS
62
7
100
AcDbLine
10
336.610000000000
20
369.880000000000
30
0.0
11
529.040000000000
21
331.390000000000
31
0.0
0
LINE
5
625
100
AcDbEntity
8
0-101
6
CONTINUOUS
62
4
100
AcDbLine
10
334.280000000000
20
320.380000000000
30
0.0
11
329.430000000000
21
327.650000000000
31
0.0
0
LINE
5
626
100
AcDbEntity
8
0-101
6
CONTINUOUS
62
4
100
AcDbLine
10
354.890000000000
20
341.750000000000
30
0.0
11
328.770000000000
21
324.330000000000
31
0.0
0
LINE
5
627
100
AcDbEntity
8
0-101
6
CONTINUOUS
62
3
100
AcDbLine
10
328.220000000000
20
321.590000000000
30
0.0
11
519.430000000000
21
283.350000000000
31
0.0
0
LINE
5
628
100
AcDbEntity
8
0-101
6
CONTINUOUS
62
3
100
AcDbLine
10
333.120000000000
20
346.100000000000
30
0.0
11
524.330000000000
21
307.860000000000
31
0.0
0
LINE
5
629
100
AcDbEntity
8
0-101
6
CONTINUOUS
62
3
100
AcDbLine
10
328.220000000000
20
321.590000000000
30
0.0
11
333.120000000000
21
346.100000000000
31
0.0
0
LINE
5
62a
100
AcDbEntity
8
0-101
6
CONTINUOUS
62
7
100
AcDbLine
10
327.860000000000
20
373.260000000000
30
0.0
11
200.170000000000
21
350.230000000000
31
0.0
0
LINE
5
62b
100
AcDbEntity
8
0-101
6
CONTINUOUS
62
7
100
AcDbLine
10
328.570000000000
20
373.260000000000
30
0.0
11
456.260000000000
21
350.230000000000
31
0.0
0
LINE
5
62c
100
AcDbEntity
8
0-101
6
CONTINUOUS
62
7
100
AcDbLine
10
327.860000000000
20
373.870000000000
30
0.0
11
200.070000000000
21
350.820000000000
31
0.0
0
LINE
5
62d
100
AcDbEntity
8
0-101
6
CONTINUOUS
62
7
100
AcDbLine
10
328.570000000000
20
373.870000000000
30
0.0
11
456.360000000000
21
350.820000000000
31
0.0
0
LINE
5
62e
100
AcDbEntity
8
0-101
6
DASHED
62
7
100
AcDbLine
10
327.240000000000
20
347.910000000000
30
0.0
11
131.900000000000
21
308.840000000000
31
0.0
0
LINE
5
62f
100
AcDbEntity
8
0-101
6
DASHED
62
7
100
AcDbLine
10
329.200000000000
20
347.910000000000
30
0.0
11
524.530000000000
21
308.840000000000
31
0.0
0
LINE
5
630
100
AcDbEntity
8
0-101
6
CONTINUOUS
62
4
100
AcDbLine
10
171.770000000000
20
381.110000000000
30
0.0
11
163.710000000000
21
421.420000000000
31
0.0
0
LINE
5
631
100
AcDbEntity
8
0-101
6
CONTINUOUS
62
4
100
AcDbLine
10
163.710000000000
20
421.420000000000
30
0.0
11
312.760000000000
21
451.230000000000
31
0.0
0
LINE
5
632
100
AcDbEntity
8
0-101
6
CONTINUOUS
62
4
100
AcDbLine
10
320.820000000000
20
410.920000000000
30
0.0
11
312.760000000000
21
451.230000000000
31
0.0
0
LINE
5
633
100
AcDbEntity
8
0-505
6
CONTINUOUS
62
4
100
AcDbLine
10
1342.890000000000
20
264.610000000000
30
0.0
11
1367.890000000000
21
289.610000000000
31
0.0
0
LINE
5
634
100
AcDbEntity
8
0-505
6
CONTINUOUS
62
4
100
AcDbLine
10
1314.610000000000
20
264.610000000000
30
0.0
11
1339.610000000000
21
289.610000000000
31
0.0
0
LINE
5
635
100
AcDbEntity
8
0-505
6
CONTINUOUS
62
4
100
AcDbLine
10
1286.330000000000
20
264.610000000000
30
0.0
11
1311.320000000000
21
289.610000000000
31
0.0
0
LINE
5
636
100
AcDbEntity
8
0-505
6
CONTINUOUS
62
4
100
AcDbLine
10
1258.040000000000
20
264.610000000000
30
0.0
11
1283.040000000000
21
289.610000000000
31
0.0
0
LINE
5
637
100
AcDbEntity
8
0-505
6
CONTINUOUS
62
4
100
AcDbLine
10
1229.760000000000
20
264.610000000000
30
0.0
11
1254.760000000000
21
289.610000000000
31
0.0
0
LINE
5
638
100
AcDbEntity
8
0-505
6
CONTINUOUS
62
4
100
AcDbLine
10
1201.470000000000
20
264.610000000000
30
0.0
11
1226.470000000000
21
289.610000000000
31
0.0
0
LINE
5
639
100
AcDbEntity
8
0-505
6
CONTINUOUS
62
4
100
AcDbLine
10
1182.360000000000
20
273.790000000000
30
0.0
11
1198.190000000000
21
289.610000000000
31
0.0
0
LINE
5
63a
100
AcDbEntity
8
0-505
6
CONTINUOUS
62
4
100
AcDbLine
10
1185.460000000000
20
289.610000000000
30
0.0
11
1210.460000000000
21
264.610000000000
31
0.0
0
LINE
5
63b
100
AcDbEntity
8
0-505
6
CONTINUOUS
62
4
100
AcDbLine
10
1213.740000000000
20
289.610000000000
30
0.0
11
1238.740000000000
21
264.610000000000
31
0.0
0
LINE
5
63c
100
AcDbEntity
8
0-505
6
CONTINUOUS
62
4
100
AcDbLine
10
1242.030000000000
20
289.610000000000
30
0.0
11
1267.030000000000
21
264.610000000000
31
0.0
0
LINE
5
63d
100
AcDbEntity
8
0-505
6
CONTINUOUS
62
4
100
AcDbLine
10
1270.310000000000
20
289.610000000000
30
0.0
11
1295.310000000000
21
264.610000000000
31
0.0
0
LINE
5
63e
100
AcDbEntity
8
0-505
6
CONTINUOUS
62
4
100
AcDbLine
10
1298.590000000000
20
289.610000000000
30
0.0
11
1323.590000000000
21
264.610000000000
31
0.0
0
LINE
5
63f
100
AcDbEntity
8
0-505
6
CONTINUOUS
62
4
100
AcDbLine
10
1326.880000000000
20
289.610000000000
30
0.0
11
1351.880000000000
21
264.610000000000
31
0.0
0
LINE
5
640
100
AcDbEntity
8
0-505
6
CONTINUOUS
62
3
100
AcDbLine
10
1456.980000000000
20
291.610000000000
30
0.0
11
1396.980000000000
21
291.610000000000
31
0.0
0
LINE
5
641
100
AcDbEntity
8
0-505
6
CONTINUOUS
62
3
100
AcDbLine
10
1396.980000000000
20
315.610000000000
30
0.0
11
1396.980000000000
21
291.610000000000
31
0.0
0
LINE
5
642
100
AcDbEntity
8
0-505
6
CONTINUOUS
62
3
100
AcDbLine
10
1456.980000000000
20
315.610000000000
30
0.0
11
1396.980000000000
21
315.610000000000
31
0.0
0
LINE
5
643
100
AcDbEntity
8
0-505
6
CONTINUOUS
62
3
100
AcDbLine
10
1456.980000000000
20
315.610000000000
30
0.0
11
1456.980000000000
21
291.610000000000
31
0.0
0
LINE
5
644
100
AcDbEntity
8
0-505
6
CONTINUOUS
62
3
100
AcDbLine
10
1473.780000000000
20
371.910000000000
30
0.0
11
1473.780000000000
21
417.310000000000
31
0.0
0
LINE
5
645
100
AcDbEntity
8
0-505
6
CONTINUOUS
62
3
100
AcDbLine
10
1569.180000000000
20
419.610000000000
30
0.0
11
1473.780000000000
21
419.610000000000
31
0.0
0
LINE
5
646
100
AcDbEntity
8
0-505
6
CONTINUOUS
62
3
100
AcDbLine
10
1473.780000000000
20
417.310000000000
30
0.0
11
1569.180000000000
21
417.310000000000
31
0.0
0
LINE
5
647
100
AcDbEntity
8
0-505
6
CONTINUOUS
62
3
100
AcDbLine
10
1571.480000000000
20
371.910000000000
30
0.0
11
1571.480000000000
21
417.310000000000
31
0.0
0
LINE
5
648
100
AcDbEntity
8
0-505
6
CONTINUOUS
62
3
100
AcDbLine
10
1569.180000000000
20
417.310000000000
30
0.0
11
1569.180000000000
21
371.910000000000
31
0.0
0
LINE
5
649
100
AcDbEntity
8
0-505
6
CONTINUOUS
62
3
100
AcDbLine
10
1551.480000000000
20
369.610000000000
30
0.0
11
1569.180000000000
21
369.610000000000
31
0.0
0
LINE
5
64a
100
AcDbEntity
8
0-505
6
CONTINUOUS
62
3
100
AcDbLine
10
1569.180000000000
20
371.910000000000
30
0.0
11
1551.480000000000
21
371.910000000000
31
0.0
0
LINE
5
64b
100
AcDbEntity
8
0-505
6
CONTINUOUS
62
3
100
AcDbLine
10
1551.480000000000
20
371.910000000000
30
0.0
11
1551.480000000000
21
369.610000000000
31
0.0
0
LINE
5
64c
100
AcDbEntity
8
0-505
6
CONTINUOUS
62
3
100
AcDbLine
10
1491.480000000000
20
371.910000000000
30
0.0
11
1473.780000000000
21
371.910000000000
31
0.0
0
LINE
5
64d
100
AcDbEntity
8
0-505
6
CONTINUOUS
62
3
100
AcDbLine
10
1473.780000000000
20
369.610000000000
30
0.0
11
1491.480000000000
21
369.610000000000
31
0.0
0
LINE
5
64e
100
AcDbEntity
8
0-505
6
CONTINUOUS
62
3
100
AcDbLine
10
1491.480000000000
20
369.610000000000
30
0.0
11
1491.480000000000
21
371.910000000000
31
0.0
0
LINE
5
64f
100
AcDbEntity
8
0-505
6
CONTINUOUS
62
3
100
AcDbLine
10
1471.480000000000
20
417.310000000000
30
0.0
11
1471.480000000000
21
371.910000000000
31
0.0
0
LINE
5
650
100
AcDbEntity
8
0-505
6
CONTINUOUS
62
7
100
AcDbLine
10
1428.480000000000
20
333.210000000000
30
0.0
11
1443.480000000000
21
333.210000000000
31
0.0
0
LINE
5
651
100
AcDbEntity
8
0-505
6
CONTINUOUS
62
4
100
AcDbLine
10
1428.480000000000
20
343.640000000000
30
0.0
11
1443.480000000000
21
358.640000000000
31
0.0
0
LINE
5
652
100
AcDbEntity
8
0-505
6
CONTINUOUS
62
4
100
AcDbLine
10
1428.480000000000
20
346.470000000000
30
0.0
11
1443.480000000000
21
361.470000000000
31
0.0
0
LINE
5
653
100
AcDbEntity
8
0-505
6
CONTINUOUS
62
4
100
AcDbLine
10
1428.480000000000
20
371.920000000000
30
0.0
11
1443.480000000000
21
386.920000000000
31
0.0
0
LINE
5
654
100
AcDbEntity
8
0-505
6
CONTINUOUS
62
4
100
AcDbLine
10
1428.480000000000
20
374.750000000000
30
0.0
11
1443.480000000000
21
389.750000000000
31
0.0
0
LINE
5
655
100
AcDbEntity
8
0-505
6
CONTINUOUS
62
4
100
AcDbLine
10
1428.480000000000
20
400.210000000000
30
0.0
11
1443.480000000000
21
415.210000000000
31
0.0
0
LINE
5
656
100
AcDbEntity
8
0-505
6
CONTINUOUS
62
4
100
AcDbLine
10
1428.480000000000
20
403.030000000000
30
0.0
11
1443.480000000000
21
418.030000000000
31
0.0
0
LINE
5
657
100
AcDbEntity
8
0-505
6
CONTINUOUS
62
4
100
AcDbLine
10
1428.480000000000
20
428.490000000000
30
0.0
11
1443.480000000000
21
443.490000000000
31
0.0
0
LINE
5
658
100
AcDbEntity
8
0-505
6
CONTINUOUS
62
4
100
AcDbLine
10
1428.480000000000
20
431.320000000000
30
0.0
11
1443.480000000000
21
446.320000000000
31
0.0
0
LINE
5
659
100
AcDbEntity
8
0-505
6
DASHED
62
7
100
AcDbLine
10
1393.980000000000
20
290.610000000000
30
0.0
11
1182.360000000000
21
290.610000000000
31
0.0
0
LINE
5
65a
100
AcDbEntity
8
0-505
6
DASHED
62
7
100
AcDbLine
10
1395.980000000000
20
292.610000000000
30
0.0
11
1395.980000000000
21
314.610000000000
31
0.0
0
LINE
5
65b
100
AcDbEntity
8
0-505
6
DASHED
62
7
100
AcDbLine
10
1455.980000000000
20
290.610000000000
30
0.0
11
1393.980000000000
21
290.610000000000
31
0.0
0
LINE
5
65c
100
AcDbEntity
8
0-505
6
DASHED
62
7
100
AcDbLine
10
1457.980000000000
20
318.610000000000
30
0.0
11
1457.980000000000
21
292.610000000000
31
0.0
0
LINE
5
65d
100
AcDbEntity
8
0-505
6
DASHED
62
7
100
AcDbLine
10
1455.980000000000
20
316.610000000000
30
0.0
11
1397.980000000000
21
316.610000000000
31
0.0
0
LINE
5
65e
100
AcDbEntity
8
0-505
6
CONTINUOUS
62
7
100
AcDbLine
10
1391.980000000000
20
315.810000000000
30
0.0
11
1391.980000000000
21
315.210000000000
31
0.0
0
LINE
5
65f
100
AcDbEntity
8
0-505
6
CONTINUOUS
62
7
100
AcDbLine
10
1454.380000000000
20
318.210000000000
30
0.0
11
1378.480000000000
21
318.210000000000
31
0.0
0
LINE
5
660
100
AcDbEntity
8
0-505
6
CONTINUOUS
62
7
100
AcDbLine
10
1391.980000000000
20
315.810000000000
30
0.0
11
1378.480000000000
21
315.810000000000
31
0.0
0
LINE
5
661
100
AcDbEntity
8
0-505
6
CONTINUOUS
62
7
100
AcDbLine
10
1391.980000000000
20
315.210000000000
30
0.0
11
1378.480000000000
21
315.210000000000
31
0.0
0
LINE
5
662
100
AcDbEntity
8
0-505
6
CONTINUOUS
62
7
100
AcDbLine
10
1378.480000000000
20
317.010000000000
30
0.0
11
1378.480000000000
21
316.410000000000
31
0.0
0
LINE
5
663
100
AcDbEntity
8
0-505
6
CONTINUOUS
62
3
100
AcDbLine
10
1458.980000000000
20
289.610000000000
30
0.0
11
1182.360000000000
21
289.610000000000
31
0.0
0
LINE
5
664
100
AcDbEntity
8
0-505
6
CONTINUOUS
62
3
100
AcDbLine
10
1458.980000000000
20
289.610000000000
30
0.0
11
1458.980000000000
21
264.610000000000
31
0.0
0
LINE
5
665
100
AcDbEntity
8
0-505
6
CONTINUOUS
62
3
100
AcDbLine
10
1458.980000000000
20
264.610000000000
30
0.0
11
1182.360000000000
21
264.610000000000
31
0.0
0
LINE
5
666
100
AcDbEntity
8
0-505
6
CONTINUOUS
62
4
100
AcDbLine
10
1371.180000000000
20
264.610000000000
30
0.0
11
1396.180000000000
21
289.610000000000
31
0.0
0
LINE
5
667
100
AcDbEntity
8
0-505
6
CONTINUOUS
62
4
100
AcDbLine
10
1355.160000000000
20
289.610000000000
30
0.0
11
1380.160000000000
21
264.610000000000
31
0.0
0
LINE
5
668
100
AcDbEntity
8
0-505
6
CONTINUOUS
62
4
100
AcDbLine
10
1399.460000000000
20
264.610000000000
30
0.0
11
1424.460000000000
21
289.610000000000
31
0.0
0
LINE
5
669
100
AcDbEntity
8
0-505
6
CONTINUOUS
62
4
100
AcDbLine
10
1427.750000000000
20
264.610000000000
30
0.0
11
1452.750000000000
21
289.610000000000
31
0.0
0
LINE
5
66a
100
AcDbEntity
8
0-505
6
CONTINUOUS
62
4
100
AcDbLine
10
1383.450000000000
20
289.610000000000
30
0.0
11
1408.450000000000
21
264.610000000000
31
0.0
0
LINE
5
66b
100
AcDbEntity
8
0-505
6
CONTINUOUS
62
4
100
AcDbLine
10
1411.730000000000
20
289.610000000000
30
0.0
11
1436.730000000000
21
264.610000000000
31
0.0
0
LINE
5
66c
100
AcDbEntity
8
0-505
6
CONTINUOUS
62
4
100
AcDbLine
10
1440.020000000000
20
289.610000000000
30
0.0
11
1458.980000000000
21
270.650000000000
31
0.0
0
LINE
5
66d
100
AcDbEntity
8
0-505
6
CONTINUOUS
62
4
100
AcDbLine
10
1456.030000000000
20
264.610000000000
30
0.0
11
1458.980000000000
21
267.560000000000
31
0.0
0
LINE
5
66e
100
AcDbEntity
8
0-505
6
CONTINUOUS
62
7
100
AcDbLine
10
1392.380000000000
20
316.410000000000
30
0.0
11
1378.480000000000
21
316.410000000000
31
0.0
0
LINE
5
66f
100
AcDbEntity
8
0-505
6
CONTINUOUS
62
7
100
AcDbLine
10
1392.380000000000
20
317.010000000000
30
0.0
11
1378.480000000000
21
317.010000000000
31
0.0
0
LINE
5
670
100
AcDbEntity
8
0-505
6
CONTINUOUS
62
3
100
AcDbLine
10
1411.280000000000
20
166.910000000000
30
0.0
11
1456.680000000000
21
166.910000000000
31
0.0
0
LINE
5
671
100
AcDbEntity
8
0-505
6
CONTINUOUS
62
3
100
AcDbLine
10
1456.680000000000
20
166.910000000000
30
0.0
11
1456.680000000000
21
262.310000000000
31
0.0
0
LINE
5
672
100
AcDbEntity
8
0-505
6
CONTINUOUS
62
3
100
AcDbLine
10
1456.680000000000
20
262.310000000000
30
0.0
11
1411.280000000000
21
262.310000000000
31
0.0
0
LINE
5
673
100
AcDbEntity
8
0-505
6
CONTINUOUS
62
3
100
AcDbLine
10
1408.980000000000
20
244.610000000000
30
0.0
11
1408.980000000000
21
262.310000000000
31
0.0
0
LINE
5
674
100
AcDbEntity
8
0-505
6
CONTINUOUS
62
3
100
AcDbLine
10
1411.280000000000
20
262.310000000000
30
0.0
11
1411.280000000000
21
244.610000000000
31
0.0
0
LINE
5
675
100
AcDbEntity
8
0-505
6
CONTINUOUS
62
3
100
AcDbLine
10
1411.280000000000
20
244.610000000000
30
0.0
11
1408.980000000000
21
244.610000000000
31
0.0
0
LINE
5
676
100
AcDbEntity
8
0-505
6
CONTINUOUS
62
3
100
AcDbLine
10
1411.280000000000
20
184.610000000000
30
0.0
11
1411.280000000000
21
166.910000000000
31
0.0
0
LINE
5
677
100
AcDbEntity
8
0-505
6
CONTINUOUS
62
3
100
AcDbLine
10
1408.980000000000
20
166.910000000000
30
0.0
11
1408.980000000000
21
184.610000000000
31
0.0
0
LINE
5
678
100
AcDbEntity
8
0-505
6
CONTINUOUS
62
3
100
AcDbLine
10
1408.980000000000
20
184.610000000000
30
0.0
11
1411.280000000000
21
184.610000000000
31
0.0
0
LINE
5
679
100
AcDbEntity
8
0-505
6
CONTINUOUS
62
3
100
AcDbLine
10
1456.680000000000
20
164.610000000000
30
0.0
11
1411.280000000000
21
164.610000000000
31
0.0
0
LINE
5
67a
100
AcDbEntity
8
0-505
6
CONTINUOUS
62
3
100
AcDbLine
10
1411.280000000000
20
264.610000000000
30
0.0
11
1458.980000000000
21
264.610000000000
31
0.0
0
LINE
5
67b
100
AcDbEntity
8
0-505
6
CONTINUOUS
62
3
100
AcDbLine
10
1403.980000000000
20
164.610000000000
30
0.0
11
1403.980000000000
21
264.610000000000
31
0.0
0
LINE
5
67c
100
AcDbEntity
8
0-505
6
CONTINUOUS
62
3
100
AcDbLine
10
1182.360000000000
20
244.610000000000
30
0.0
11
1403.980000000000
21
244.610000000000
31
0.0
0
LINE
5
67d
100
AcDbEntity
8
0-505
6
CONTINUOUS
62
3
100
AcDbLine
10
1182.360000000000
20
184.610000000000
30
0.0
11
1403.980000000000
21
184.610000000000
31
0.0
0
LINE
5
67e
100
AcDbEntity
8
0-505
6
CONTINUOUS
62
3
100
AcDbLine
10
1182.360000000000
20
164.610000000000
30
0.0
11
1403.980000000000
21
164.610000000000
31
0.0
0
LINE
5
67f
100
AcDbEntity
8
0-303
6
CONTINUOUS
62
4
100
AcDbLine
10
951.710000000000
20
444.540000000000
30
0.0
11
866.930000000000
21
444.540000000000
31
0.0
0
LINE
5
680
100
AcDbEntity
8
0-303
6
CONTINUOUS
62
4
100
AcDbLine
10
951.710000000000
20
444.540000000000
30
0.0
11
945.920000000000
21
442.990000000000
31
0.0
0
LINE
5
681
100
AcDbEntity
8
0-303
6
CONTINUOUS
62
4
100
AcDbLine
10
951.710000000000
20
444.540000000000
30
0.0
11
945.920000000000
21
446.090000000000
31
0.0
0
LINE
5
682
100
AcDbEntity
8
0-404
6
CONTINUOUS
62
7
100
AcDbLine
10
1315.350000000000
20
812.770000000000
30
0.0
11
1313.510000000000
21
816.480000000000
31
0.0
0
LINE
5
683
100
AcDbEntity
8
0-404
6
CONTINUOUS
62
7
100
AcDbLine
10
1315.350000000000
20
812.770000000000
30
0.0
11
1311.900000000000
21
815.070000000000
31
0.0
0
LINE
5
684
100
AcDbEntity
8
0-404
6
CONTINUOUS
62
7
100
AcDbLine
10
1315.350000000000
20
812.770000000000
30
0.0
11
1276.580000000000
21
856.890000000000
31
0.0
0
LINE
5
685
100
AcDbEntity
8
0-404
6
CONTINUOUS
62
7
100
AcDbLine
10
1388.580000000000
20
837.330000000000
30
0.0
11
1386.740000000000
21
841.040000000000
31
0.0
0
LINE
5
686
100
AcDbEntity
8
0-404
6
CONTINUOUS
62
7
100
AcDbLine
10
1388.580000000000
20
837.330000000000
30
0.0
11
1385.130000000000
21
839.630000000000
31
0.0
0
LINE
5
687
100
AcDbEntity
8
0-404
6
CONTINUOUS
62
7
100
AcDbLine
10
1428.480000000000
20
887.710000000000
30
0.0
11
1426.650000000000
21
891.420000000000
31
0.0
0
LINE
5
688
100
AcDbEntity
8
0-404
6
CONTINUOUS
62
7
100
AcDbLine
10
1428.480000000000
20
887.710000000000
30
0.0
11
1425.040000000000
21
890.000000000000
31
0.0
0
LINE
5
689
100
AcDbEntity
8
0-404
6
CONTINUOUS
62
7
100
AcDbLine
10
1428.480000000000
20
887.710000000000
30
0.0
11
1389.710000000000
21
931.820000000000
31
0.0
0
LINE
5
68a
100
AcDbEntity
8
0-202
6
CONTINUOUS
62
7
100
AcDbLine
10
893.450000000000
20
874.360000000000
30
0.0
11
894.520000000000
21
870.360000000000
31
0.0
0
LINE
5
68b
100
AcDbEntity
8
0-202
6
CONTINUOUS
62
7
100
AcDbLine
10
893.450000000000
20
874.360000000000
30
0.0
11
896.380000000000
21
871.430000000000
31
0.0
0
LINE
5
68c
100
AcDbEntity
8
0-202
6
CONTINUOUS
62
7
100
AcDbLine
10
893.450000000000
20
874.360000000000
30
0.0
11
905.000000000000
21
854.360000000000
31
0.0
0
LINE
5
68d
100
AcDbEntity
8
0-202
6
CONTINUOUS
62
7
100
AcDbLine
10
748.740000000000
20
842.520000000000
30
0.0
11
747.670000000000
21
838.520000000000
31
0.0
0
LINE
5
68e
100
AcDbEntity
8
0-202
6
CONTINUOUS
62
7
100
AcDbLine
10
748.740000000000
20
842.520000000000
30
0.0
11
745.810000000000
21
839.590000000000
31
0.0
0
LINE
5
68f
100
AcDbEntity
8
0-202
6
CONTINUOUS
62
7
100
AcDbLine
10
819.530000000000
20
748.330000000000
30
0.0
11
818.460000000000
21
744.330000000000
31
0.0
0
LINE
5
690
100
AcDbEntity
8
0-202
6
CONTINUOUS
62
7
100
AcDbLine
10
819.530000000000
20
748.330000000000
30
0.0
11
816.600000000000
21
745.410000000000
31
0.0
0
LINE
5
691
100
AcDbEntity
8
0-202
6
CONTINUOUS
62
7
100
AcDbLine
10
938.730000000000
20
737.240000000000
30
0.0
11
937.660000000000
21
733.240000000000
31
0.0
0
LINE
5
692
100
AcDbEntity
8
0-202
6
CONTINUOUS
62
7
100
AcDbLine
10
938.730000000000
20
737.240000000000
30
0.0
11
935.800000000000
21
734.310000000000
31
0.0
0
LINE
5
693
100
AcDbEntity
8
0-202
6
CONTINUOUS
62
7
100
AcDbLine
10
938.730000000000
20
737.240000000000
30
0.0
11
927.180000000000
21
717.240000000000
31
0.0
0
LINE
5
694
100
AcDbEntity
8
0-202
6
CONTINUOUS
62
4
100
AcDbLine
10
839.980000000000
20
911.500000000000
30
0.0
11
826.890000000000
21
976.960000000000
31
0.0
0
LINE
5
695
100
AcDbEntity
8
0-202
6
CONTINUOUS
62
4
100
AcDbLine
10
720.300000000000
20
887.570000000000
30
0.0
11
707.210000000000
21
953.030000000000
31
0.0
0
LINE
5
696
100
AcDbEntity
8
0-303
6
CONTINUOUS
62
7
100
AcDbLine
10
932.100000000000
20
381.750000000000
30
0.0
11
933.170000000000
21
377.750000000000
31
0.0
0
LINE
5
697
100
AcDbEntity
8
0-303
6
CONTINUOUS
62
7
100
AcDbLine
10
932.100000000000
20
381.750000000000
30
0.0
11
935.030000000000
21
378.820000000000
31
0.0
0
LINE
5
698
100
AcDbEntity
8
0-303
6
CONTINUOUS
62
7
100
AcDbLine
10
932.100000000000
20
381.750000000000
30
0.0
11
943.650000000000
21
361.750000000000
31
0.0
0
LINE
5
699
100
AcDbEntity
8
0-303
6
CONTINUOUS
62
7
100
AcDbLine
10
753.430000000000
20
373.440000000000
30
0.0
11
752.350000000000
21
369.440000000000
31
0.0
0
LINE
5
69a
100
AcDbEntity
8
0-303
6
CONTINUOUS
62
7
100
AcDbLine
10
753.430000000000
20
373.440000000000
30
0.0
11
750.500000000000
21
370.520000000000
31
0.0
0
LINE
5
69b
100
AcDbEntity
8
0-303
6
CONTINUOUS
62
7
100
AcDbLine
10
804.430000000000
20
291.120000000000
30
0.0
11
803.360000000000
21
287.120000000000
31
0.0
0
LINE
5
69c
100
AcDbEntity
8
0-303
6
CONTINUOUS
62
7
100
AcDbLine
10
804.430000000000
20
291.120000000000
30
0.0
11
801.510000000000
21
288.190000000000
31
0.0
0
LINE
5
69d
100
AcDbEntity
8
0-505
6
CONTINUOUS
62
7
100
AcDbLine
10
1428.480000000000
20
386.700000000000
30
0.0
11
1426.650000000000
21
390.410000000000
31
0.0
0
LINE
5
69e
100
AcDbEntity
8
0-505
6
CONTINUOUS
62
7
100
AcDbLine
10
1428.480000000000
20
386.700000000000
30
0.0
11
1425.040000000000
21
388.990000000000
31
0.0
0
LINE
5
69f
100
AcDbEntity
8
0-505
6
CONTINUOUS
62
7
100
AcDbLine
10
1428.480000000000
20
386.700000000000
30
0.0
11
1389.710000000000
21
430.810000000000
31
0.0
0
LINE
5
6a0
100
AcDbEntity
8
0-505
6
CONTINUOUS
62
7
100
AcDbLine
10
1416.510000000000
20
318.160000000000
30
0.0
11
1414.680000000000
21
321.870000000000
31
0.0
0
LINE
5
6a1
100
AcDbEntity
8
0-505
6
CONTINUOUS
62
7
100
AcDbLine
10
1416.510000000000
20
318.160000000000
30
0.0
11
1413.070000000000
21
320.460000000000
31
0.0
0
LINE
5
6a2
100
AcDbEntity
8
0-505
6
CONTINUOUS
62
7
100
AcDbLine
10
1416.510000000000
20
318.160000000000
30
0.0
11
1377.740000000000
21
362.270000000000
31
0.0
0
LINE
5
6a3
100
AcDbEntity
8
0-202
6
CONTINUOUS
62
7
100
AcDbLine
10
894.610000000000
20
891.940000000000
30
0.0
11
894.870000000000
21
896.070000000000
31
0.0
0
LINE
5
6a4
100
AcDbEntity
8
0-202
6
CONTINUOUS
62
7
100
AcDbLine
10
894.610000000000
20
891.940000000000
30
0.0
11
896.900000000000
21
895.390000000000
31
0.0
0
LINE
5
6a5
100
AcDbEntity
8
0-202
6
CONTINUOUS
62
7
100
AcDbLine
10
894.610000000000
20
891.940000000000
30
0.0
11
910.100000000000
21
937.720000000000
31
0.0
0
LINE
5
6a6
100
AcDbEntity
8
0-101
6
CONTINUOUS
62
7
100
AcDbLine
10
353.870000000000
20
342.780000000000
30
0.0
11
354.140000000000
21
346.910000000000
31
0.0
0
LINE
5
6a7
100
AcDbEntity
8
0-101
6
CONTINUOUS
62
7
100
AcDbLine
10
353.870000000000
20
342.780000000000
30
0.0
11
356.170000000000
21
346.230000000000
31
0.0
0
LINE
5
6a8
100
AcDbEntity
8
0-101
6
CONTINUOUS
62
7
100
AcDbLine
10
353.870000000000
20
342.780000000000
30
0.0
11
369.360000000000
21
388.560000000000
31
0.0
0
LINE
5
6a9
100
AcDbEntity
8
0-404
6
CONTINUOUS
62
7
100
AcDbLine
10
1454.400000000000
20
827.380000000000
30
0.0
11
1452.570000000000
21
831.090000000000
31
0.0
0
LINE
5
6aa
100
AcDbEntity
8
0-404
6
CONTINUOUS
62
7
100
AcDbLine
10
1454.400000000000
20
827.380000000000
30
0.0
11
1450.960000000000
21
829.670000000000
31
0.0
0
LINE
5
6ab
100
AcDbEntity
8
0-404
6
CONTINUOUS
62
7
100
AcDbLine
10
1454.400000000000
20
827.380000000000
30
0.0
11
1415.630000000000
21
871.490000000000
31
0.0
0
LINE
5
6ac
100
AcDbEntity
8
0-404
6
CONTINUOUS
62
7
100
AcDbLine
10
1259.700000000000
20
795.470000000000
30
0.0
11
1257.860000000000
21
799.180000000000
31
0.0
0
LINE
5
6ad
100
AcDbEntity
8
0-404
6
CONTINUOUS
62
7
100
AcDbLine
10
1259.700000000000
20
795.470000000000
30
0.0
11
1256.250000000000
21
797.760000000000
31
0.0
0
LINE
5
6ae
100
AcDbEntity
8
0-404
6
CONTINUOUS
62
7
100
AcDbLine
10
1403.100000000000
20
792.180000000000
30
0.0
11
1404.170000000000
21
788.180000000000
31
0.0
0
LINE
5
6af
100
AcDbEntity
8
0-404
6
CONTINUOUS
62
7
100
AcDbLine
10
1403.100000000000
20
792.180000000000
30
0.0
11
1406.030000000000
21
789.260000000000
31
0.0
0
LINE
5
6b0
100
AcDbEntity
8
0-404
6
CONTINUOUS
62
7
100
AcDbLine
10
1403.100000000000
20
792.180000000000
30
0.0
11
1414.650000000000
21
772.180000000000
31
0.0
0
LINE
5
6b1
100
AcDbEntity
8
0-404
6
CONTINUOUS
62
7
100
AcDbLine
10
1357.060000000000
20
804.530000000000
30
0.0
11
1358.130000000000
21
800.530000000000
31
0.0
0
LINE
5
6b2
100
AcDbEntity
8
0-404
6
CONTINUOUS
62
7
100
AcDbLine
10
1357.060000000000
20
804.530000000000
30
0.0
11
1359.990000000000
21
801.600000000000
31
0.0
0
LINE
5
6b3
100
AcDbEntity
8
0-404
6
CONTINUOUS
62
7
100
AcDbLine
10
1357.060000000000
20
804.530000000000
30
0.0
11
1389.280000000000
21
748.710000000000
31
0.0
0
LINE
5
6b4
100
AcDbEntity
8
0-202
6
CONTINUOUS
62
7
100
AcDbLine
10
758.320000000000
20
888.210000000000
30
0.0
11
758.590000000000
21
892.340000000000
31
0.0
0
LINE
5
6b5
100
AcDbEntity
8
0-202
6
CONTINUOUS
62
7
100
AcDbLine
10
758.320000000000
20
888.210000000000
30
0.0
11
760.620000000000
21
891.650000000000
31
0.0
0
LINE
5
6b6
100
AcDbEntity
8
0-505
6
CONTINUOUS
62
7
100
AcDbLine
10
1266.610000000000
20
293.710000000000
30
0.0
11
1264.780000000000
21
297.420000000000
31
0.0
0
LINE
5
6b7
100
AcDbEntity
8
0-505
6
CONTINUOUS
62
7
100
AcDbLine
10
1266.610000000000
20
293.710000000000
30
0.0
11
1263.170000000000
21
296.010000000000
31
0.0
0
LINE
5
6b8
100
AcDbEntity
8
0-505
6
CONTINUOUS
62
7
100
AcDbLine
10
1266.610000000000
20
293.710000000000
30
0.0
11
1227.840000000000
21
337.830000000000
31
0.0
0
LINE
5
6b9
100
AcDbEntity
8
0-505
6
CONTINUOUS
62
7
100
AcDbLine
10
1227.490000000000
20
290.620000000000
30
0.0
11
1228.560000000000
21
286.620000000000
31
0.0
0
LINE
5
6ba
100
AcDbEntity
8
0-505
6
CONTINUOUS
62
7
100
AcDbLine
10
1227.490000000000
20
290.620000000000
30
0.0
11
1230.420000000000
21
287.690000000000
31
0.0
0
LINE
5
6bb
100
AcDbEntity
8
0-505
6
CONTINUOUS
62
7
100
AcDbLine
10
1227.490000000000
20
290.620000000000
30
0.0
11
1259.710000000000
21
234.810000000000
31
0.0
0
LINE
5
6bc
100
AcDbEntity
8
0-505
6
CONTINUOUS
62
7
100
AcDbLine
10
1337.730000000000
20
274.060000000000
30
0.0
11
1338.800000000000
21
270.060000000000
31
0.0
0
LINE
5
6bd
100
AcDbEntity
8
0-505
6
CONTINUOUS
62
7
100
AcDbLine
10
1337.730000000000
20
274.060000000000
30
0.0
11
1340.650000000000
21
271.130000000000
31
0.0
0
LINE
5
6be
100
AcDbEntity
8
0-505
6
CONTINUOUS
62
7
100
AcDbLine
10
1337.730000000000
20
274.060000000000
30
0.0
11
1349.270000000000
21
254.060000000000
31
0.0
0
LINE
5
6bf
100
AcDbEntity
8
0-303
6
CONTINUOUS
62
7
100
AcDbLine
10
894.800000000000
20
397.980000000000
30
0.0
11
895.880000000000
21
393.980000000000
31
0.0
0
LINE
5
6c0
100
AcDbEntity
8
0-303
6
CONTINUOUS
62
7
100
AcDbLine
10
894.800000000000
20
397.980000000000
30
0.0
11
897.730000000000
21
395.060000000000
31
0.0
0
LINE
5
6c1
100
AcDbEntity
8
0-303
6
CONTINUOUS
62
7
100
AcDbLine
10
894.800000000000
20
397.980000000000
30
0.0
11
927.030000000000
21
342.170000000000
31
0.0
0
LINE
5
6c2
100
AcDbEntity
8
0-101
6
CONTINUOUS
62
7
100
AcDbLine
10
279.930000000000
20
320.030000000000
30
0.0
11
281.010000000000
21
316.030000000000
31
0.0
0
LINE
5
6c3
100
AcDbEntity
8
0-101
6
CONTINUOUS
62
7
100
AcDbLine
10
279.930000000000
20
320.030000000000
30
0.0
11
282.860000000000
21
317.110000000000
31
0.0
0
LINE
5
6c4
100
AcDbEntity
8
0-101
6
CONTINUOUS
62
7
100
AcDbLine
10
279.930000000000
20
320.030000000000
30
0.0
11
291.480000000000
21
300.030000000000
31
0.0
0
LINE
5
6c5
100
AcDbEntity
8
0-101
6
CONTINUOUS
62
7
100
AcDbLine
10
456.380000000000
20
347.760000000000
30
0.0
11
456.640000000000
21
351.900000000000
31
0.0
0
LINE
5
6c6
100
AcDbEntity
8
0-101
6
CONTINUOUS
62
7
100
AcDbLine
10
456.380000000000
20
347.760000000000
30
0.0
11
458.670000000000
21
351.210000000000
31
0.0
0
LINE
5
6c7
100
AcDbEntity
8
0-101
6
CONTINUOUS
62
7
100
AcDbLine
10
274.620000000000
20
364.270000000000
30
0.0
11
274.350000000000
21
368.400000000000
31
0.0
0
LINE
5
6c8
100
AcDbEntity
8
0-101
6
CONTINUOUS
62
7
100
AcDbLine
10
274.620000000000
20
364.270000000000
30
0.0
11
272.320000000000
21
367.720000000000
31
0.0
0
LINE
5
6c9
100
AcDbEntity
8
0-101
6
CONTINUOUS
62
7
100
AcDbLine
10
274.620000000000
20
364.270000000000
30
0.0
11
264.850000000000
21
393.160000000000
31
0.0
0
LINE
5
6ca
100
AcDbEntity
8
0-101
6
CONTINUOUS
62
7
100
AcDbLine
10
319.850000000000
20
349.740000000000
30
0.0
11
319.580000000000
21
353.870000000000
31
0.0
0
LINE
5
6cb
100
AcDbEntity
8
0-101
6
CONTINUOUS
62
7
100
AcDbLine
10
319.850000000000
20
349.740000000000
30
0.0
11
317.550000000000
21
353.180000000000
31
0.0
0
LINE
5
6cc
100
AcDbEntity
8
0-101
6
CONTINUOUS
62
7
100
AcDbLine
10
319.850000000000
20
349.740000000000
30
0.0
11
310.070000000000
21
378.630000000000
31
0.0
0
LINE
5
6cd
100
AcDbEntity
8
0-808
6
CONTINUOUS
62
3
100
AcDbLine
10
580.390000000000
20
82.890000000000
30
0.0
11
580.390000000000
21
1143.640000000000
31
0.0
0
LINE
5
6ce
100
AcDbEntity
8
0-808
6
CONTINUOUS
62
3
100
AcDbLine
10
1106.020000000000
20
82.890000000000
30
0.0
11
1106.020000000000
21
1143.640000000000
31
0.0
0
LINE
5
6cf
100
AcDbEntity
8
0-808
6
CONTINUOUS
62
3
100
AcDbLine
10
54.760000000000
20
613.270000000000
30
0.0
11
1631.650000000000
21
613.270000000000
31
0.0
0
LINE
5
6d0
100
AcDbEntity
8
0-101
6
CONTINUOUS
62
4
100
AcDbLine
10
484.670000000000
20
381.110000000000
30
0.0
11
492.730000000000
21
421.420000000000
31
0.0
0
LINE
5
6d1
100
AcDbEntity
8
0-101
6
CONTINUOUS
62
4
100
AcDbLine
10
492.730000000000
20
421.420000000000
30
0.0
11
343.670000000000
21
451.230000000000
31
0.0
0
LINE
5
6d2
100
AcDbEntity
8
0-101
6
CONTINUOUS
62
4
100
AcDbLine
10
335.610000000000
20
410.920000000000
30
0.0
11
343.670000000000
21
451.230000000000
31
0.0
0
LINE
5
6d3
100
AcDbEntity
8
0-606
6
CONTINUOUS
62
4
100
AcDbLine
10
263.470000000000
20
703.270000000000
30
0.0
11
303.470000000000
21
743.270000000000
31
0.0
0
LINE
5
6d4
100
AcDbEntity
8
0-606
6
CONTINUOUS
62
4
100
AcDbLine
10
235.180000000000
20
703.270000000000
30
0.0
11
275.180000000000
21
743.270000000000
31
0.0
0
LINE
5
6d5
100
AcDbEntity
8
0-606
6
CONTINUOUS
62
4
100
AcDbLine
10
291.750000000000
20
703.270000000000
30
0.0
11
331.750000000000
21
743.270000000000
31
0.0
0
LINE
5
6d6
100
AcDbEntity
8
0-606
6
CONTINUOUS
62
4
100
AcDbLine
10
320.040000000000
20
703.270000000000
30
0.0
11
360.040000000000
21
743.270000000000
31
0.0
0
LINE
5
6d7
100
AcDbEntity
8
0-606
6
CONTINUOUS
62
4
100
AcDbLine
10
348.320000000000
20
703.270000000000
30
0.0
11
388.320000000000
21
743.270000000000
31
0.0
0
LINE
5
6d8
100
AcDbEntity
8
0-808
6
CONTINUOUS
62
3
100
AcDbLine
10
54.760000000000
20
1103.640000000000
30
0.0
11
1631.650000000000
21
1103.640000000000
31
0.0
0
LINE
5
6d9
100
AcDbEntity
8
0-808
6
CONTINUOUS
62
3
100
AcDbLine
10
54.760000000000
20
573.270000000000
30
0.0
11
1631.650000000000
21
573.270000000000
31
0.0
0
LINE
5
6da
100
AcDbEntity
8
0-808
6
CONTINUOUS
62
2
100
AcDbLine
10
54.760000000000
20
23.630000000000
30
0.0
11
54.760000000000
21
1143.640000000000
31
0.0
0
LINE
5
6db
100
AcDbEntity
8
0-808
6
CONTINUOUS
62
2
100
AcDbLine
10
1284.760000000000
20
82.890000000000
30
0.0
11
1284.760000000000
21
23.630000000000
31
0.0
0
LINE
5
6dc
100
AcDbEntity
8
0-808
6
CONTINUOUS
62
2
100
AcDbLine
10
1214.540000000000
20
82.890000000000
30
0.0
11
1214.540000000000
21
23.630000000000
31
0.0
0
LINE
5
6dd
100
AcDbEntity
8
0-808
6
CONTINUOUS
62
2
100
AcDbLine
10
1537.120000000000
20
23.630000000000
30
0.0
11
1537.120000000000
21
82.890000000000
31
0.0
0
LINE
5
6de
100
AcDbEntity
8
0-808
6
CONTINUOUS
62
2
100
AcDbLine
10
806.890000000000
20
82.890000000000
30
0.0
11
806.890000000000
21
23.630000000000
31
0.0
0
LINE
5
6df
100
AcDbEntity
8
0-808
6
CONTINUOUS
62
2
100
AcDbLine
10
1009.740000000000
20
82.890000000000
30
0.0
11
1009.740000000000
21
23.630000000000
31
0.0
0
LINE
5
6e0
100
AcDbEntity
8
0-808
6
CONTINUOUS
62
2
100
AcDbLine
10
806.890000000000
20
63.140000000000
30
0.0
11
369.760000000000
21
63.140000000000
31
0.0
0
LINE
5
6e1
100
AcDbEntity
8
0-808
6
CONTINUOUS
62
2
100
AcDbLine
10
806.890000000000
20
43.390000000000
30
0.0
11
369.760000000000
21
43.390000000000
31
0.0
0
LINE
5
6e2
100
AcDbEntity
8
0-808
6
CONTINUOUS
62
2
100
AcDbLine
10
806.890000000000
20
33.510000000000
30
0.0
11
369.760000000000
21
33.510000000000
31
0.0
0
LINE
5
6e3
100
AcDbEntity
8
0-808
6
CONTINUOUS
62
2
100
AcDbLine
10
806.890000000000
20
73.020000000000
30
0.0
11
369.760000000000
21
73.020000000000
31
0.0
0
LINE
5
6e4
100
AcDbEntity
8
0-808
6
CONTINUOUS
62
2
100
AcDbLine
10
422.420000000000
20
82.890000000000
30
0.0
11
422.420000000000
21
23.630000000000
31
0.0
0
LINE
5
6e5
100
AcDbEntity
8
0-808
6
CONTINUOUS
62
2
100
AcDbLine
10
369.760000000000
20
82.890000000000
30
0.0
11
369.760000000000
21
23.630000000000
31
0.0
0
LINE
5
6e6
100
AcDbEntity
8
0-808
6
CONTINUOUS
62
2
100
AcDbLine
10
1631.650000000000
20
23.630000000000
30
0.0
11
1631.650000000000
21
1143.640000000000
31
0.0
0
LINE
5
6e7
100
AcDbEntity
8
0-808
6
CONTINUOUS
62
2
100
AcDbLine
10
54.760000000000
20
1143.640000000000
30
0.0
11
1631.650000000000
21
1143.640000000000
31
0.0
0
LINE
5
6e8
100
AcDbEntity
8
0-808
6
CONTINUOUS
62
2
100
AcDbLine
10
54.760000000000
20
23.630000000000
30
0.0
11
1631.650000000000
21
23.630000000000
31
0.0
0
LINE
5
6e9
100
AcDbEntity
8
0-808
6
CONTINUOUS
62
2
100
AcDbLine
10
1631.650000000000
20
82.890000000000
30
0.0
11
54.760000000000
21
82.890000000000
31
0.0
0
LINE
5
6ea
100
AcDbEntity
8
0-808
6
CONTINUOUS
62
2
100
AcDbLine
10
369.760000000000
20
53.260000000000
30
0.0
11
1631.650000000000
21
53.260000000000
31
0.0
0
LINE
5
6eb
100
AcDbEntity
8
0-808
6
CONTINUOUS
62
3
100
AcDbLine
10
80.840000000000
20
58.090000000000
30
0.0
11
80.840000000000
21
74.090000000000
31
0.0
0
LINE
5
6ec
100
AcDbEntity
8
0-808
6
CONTINUOUS
62
3
100
AcDbLine
10
80.840000000000
20
74.090000000000
30
0.0
11
96.840000000000
21
74.090000000000
31
0.0
0
LINE
5
6ed
100
AcDbEntity
8
0-808
6
CONTINUOUS
62
3
100
AcDbLine
10
96.840000000000
20
74.090000000000
30
0.0
11
96.840000000000
21
58.090000000000
31
0.0
0
LINE
5
6ee
100
AcDbEntity
8
0-808
6
CONTINUOUS
62
3
100
AcDbLine
10
96.840000000000
20
58.090000000000
30
0.0
11
80.840000000000
21
58.090000000000
31
0.0
0
LINE
5
6ef
100
AcDbEntity
8
0-808
6
CONTINUOUS
62
3
100
AcDbLine
10
82.440000000000
20
60.260000000000
30
0.0
11
82.440000000000
21
72.490000000000
31
0.0
0
LINE
5
6f0
100
AcDbEntity
8
0-808
6
CONTINUOUS
62
3
100
AcDbLine
10
95.240000000000
20
59.690000000000
30
0.0
11
83.000000000000
21
59.690000000000
31
0.0
0
LINE
5
6f1
100
AcDbEntity
8
0-808
6
CONTINUOUS
62
3
100
AcDbLine
10
82.440000000000
20
72.490000000000
30
0.0
11
94.670000000000
21
72.490000000000
31
0.0
0
LINE
5
6f2
100
AcDbEntity
8
0-808
6
CONTINUOUS
62
3
100
AcDbLine
10
94.670000000000
20
72.490000000000
30
0.0
11
82.440000000000
21
60.260000000000
31
0.0
0
LINE
5
6f3
100
AcDbEntity
8
0-808
6
CONTINUOUS
62
3
100
AcDbLine
10
95.240000000000
20
71.930000000000
30
0.0
11
83.000000000000
21
59.690000000000
31
0.0
0
LINE
5
6f4
100
AcDbEntity
8
0-808
6
CONTINUOUS
62
3
100
AcDbLine
10
95.240000000000
20
71.930000000000
30
0.0
11
95.240000000000
21
59.690000000000
31
0.0
0
LINE
5
6f5
100
AcDbEntity
8
0-808
6
CONTINUOUS
62
4
100
AcDbLine
10
80.840000000000
20
73.930000000000
30
0.0
11
96.840000000000
21
73.930000000000
31
0.0
0
LINE
5
6f6
100
AcDbEntity
8
0-808
6
CONTINUOUS
62
4
100
AcDbLine
10
80.840000000000
20
73.610000000000
30
0.0
11
96.840000000000
21
73.610000000000
31
0.0
0
LINE
5
6f7
100
AcDbEntity
8
0-808
6
CONTINUOUS
62
4
100
AcDbLine
10
80.840000000000
20
73.290000000000
30
0.0
11
96.840000000000
21
73.290000000000
31
0.0
0
LINE
5
6f8
100
AcDbEntity
8
0-808
6
CONTINUOUS
62
4
100
AcDbLine
10
80.840000000000
20
72.970000000000
30
0.0
11
96.840000000000
21
72.970000000000
31
0.0
0
LINE
5
6f9
100
AcDbEntity
8
0-808
6
CONTINUOUS
62
4
100
AcDbLine
10
80.840000000000
20
72.650000000000
30
0.0
11
96.840000000000
21
72.650000000000
31
0.0
0
LINE
5
6fa
100
AcDbEntity
8
0-808
6
CONTINUOUS
62
4
100
AcDbLine
10
80.840000000000
20
59.530000000000
30
0.0
11
96.840000000000
21
59.530000000000
31
0.0
0
LINE
5
6fb
100
AcDbEntity
8
0-808
6
CONTINUOUS
62
4
100
AcDbLine
10
80.840000000000
20
59.210000000000
30
0.0
11
96.840000000000
21
59.210000000000
31
0.0
0
LINE
5
6fc
100
AcDbEntity
8
0-808
6
CONTINUOUS
62
4
100
AcDbLine
10
80.840000000000
20
58.890000000000
30
0.0
11
96.840000000000
21
58.890000000000
31
0.0
0
LINE
5
6fd
100
AcDbEntity
8
0-808
6
CONTINUOUS
62
4
100
AcDbLine
10
80.840000000000
20
58.570000000000
30
0.0
11
96.840000000000
21
58.570000000000
31
0.0
0
LINE
5
6fe
100
AcDbEntity
8
0-808
6
CONTINUOUS
62
4
100
AcDbLine
10
80.840000000000
20
58.250000000000
30
0.0
11
96.840000000000
21
58.250000000000
31
0.0
0
LINE
5
6ff
100
AcDbEntity
8
0-808
6
CONTINUOUS
62
4
100
AcDbLine
10
80.840000000000
20
60.490000000000
30
0.0
11
82.440000000000
21
60.490000000000
31
0.0
0
LINE
5
700
100
AcDbEntity
8
0-808
6
CONTINUOUS
62
4
100
AcDbLine
10
80.840000000000
20
60.810000000000
30
0.0
11
82.440000000000
21
60.810000000000
31
0.0
0
LINE
5
701
100
AcDbEntity
8
0-808
6
CONTINUOUS
62
4
100
AcDbLine
10
80.840000000000
20
61.130000000000
30
0.0
11
82.440000000000
21
61.130000000000
31
0.0
0
LINE
5
702
100
AcDbEntity
8
0-808
6
CONTINUOUS
62
4
100
AcDbLine
10
80.840000000000
20
61.450000000000
30
0.0
11
82.440000000000
21
61.450000000000
31
0.0
0
LINE
5
703
100
AcDbEntity
8
0-808
6
CONTINUOUS
62
4
100
AcDbLine
10
80.840000000000
20
61.770000000000
30
0.0
11
82.440000000000
21
61.770000000000
31
0.0
0
LINE
5
704
100
AcDbEntity
8
0-808
6
CONTINUOUS
62
4
100
AcDbLine
10
80.840000000000
20
62.090000000000
30
0.0
11
82.440000000000
21
62.090000000000
31
0.0
0
LINE
5
705
100
AcDbEntity
8
0-808
6
CONTINUOUS
62
4
100
AcDbLine
10
80.840000000000
20
62.410000000000
30
0.0
11
82.440000000000
21
62.410000000000
31
0.0
0
LINE
5
706
100
AcDbEntity
8
0-808
6
CONTINUOUS
62
4
100
AcDbLine
10
80.840000000000
20
62.730000000000
30
0.0
11
82.440000000000
21
62.730000000000
31
0.0
0
LINE
5
707
100
AcDbEntity
8
0-808
6
CONTINUOUS
62
4
100
AcDbLine
10
80.840000000000
20
63.050000000000
30
0.0
11
82.440000000000
21
63.050000000000
31
0.0
0
LINE
5
708
100
AcDbEntity
8
0-808
6
CONTINUOUS
62
4
100
AcDbLine
10
80.840000000000
20
63.370000000000
30
0.0
11
82.440000000000
21
63.370000000000
31
0.0
0
LINE
5
709
100
AcDbEntity
8
0-808
6
CONTINUOUS
62
4
100
AcDbLine
10
80.840000000000
20
63.690000000000
30
0.0
11
82.440000000000
21
63.690000000000
31
0.0
0
LINE
5
70a
100
AcDbEntity
8
0-808
6
CONTINUOUS
62
4
100
AcDbLine
10
80.840000000000
20
64.010000000000
30
0.0
11
82.440000000000
21
64.010000000000
31
0.0
0
LINE
5
70b
100
AcDbEntity
8
0-808
6
CONTINUOUS
62
4
100
AcDbLine
10
80.840000000000
20
64.330000000000
30
0.0
11
82.440000000000
21
64.330000000000
31
0.0
0
LINE
5
70c
100
AcDbEntity
8
0-808
6
CONTINUOUS
62
4
100
AcDbLine
10
80.840000000000
20
64.650000000000
30
0.0
11
82.440000000000
21
64.650000000000
31
0.0
0
LINE
5
70d
100
AcDbEntity
8
0-808
6
CONTINUOUS
62
4
100
AcDbLine
10
80.840000000000
20
64.970000000000
30
0.0
11
82.440000000000
21
64.970000000000
31
0.0
0
LINE
5
70e
100
AcDbEntity
8
0-808
6
CONTINUOUS
62
4
100
AcDbLine
10
80.840000000000
20
65.290000000000
30
0.0
11
82.440000000000
21
65.290000000000
31
0.0
0
LINE
5
70f
100
AcDbEntity
8
0-808
6
CONTINUOUS
62
4
100
AcDbLine
10
80.840000000000
20
65.610000000000
30
0.0
11
82.440000000000
21
65.610000000000
31
0.0
0
LINE
5
710
100
AcDbEntity
8
0-808
6
CONTINUOUS
62
4
100
AcDbLine
10
80.840000000000
20
65.930000000000
30
0.0
11
82.440000000000
21
65.930000000000
31
0.0
0
LINE
5
711
100
AcDbEntity
8
0-808
6
CONTINUOUS
62
4
100
AcDbLine
10
80.840000000000
20
66.250000000000
30
0.0
11
82.440000000000
21
66.250000000000
31
0.0
0
LINE
5
712
100
AcDbEntity
8
0-808
6
CONTINUOUS
62
4
100
AcDbLine
10
80.840000000000
20
66.570000000000
30
0.0
11
82.440000000000
21
66.570000000000
31
0.0
0
LINE
5
713
100
AcDbEntity
8
0-808
6
CONTINUOUS
62
4
100
AcDbLine
10
80.840000000000
20
66.890000000000
30
0.0
11
82.440000000000
21
66.890000000000
31
0.0
0
LINE
5
714
100
AcDbEntity
8
0-808
6
CONTINUOUS
62
4
100
AcDbLine
10
80.840000000000
20
67.210000000000
30
0.0
11
82.440000000000
21
67.210000000000
31
0.0
0
LINE
5
715
100
AcDbEntity
8
0-808
6
CONTINUOUS
62
4
100
AcDbLine
10
80.840000000000
20
67.530000000000
30
0.0
11
82.440000000000
21
67.530000000000
31
0.0
0
LINE
5
716
100
AcDbEntity
8
0-808
6
CONTINUOUS
62
4
100
AcDbLine
10
80.840000000000
20
67.850000000000
30
0.0
11
82.440000000000
21
67.850000000000
31
0.0
0
LINE
5
717
100
AcDbEntity
8
0-808
6
CONTINUOUS
62
4
100
AcDbLine
10
80.840000000000
20
68.810000000000
30
0.0
11
82.440000000000
21
68.810000000000
31
0.0
0
LINE
5
718
100
AcDbEntity
8
0-808
6
CONTINUOUS
62
4
100
AcDbLine
10
80.840000000000
20
69.770000000000
30
0.0
11
82.440000000000
21
69.770000000000
31
0.0
0
LINE
5
719
100
AcDbEntity
8
0-808
6
CONTINUOUS
62
4
100
AcDbLine
10
80.840000000000
20
70.090000000000
30
0.0
11
82.440000000000
21
70.090000000000
31
0.0
0
LINE
5
71a
100
AcDbEntity
8
0-808
6
CONTINUOUS
62
4
100
AcDbLine
10
80.840000000000
20
70.410000000000
30
0.0
11
82.440000000000
21
70.410000000000
31
0.0
0
LINE
5
71b
100
AcDbEntity
8
0-808
6
CONTINUOUS
62
4
100
AcDbLine
10
80.840000000000
20
70.730000000000
30
0.0
11
82.440000000000
21
70.730000000000
31
0.0
0
LINE
5
71c
100
AcDbEntity
8
0-808
6
CONTINUOUS
62
4
100
AcDbLine
10
80.840000000000
20
72.330000000000
30
0.0
11
82.440000000000
21
72.330000000000
31
0.0
0
LINE
5
71d
100
AcDbEntity
8
0-808
6
CONTINUOUS
62
4
100
AcDbLine
10
80.840000000000
20
72.010000000000
30
0.0
11
82.440000000000
21
72.010000000000
31
0.0
0
LINE
5
71e
100
AcDbEntity
8
0-808
6
CONTINUOUS
62
4
100
AcDbLine
10
80.840000000000
20
71.690000000000
30
0.0
11
82.440000000000
21
71.690000000000
31
0.0
0
LINE
5
71f
100
AcDbEntity
8
0-808
6
CONTINUOUS
62
4
100
AcDbLine
10
80.840000000000
20
71.370000000000
30
0.0
11
82.440000000000
21
71.370000000000
31
0.0
0
LINE
5
720
100
AcDbEntity
8
0-808
6
CONTINUOUS
62
4
100
AcDbLine
10
80.840000000000
20
71.050000000000
30
0.0
11
82.440000000000
21
71.050000000000
31
0.0
0
LINE
5
721
100
AcDbEntity
8
0-808
6
CONTINUOUS
62
4
100
AcDbLine
10
80.840000000000
20
69.130000000000
30
0.0
11
82.440000000000
21
69.130000000000
31
0.0
0
LINE
5
722
100
AcDbEntity
8
0-808
6
CONTINUOUS
62
4
100
AcDbLine
10
80.840000000000
20
69.450000000000
30
0.0
11
82.440000000000
21
69.450000000000
31
0.0
0
LINE
5
723
100
AcDbEntity
8
0-808
6
CONTINUOUS
62
4
100
AcDbLine
10
80.840000000000
20
68.490000000000
30
0.0
11
82.440000000000
21
68.490000000000
31
0.0
0
LINE
5
724
100
AcDbEntity
8
0-808
6
CONTINUOUS
62
4
100
AcDbLine
10
80.840000000000
20
68.170000000000
30
0.0
11
82.440000000000
21
68.170000000000
31
0.0
0
LINE
5
725
100
AcDbEntity
8
0-808
6
CONTINUOUS
62
4
100
AcDbLine
10
82.990000000000
20
60.810000000000
30
0.0
11
84.120000000000
21
60.810000000000
31
0.0
0
LINE
5
726
100
AcDbEntity
8
0-808
6
CONTINUOUS
62
4
100
AcDbLine
10
82.670000000000
20
60.490000000000
30
0.0
11
83.800000000000
21
60.490000000000
31
0.0
0
LINE
5
727
100
AcDbEntity
8
0-808
6
CONTINUOUS
62
4
100
AcDbLine
10
80.840000000000
20
60.170000000000
30
0.0
11
83.480000000000
21
60.170000000000
31
0.0
0
LINE
5
728
100
AcDbEntity
8
0-808
6
CONTINUOUS
62
4
100
AcDbLine
10
80.840000000000
20
59.850000000000
30
0.0
11
83.160000000000
21
59.850000000000
31
0.0
0
LINE
5
729
100
AcDbEntity
8
0-808
6
CONTINUOUS
62
4
100
AcDbLine
10
84.910000000000
20
62.730000000000
30
0.0
11
86.040000000000
21
62.730000000000
31
0.0
0
LINE
5
72a
100
AcDbEntity
8
0-808
6
CONTINUOUS
62
4
100
AcDbLine
10
84.590000000000
20
62.410000000000
30
0.0
11
85.720000000000
21
62.410000000000
31
0.0
0
LINE
5
72b
100
AcDbEntity
8
0-808
6
CONTINUOUS
62
4
100
AcDbLine
10
84.270000000000
20
62.090000000000
30
0.0
11
85.400000000000
21
62.090000000000
31
0.0
0
LINE
5
72c
100
AcDbEntity
8
0-808
6
CONTINUOUS
62
4
100
AcDbLine
10
83.950000000000
20
61.770000000000
30
0.0
11
85.080000000000
21
61.770000000000
31
0.0
0
LINE
5
72d
100
AcDbEntity
8
0-808
6
CONTINUOUS
62
4
100
AcDbLine
10
83.630000000000
20
61.450000000000
30
0.0
11
84.760000000000
21
61.450000000000
31
0.0
0
LINE
5
72e
100
AcDbEntity
8
0-808
6
CONTINUOUS
62
4
100
AcDbLine
10
83.310000000000
20
61.130000000000
30
0.0
11
84.440000000000
21
61.130000000000
31
0.0
0
LINE
5
72f
100
AcDbEntity
8
0-808
6
CONTINUOUS
62
4
100
AcDbLine
10
82.440000000000
20
72.490000000000
30
0.0
11
82.440000000000
21
72.810000000000
31
0.0
0
LINE
5
730
100
AcDbEntity
8
0-808
6
CONTINUOUS
62
4
100
AcDbLine
10
95.240000000000
20
60.490000000000
30
0.0
11
96.840000000000
21
60.490000000000
31
0.0
0
LINE
5
731
100
AcDbEntity
8
0-808
6
CONTINUOUS
62
4
100
AcDbLine
10
95.240000000000
20
60.810000000000
30
0.0
11
96.840000000000
21
60.810000000000
31
0.0
0
LINE
5
732
100
AcDbEntity
8
0-808
6
CONTINUOUS
62
4
100
AcDbLine
10
95.240000000000
20
61.130000000000
30
0.0
11
96.840000000000
21
61.130000000000
31
0.0
0
LINE
5
733
100
AcDbEntity
8
0-808
6
CONTINUOUS
62
4
100
AcDbLine
10
95.240000000000
20
61.450000000000
30
0.0
11
96.840000000000
21
61.450000000000
31
0.0
0
LINE
5
734
100
AcDbEntity
8
0-808
6
CONTINUOUS
62
4
100
AcDbLine
10
95.240000000000
20
61.770000000000
30
0.0
11
96.840000000000
21
61.770000000000
31
0.0
0
LINE
5
735
100
AcDbEntity
8
0-808
6
CONTINUOUS
62
4
100
AcDbLine
10
95.240000000000
20
62.090000000000
30
0.0
11
96.840000000000
21
62.090000000000
31
0.0
0
LINE
5
736
100
AcDbEntity
8
0-808
6
CONTINUOUS
62
4
100
AcDbLine
10
95.240000000000
20
62.410000000000
30
0.0
11
96.840000000000
21
62.410000000000
31
0.0
0
LINE
5
737
100
AcDbEntity
8
0-808
6
CONTINUOUS
62
4
100
AcDbLine
10
95.240000000000
20
62.730000000000
30
0.0
11
96.840000000000
21
62.730000000000
31
0.0
0
LINE
5
738
100
AcDbEntity
8
0-808
6
CONTINUOUS
62
4
100
AcDbLine
10
95.240000000000
20
63.050000000000
30
0.0
11
96.840000000000
21
63.050000000000
31
0.0
0
LINE
5
739
100
AcDbEntity
8
0-808
6
CONTINUOUS
62
4
100
AcDbLine
10
95.240000000000
20
63.370000000000
30
0.0
11
96.840000000000
21
63.370000000000
31
0.0
0
LINE
5
73a
100
AcDbEntity
8
0-808
6
CONTINUOUS
62
4
100
AcDbLine
10
95.240000000000
20
63.690000000000
30
0.0
11
96.840000000000
21
63.690000000000
31
0.0
0
LINE
5
73b
100
AcDbEntity
8
0-808
6
CONTINUOUS
62
4
100
AcDbLine
10
95.240000000000
20
64.010000000000
30
0.0
11
96.840000000000
21
64.010000000000
31
0.0
0
LINE
5
73c
100
AcDbEntity
8
0-808
6
CONTINUOUS
62
4
100
AcDbLine
10
95.240000000000
20
64.330000000000
30
0.0
11
96.840000000000
21
64.330000000000
31
0.0
0
LINE
5
73d
100
AcDbEntity
8
0-808
6
CONTINUOUS
62
4
100
AcDbLine
10
95.240000000000
20
64.970000000000
30
0.0
11
96.840000000000
21
64.970000000000
31
0.0
0
LINE
5
73e
100
AcDbEntity
8
0-808
6
CONTINUOUS
62
4
100
AcDbLine
10
95.240000000000
20
65.290000000000
30
0.0
11
96.840000000000
21
65.290000000000
31
0.0
0
LINE
5
73f
100
AcDbEntity
8
0-808
6
CONTINUOUS
62
4
100
AcDbLine
10
95.240000000000
20
65.610000000000
30
0.0
11
96.840000000000
21
65.610000000000
31
0.0
0
LINE
5
740
100
AcDbEntity
8
0-808
6
CONTINUOUS
62
4
100
AcDbLine
10
95.240000000000
20
65.930000000000
30
0.0
11
96.840000000000
21
65.930000000000
31
0.0
0
LINE
5
741
100
AcDbEntity
8
0-808
6
CONTINUOUS
62
4
100
AcDbLine
10
95.240000000000
20
66.250000000000
30
0.0
11
96.840000000000
21
66.250000000000
31
0.0
0
LINE
5
742
100
AcDbEntity
8
0-808
6
CONTINUOUS
62
4
100
AcDbLine
10
95.240000000000
20
66.570000000000
30
0.0
11
96.840000000000
21
66.570000000000
31
0.0
0
LINE
5
743
100
AcDbEntity
8
0-808
6
CONTINUOUS
62
4
100
AcDbLine
10
95.240000000000
20
66.890000000000
30
0.0
11
96.840000000000
21
66.890000000000
31
0.0
0
LINE
5
744
100
AcDbEntity
8
0-808
6
CONTINUOUS
62
4
100
AcDbLine
10
95.240000000000
20
67.210000000000
30
0.0
11
96.840000000000
21
67.210000000000
31
0.0
0
LINE
5
745
100
AcDbEntity
8
0-808
6
CONTINUOUS
62
4
100
AcDbLine
10
95.240000000000
20
67.530000000000
30
0.0
11
96.840000000000
21
67.530000000000
31
0.0
0
LINE
5
746
100
AcDbEntity
8
0-808
6
CONTINUOUS
62
4
100
AcDbLine
10
95.240000000000
20
67.850000000000
30
0.0
11
96.840000000000
21
67.850000000000
31
0.0
0
LINE
5
747
100
AcDbEntity
8
0-808
6
CONTINUOUS
62
4
100
AcDbLine
10
95.240000000000
20
68.810000000000
30
0.0
11
96.840000000000
21
68.810000000000
31
0.0
0
LINE
5
748
100
AcDbEntity
8
0-808
6
CONTINUOUS
62
4
100
AcDbLine
10
95.240000000000
20
69.770000000000
30
0.0
11
96.840000000000
21
69.770000000000
31
0.0
0
LINE
5
749
100
AcDbEntity
8
0-808
6
CONTINUOUS
62
4
100
AcDbLine
10
95.240000000000
20
70.090000000000
30
0.0
11
96.840000000000
21
70.090000000000
31
0.0
0
LINE
5
74a
100
AcDbEntity
8
0-808
6
CONTINUOUS
62
4
100
AcDbLine
10
95.240000000000
20
70.410000000000
30
0.0
11
96.840000000000
21
70.410000000000
31
0.0
0
LINE
5
74b
100
AcDbEntity
8
0-808
6
CONTINUOUS
62
4
100
AcDbLine
10
95.240000000000
20
70.730000000000
30
0.0
11
96.840000000000
21
70.730000000000
31
0.0
0
LINE
5
74c
100
AcDbEntity
8
0-808
6
CONTINUOUS
62
4
100
AcDbLine
10
95.240000000000
20
71.690000000000
30
0.0
11
96.840000000000
21
71.690000000000
31
0.0
0
LINE
5
74d
100
AcDbEntity
8
0-808
6
CONTINUOUS
62
4
100
AcDbLine
10
95.240000000000
20
71.370000000000
30
0.0
11
96.840000000000
21
71.370000000000
31
0.0
0
LINE
5
74e
100
AcDbEntity
8
0-808
6
CONTINUOUS
62
4
100
AcDbLine
10
95.240000000000
20
71.050000000000
30
0.0
11
96.840000000000
21
71.050000000000
31
0.0
0
LINE
5
74f
100
AcDbEntity
8
0-808
6
CONTINUOUS
62
4
100
AcDbLine
10
95.240000000000
20
69.130000000000
30
0.0
11
96.840000000000
21
69.130000000000
31
0.0
0
LINE
5
750
100
AcDbEntity
8
0-808
6
CONTINUOUS
62
4
100
AcDbLine
10
95.240000000000
20
69.450000000000
30
0.0
11
96.840000000000
21
69.450000000000
31
0.0
0
LINE
5
751
100
AcDbEntity
8
0-808
6
CONTINUOUS
62
4
100
AcDbLine
10
95.240000000000
20
68.490000000000
30
0.0
11
96.840000000000
21
68.490000000000
31
0.0
0
LINE
5
752
100
AcDbEntity
8
0-808
6
CONTINUOUS
62
4
100
AcDbLine
10
95.240000000000
20
68.170000000000
30
0.0
11
96.840000000000
21
68.170000000000
31
0.0
0
LINE
5
753
100
AcDbEntity
8
0-808
6
CONTINUOUS
62
4
100
AcDbLine
10
95.240000000000
20
59.850000000000
30
0.0
11
96.840000000000
21
59.850000000000
31
0.0
0
LINE
5
754
100
AcDbEntity
8
0-808
6
CONTINUOUS
62
4
100
AcDbLine
10
95.240000000000
20
60.170000000000
30
0.0
11
96.840000000000
21
60.170000000000
31
0.0
0
LINE
5
755
100
AcDbEntity
8
0-808
6
CONTINUOUS
62
4
100
AcDbLine
10
94.510000000000
20
72.330000000000
30
0.0
11
96.840000000000
21
72.330000000000
31
0.0
0
LINE
5
756
100
AcDbEntity
8
0-808
6
CONTINUOUS
62
4
100
AcDbLine
10
94.190000000000
20
72.010000000000
30
0.0
11
96.840000000000
21
72.010000000000
31
0.0
0
LINE
5
757
100
AcDbEntity
8
0-808
6
CONTINUOUS
62
4
100
AcDbLine
10
86.190000000000
20
64.010000000000
30
0.0
11
87.320000000000
21
64.010000000000
31
0.0
0
LINE
5
758
100
AcDbEntity
8
0-808
6
CONTINUOUS
62
4
100
AcDbLine
10
85.870000000000
20
63.690000000000
30
0.0
11
87.000000000000
21
63.690000000000
31
0.0
0
LINE
5
759
100
AcDbEntity
8
0-808
6
CONTINUOUS
62
4
100
AcDbLine
10
85.550000000000
20
63.370000000000
30
0.0
11
86.680000000000
21
63.370000000000
31
0.0
0
LINE
5
75a
100
AcDbEntity
8
0-808
6
CONTINUOUS
62
4
100
AcDbLine
10
85.230000000000
20
63.050000000000
30
0.0
11
86.360000000000
21
63.050000000000
31
0.0
0
LINE
5
75b
100
AcDbEntity
8
0-808
6
CONTINUOUS
62
4
100
AcDbLine
10
87.470000000000
20
65.290000000000
30
0.0
11
88.600000000000
21
65.290000000000
31
0.0
0
LINE
5
75c
100
AcDbEntity
8
0-808
6
CONTINUOUS
62
4
100
AcDbLine
10
87.150000000000
20
64.970000000000
30
0.0
11
88.280000000000
21
64.970000000000
31
0.0
0
LINE
5
75d
100
AcDbEntity
8
0-808
6
CONTINUOUS
62
4
100
AcDbLine
10
86.830000000000
20
64.650000000000
30
0.0
11
87.960000000000
21
64.650000000000
31
0.0
0
LINE
5
75e
100
AcDbEntity
8
0-808
6
CONTINUOUS
62
4
100
AcDbLine
10
86.510000000000
20
64.330000000000
30
0.0
11
87.640000000000
21
64.330000000000
31
0.0
0
LINE
5
75f
100
AcDbEntity
8
0-808
6
CONTINUOUS
62
4
100
AcDbLine
10
88.750000000000
20
66.570000000000
30
0.0
11
89.880000000000
21
66.570000000000
31
0.0
0
LINE
5
760
100
AcDbEntity
8
0-808
6
CONTINUOUS
62
4
100
AcDbLine
10
88.430000000000
20
66.250000000000
30
0.0
11
89.560000000000
21
66.250000000000
31
0.0
0
LINE
5
761
100
AcDbEntity
8
0-808
6
CONTINUOUS
62
4
100
AcDbLine
10
88.110000000000
20
65.930000000000
30
0.0
11
89.240000000000
21
65.930000000000
31
0.0
0
LINE
5
762
100
AcDbEntity
8
0-808
6
CONTINUOUS
62
4
100
AcDbLine
10
87.790000000000
20
65.610000000000
30
0.0
11
88.920000000000
21
65.610000000000
31
0.0
0
LINE
5
763
100
AcDbEntity
8
0-808
6
CONTINUOUS
62
4
100
AcDbLine
10
90.030000000000
20
67.850000000000
30
0.0
11
91.160000000000
21
67.850000000000
31
0.0
0
LINE
5
764
100
AcDbEntity
8
0-808
6
CONTINUOUS
62
4
100
AcDbLine
10
89.710000000000
20
67.530000000000
30
0.0
11
90.840000000000
21
67.530000000000
31
0.0
0
LINE
5
765
100
AcDbEntity
8
0-808
6
CONTINUOUS
62
4
100
AcDbLine
10
89.390000000000
20
67.210000000000
30
0.0
11
90.520000000000
21
67.210000000000
31
0.0
0
LINE
5
766
100
AcDbEntity
8
0-808
6
CONTINUOUS
62
4
100
AcDbLine
10
89.070000000000
20
66.890000000000
30
0.0
11
90.200000000000
21
66.890000000000
31
0.0
0
LINE
5
767
100
AcDbEntity
8
0-808
6
CONTINUOUS
62
4
100
AcDbLine
10
91.310000000000
20
69.130000000000
30
0.0
11
92.440000000000
21
69.130000000000
31
0.0
0
LINE
5
768
100
AcDbEntity
8
0-808
6
CONTINUOUS
62
4
100
AcDbLine
10
90.990000000000
20
68.810000000000
30
0.0
11
92.120000000000
21
68.810000000000
31
0.0
0
LINE
5
769
100
AcDbEntity
8
0-808
6
CONTINUOUS
62
4
100
AcDbLine
10
90.670000000000
20
68.490000000000
30
0.0
11
91.800000000000
21
68.490000000000
31
0.0
0
LINE
5
76a
100
AcDbEntity
8
0-808
6
CONTINUOUS
62
4
100
AcDbLine
10
90.350000000000
20
68.170000000000
30
0.0
11
91.480000000000
21
68.170000000000
31
0.0
0
LINE
5
76b
100
AcDbEntity
8
0-808
6
CONTINUOUS
62
4
100
AcDbLine
10
92.590000000000
20
70.410000000000
30
0.0
11
93.720000000000
21
70.410000000000
31
0.0
0
LINE
5
76c
100
AcDbEntity
8
0-808
6
CONTINUOUS
62
4
100
AcDbLine
10
92.270000000000
20
70.090000000000
30
0.0
11
93.400000000000
21
70.090000000000
31
0.0
0
LINE
5
76d
100
AcDbEntity
8
0-808
6
CONTINUOUS
62
4
100
AcDbLine
10
91.950000000000
20
69.770000000000
30
0.0
11
93.080000000000
21
69.770000000000
31
0.0
0
LINE
5
76e
100
AcDbEntity
8
0-808
6
CONTINUOUS
62
4
100
AcDbLine
10
91.630000000000
20
69.450000000000
30
0.0
11
92.760000000000
21
69.450000000000
31
0.0
0
LINE
5
76f
100
AcDbEntity
8
0-808
6
CONTINUOUS
62
4
100
AcDbLine
10
93.870000000000
20
71.690000000000
30
0.0
11
95.000000000000
21
71.690000000000
31
0.0
0
LINE
5
770
100
AcDbEntity
8
0-808
6
CONTINUOUS
62
4
100
AcDbLine
10
93.550000000000
20
71.370000000000
30
0.0
11
94.680000000000
21
71.370000000000
31
0.0
0
LINE
5
771
100
AcDbEntity
8
0-808
6
CONTINUOUS
62
4
100
AcDbLine
10
93.230000000000
20
71.050000000000
30
0.0
11
94.360000000000
21
71.050000000000
31
0.0
0
LINE
5
772
100
AcDbEntity
8
0-808
6
CONTINUOUS
62
4
100
AcDbLine
10
92.910000000000
20
70.730000000000
30
0.0
11
94.040000000000
21
70.730000000000
31
0.0
0
LINE
5
773
100
AcDbEntity
8
0-808
6
CONTINUOUS
62
4
100
AcDbLine
10
95.240000000000
20
64.650000000000
30
0.0
11
96.840000000000
21
64.650000000000
31
0.0
0
LINE
5
774
100
AcDbEntity
8
0-606
6
CONTINUOUS
62
4
100
AcDbLine
10
375.720000000000
20
746.470000000000
30
0.0
11
375.720000000000
21
787.070000000000
31
0.0
0
LINE
5
775
100
AcDbEntity
8
0-202
6
CENTER2
62
4
100
AcDbLine
10
839.980000000000
20
911.500000000000
30
0.0
11
854.760000000000
21
837.570000000000
31
0.0
0
LINE
5
776
100
AcDbEntity
8
0-505
6
CONTINUOUS
62
7
100
AcDbLine
10
1454.380000000000
20
317.610000000000
30
0.0
11
1378.480000000000
21
317.610000000000
31
0.0
0
LINE
5
777
100
AcDbEntity
8
0-101
6
CONTINUOUS
62
7
100
AcDbLine
10
162.510000000000
20
330.310000000000
30
0.0
11
162.240000000000
21
334.440000000000
31
0.0
0
LINE
5
778
100
AcDbEntity
8
0-101
6
CONTINUOUS
62
7
100
AcDbLine
10
162.510000000000
20
330.310000000000
30
0.0
11
160.210000000000
21
333.750000000000
31
0.0
0
LINE
5
779
100
AcDbEntity
8
0-101
6
CONTINUOUS
62
7
100
AcDbLine
10
162.510000000000
20
330.310000000000
30
0.0
11
153.590000000000
21
356.680000000000
31
0.0
0
LINE
5
77a
100
AcDbEntity
8
0-505
6
CONTINUOUS
62
3
100
AcDbLine
10
1458.980000000000
20
262.310000000000
30
0.0
11
1458.980000000000
21
166.910000000000
31
0.0
0
LINE
5
77b
100
AcDbEntity
8
0-505
6
CONTINUOUS
62
3
100
AcDbLine
10
1458.980000000000
20
289.610000000000
30
0.0
11
1458.980000000000
21
371.910000000000
31
0.0
0
LINE
5
77c
100
AcDbEntity
8
0-000
6
CONTINUOUS
62
4
100
AcDbLine
10
138.670000000000
20
969.710000000000
30
0.0
11
148.670000000000
21
969.710000000000
31
0.0
0
LINE
5
77d
100
AcDbEntity
8
0-000
6
CONTINUOUS
62
4
100
AcDbLine
10
140.670000000000
20
970.210000000000
30
0.0
11
146.670000000000
21
970.210000000000
31
0.0
0
LINE
5
77e
100
AcDbEntity
8
0-000
6
CONTINUOUS
62
4
100
AcDbLine
10
148.670000000000
20
969.710000000000
30
0.0
11
148.670000000000
21
969.310000000000
31
0.0
0
LINE
5
77f
100
AcDbEntity
8
0-000
6
CONTINUOUS
62
4
100
AcDbLine
10
146.670000000000
20
970.210000000000
30
0.0
11
148.170000000000
21
969.710000000000
31
0.0
0
LINE
5
780
100
AcDbEntity
8
0-000
6
CONTINUOUS
62
4
100
AcDbLine
10
146.070000000000
20
958.840000000000
30
0.0
11
141.270000000000
21
959.640000000000
31
0.0
0
LINE
5
781
100
AcDbEntity
8
0-000
6
CONTINUOUS
62
4
100
AcDbLine
10
146.070000000000
20
957.240000000000
30
0.0
11
141.270000000000
21
958.040000000000
31
0.0
0
LINE
5
782
100
AcDbEntity
8
0-000
6
CONTINUOUS
62
4
100
AcDbLine
10
146.070000000000
20
955.640000000000
30
0.0
11
141.270000000000
21
956.440000000000
31
0.0
0
LINE
5
783
100
AcDbEntity
8
0-000
6
CONTINUOUS
62
4
100
AcDbLine
10
146.070000000000
20
960.440000000000
30
0.0
11
141.270000000000
21
961.240000000000
31
0.0
0
LINE
5
784
100
AcDbEntity
8
0-000
6
CONTINUOUS
62
4
100
AcDbLine
10
138.670000000000
20
969.710000000000
30
0.0
11
138.670000000000
21
969.310000000000
31
0.0
0
LINE
5
785
100
AcDbEntity
8
0-000
6
CONTINUOUS
62
4
100
AcDbLine
10
140.670000000000
20
970.210000000000
30
0.0
11
139.170000000000
21
969.710000000000
31
0.0
0
LINE
5
786
100
AcDbEntity
8
0-000
6
CONTINUOUS
62
4
100
AcDbLine
10
146.070000000000
20
952.440000000000
30
0.0
11
141.270000000000
21
953.240000000000
31
0.0
0
LINE
5
787
100
AcDbEntity
8
0-000
6
CONTINUOUS
62
4
100
AcDbLine
10
146.070000000000
20
954.040000000000
30
0.0
11
141.270000000000
21
954.840000000000
31
0.0
0
LINE
5
788
100
AcDbEntity
8
0-000
6
CONTINUOUS
62
4
100
AcDbLine
10
146.070000000000
20
950.840000000000
30
0.0
11
141.270000000000
21
951.640000000000
31
0.0
0
LINE
5
789
100
AcDbEntity
8
0-000
6
CONTINUOUS
62
4
100
AcDbLine
10
146.070000000000
20
949.240000000000
30
0.0
11
141.270000000000
21
950.040000000000
31
0.0
0
LINE
5
78a
100
AcDbEntity
8
0-000
6
CONTINUOUS
62
4
100
AcDbLine
10
143.670000000000
20
934.310000000000
30
0.0
11
141.670000000000
21
935.910000000000
31
0.0
0
LINE
5
78b
100
AcDbEntity
8
0-000
6
CONTINUOUS
62
4
100
AcDbLine
10
145.670000000000
20
935.910000000000
30
0.0
11
143.670000000000
21
934.310000000000
31
0.0
0
LINE
5
78c
100
AcDbEntity
8
0-000
6
CONTINUOUS
62
4
100
AcDbLine
10
138.670000000000
20
969.310000000000
30
0.0
11
148.670000000000
21
969.310000000000
31
0.0
0
LINE
5
78d
100
AcDbEntity
8
0-000
6
DASHED
62
7
100
AcDbLine
10
317.570000000000
20
968.210000000000
30
0.0
11
126.570000000000
21
968.210000000000
31
0.0
0
LINE
5
78e
100
AcDbEntity
8
0-000
6
CONTINUOUS
62
3
100
AcDbLine
10
317.570000000000
20
967.710000000000
30
0.0
11
126.570000000000
21
967.710000000000
31
0.0
0
LINE
5
78f
100
AcDbEntity
8
0-000
6
CONTINUOUS
62
3
100
AcDbLine
10
317.570000000000
20
947.710000000000
30
0.0
11
126.570000000000
21
947.710000000000
31
0.0
0
LINE
5
790
100
AcDbEntity
8
0-000
6
CONTINUOUS
62
4
100
AcDbLine
10
286.410000000000
20
947.710000000000
30
0.0
11
306.410000000000
21
967.710000000000
31
0.0
0
LINE
5
791
100
AcDbEntity
8
0-000
6
CONTINUOUS
62
4
100
AcDbLine
10
272.270000000000
20
947.710000000000
30
0.0
11
292.270000000000
21
967.710000000000
31
0.0
0
LINE
5
792
100
AcDbEntity
8
0-000
6
CONTINUOUS
62
4
100
AcDbLine
10
258.120000000000
20
947.710000000000
30
0.0
11
278.120000000000
21
967.710000000000
31
0.0
0
LINE
5
793
100
AcDbEntity
8
0-000
6
CONTINUOUS
62
4
100
AcDbLine
10
243.980000000000
20
947.710000000000
30
0.0
11
263.980000000000
21
967.710000000000
31
0.0
0
LINE
5
794
100
AcDbEntity
8
0-000
6
CONTINUOUS
62
4
100
AcDbLine
10
229.840000000000
20
947.710000000000
30
0.0
11
249.840000000000
21
967.710000000000
31
0.0
0
LINE
5
795
100
AcDbEntity
8
0-000
6
CONTINUOUS
62
4
100
AcDbLine
10
215.700000000000
20
947.710000000000
30
0.0
11
235.700000000000
21
967.710000000000
31
0.0
0
LINE
5
796
100
AcDbEntity
8
0-000
6
CONTINUOUS
62
4
100
AcDbLine
10
201.560000000000
20
947.710000000000
30
0.0
11
221.560000000000
21
967.710000000000
31
0.0
0
LINE
5
797
100
AcDbEntity
8
0-000
6
CONTINUOUS
62
4
100
AcDbLine
10
187.410000000000
20
947.710000000000
30
0.0
11
207.410000000000
21
967.710000000000
31
0.0
0
LINE
5
798
100
AcDbEntity
8
0-000
6
CONTINUOUS
62
4
100
AcDbLine
10
173.270000000000
20
947.710000000000
30
0.0
11
193.270000000000
21
967.710000000000
31
0.0
0
LINE
5
799
100
AcDbEntity
8
0-000
6
CONTINUOUS
62
4
100
AcDbLine
10
159.130000000000
20
947.710000000000
30
0.0
11
179.130000000000
21
967.710000000000
31
0.0
0
LINE
5
79a
100
AcDbEntity
8
0-000
6
CONTINUOUS
62
4
100
AcDbLine
10
144.990000000000
20
947.710000000000
30
0.0
11
164.990000000000
21
967.710000000000
31
0.0
0
LINE
5
79b
100
AcDbEntity
8
0-000
6
CONTINUOUS
62
4
100
AcDbLine
10
130.850000000000
20
947.710000000000
30
0.0
11
150.850000000000
21
967.710000000000
31
0.0
0
LINE
5
79c
100
AcDbEntity
8
0-000
6
CONTINUOUS
62
4
100
AcDbLine
10
116.700000000000
20
947.710000000000
30
0.0
11
136.700000000000
21
967.710000000000
31
0.0
0
LINE
5
79d
100
AcDbEntity
8
0-000
6
CONTINUOUS
62
4
100
AcDbLine
10
102.560000000000
20
947.710000000000
30
0.0
11
122.560000000000
21
967.710000000000
31
0.0
0
LINE
5
79e
100
AcDbEntity
8
0-000
6
CONTINUOUS
62
4
100
AcDbLine
10
88.420000000000
20
947.710000000000
30
0.0
11
108.420000000000
21
967.710000000000
31
0.0
0
LINE
5
79f
100
AcDbEntity
8
0-000
6
CONTINUOUS
62
4
100
AcDbLine
10
74.280000000000
20
947.710000000000
30
0.0
11
94.280000000000
21
967.710000000000
31
0.0
0
LINE
5
7a0
100
AcDbEntity
8
0-000
6
CONTINUOUS
62
4
100
AcDbLine
10
146.070000000000
20
963.640000000000
30
0.0
11
141.270000000000
21
964.440000000000
31
0.0
0
LINE
5
7a1
100
AcDbEntity
8
0-000
6
CONTINUOUS
62
4
100
AcDbLine
10
146.070000000000
20
962.040000000000
30
0.0
11
141.270000000000
21
962.840000000000
31
0.0
0
LINE
5
7a2
100
AcDbEntity
8
0-000
6
CONTINUOUS
62
4
100
AcDbLine
10
146.070000000000
20
965.240000000000
30
0.0
11
141.270000000000
21
966.040000000000
31
0.0
0
LINE
5
7a3
100
AcDbEntity
8
0-000
6
CONTINUOUS
62
4
100
AcDbLine
10
141.670000000000
20
935.910000000000
30
0.0
11
141.670000000000
21
969.310000000000
31
0.0
0
LINE
5
7a4
100
AcDbEntity
8
0-000
6
CONTINUOUS
62
4
100
AcDbLine
10
145.670000000000
20
935.910000000000
30
0.0
11
145.670000000000
21
969.310000000000
31
0.0
0
LINE
5
7a5
100
AcDbEntity
8
0-000
6
CONTINUOUS
62
4
100
AcDbLine
10
146.070000000000
20
947.640000000000
30
0.0
11
141.270000000000
21
948.440000000000
31
0.0
0
LINE
5
7a6
100
AcDbEntity
8
0-000
6
CONTINUOUS
62
4
100
AcDbLine
10
146.070000000000
20
946.040000000000
30
0.0
11
141.270000000000
21
946.840000000000
31
0.0
0
LINE
5
7a7
100
AcDbEntity
8
0-000
6
CONTINUOUS
62
4
100
AcDbLine
10
146.070000000000
20
944.440000000000
30
0.0
11
141.270000000000
21
945.240000000000
31
0.0
0
LINE
5
7a8
100
AcDbEntity
8
0-000
6
CONTINUOUS
62
4
100
AcDbLine
10
146.070000000000
20
942.840000000000
30
0.0
11
141.270000000000
21
943.640000000000
31
0.0
0
LINE
5
7a9
100
AcDbEntity
8
0-000
6
CONTINUOUS
62
4
100
AcDbLine
10
146.070000000000
20
941.240000000000
30
0.0
11
141.270000000000
21
942.040000000000
31
0.0
0
LINE
5
7aa
100
AcDbEntity
8
0-000
6
CENTER2
62
4
100
AcDbLine
10
481.970000000000
20
1054.630000000000
30
0.0
11
481.970000000000
21
934.630000000000
31
0.0
0
LINE
5
7ab
100
AcDbEntity
8
0-000
6
DASHED
62
7
100
AcDbLine
10
317.570000000000
20
968.210000000000
30
0.0
11
508.570000000000
21
968.210000000000
31
0.0
0
LINE
5
7ac
100
AcDbEntity
8
0-000
6
CONTINUOUS
62
3
100
AcDbLine
10
317.570000000000
20
967.710000000000
30
0.0
11
508.570000000000
21
967.710000000000
31
0.0
0
LINE
5
7ad
100
AcDbEntity
8
0-000
6
CONTINUOUS
62
3
100
AcDbLine
10
317.570000000000
20
947.710000000000
30
0.0
11
508.570000000000
21
947.710000000000
31
0.0
0
LINE
5
7ae
100
AcDbEntity
8
0-000
6
DASHED
62
7
100
AcDbLine
10
64.760000000000
20
968.210000000000
30
0.0
11
126.570000000000
21
968.210000000000
31
0.0
0
LINE
5
7af
100
AcDbEntity
8
0-000
6
CONTINUOUS
62
3
100
AcDbLine
10
64.760000000000
20
967.710000000000
30
0.0
11
126.570000000000
21
967.710000000000
31
0.0
0
LINE
5
7b0
100
AcDbEntity
8
0-000
6
CONTINUOUS
62
4
100
AcDbLine
10
64.760000000000
20
966.470000000000
30
0.0
11
65.990000000000
21
967.710000000000
31
0.0
0
LINE
5
7b1
100
AcDbEntity
8
0-000
6
CONTINUOUS
62
4
100
AcDbLine
10
64.760000000000
20
952.330000000000
30
0.0
11
80.130000000000
21
967.710000000000
31
0.0
0
LINE
5
7b2
100
AcDbEntity
8
0-000
6
CONTINUOUS
62
3
100
AcDbLine
10
64.760000000000
20
947.710000000000
30
0.0
11
126.570000000000
21
947.710000000000
31
0.0
0
LINE
5
7b3
100
AcDbEntity
8
0-000
6
CONTINUOUS
62
4
100
AcDbLine
10
300.550000000000
20
947.710000000000
30
0.0
11
320.550000000000
21
967.710000000000
31
0.0
0
LINE
5
7b4
100
AcDbEntity
8
0-000
6
CONTINUOUS
62
4
100
AcDbLine
10
314.690000000000
20
947.710000000000
30
0.0
11
334.690000000000
21
967.710000000000
31
0.0
0
LINE
5
7b5
100
AcDbEntity
8
0-000
6
CONTINUOUS
62
4
100
AcDbLine
10
385.400000000000
20
947.710000000000
30
0.0
11
405.400000000000
21
967.710000000000
31
0.0
0
LINE
5
7b6
100
AcDbEntity
8
0-000
6
CONTINUOUS
62
4
100
AcDbLine
10
371.260000000000
20
947.710000000000
30
0.0
11
391.260000000000
21
967.710000000000
31
0.0
0
LINE
5
7b7
100
AcDbEntity
8
0-000
6
CONTINUOUS
62
4
100
AcDbLine
10
357.120000000000
20
947.710000000000
30
0.0
11
377.120000000000
21
967.710000000000
31
0.0
0
LINE
5
7b8
100
AcDbEntity
8
0-000
6
CONTINUOUS
62
4
100
AcDbLine
10
342.980000000000
20
947.710000000000
30
0.0
11
362.980000000000
21
967.710000000000
31
0.0
0
LINE
5
7b9
100
AcDbEntity
8
0-000
6
CONTINUOUS
62
4
100
AcDbLine
10
328.840000000000
20
947.710000000000
30
0.0
11
348.840000000000
21
967.710000000000
31
0.0
0
LINE
5
7ba
100
AcDbEntity
8
0-000
6
CONTINUOUS
62
4
100
AcDbLine
10
399.550000000000
20
947.710000000000
30
0.0
11
419.550000000000
21
967.710000000000
31
0.0
0
LINE
5
7bb
100
AcDbEntity
8
0-000
6
CONTINUOUS
62
4
100
AcDbLine
10
413.690000000000
20
947.710000000000
30
0.0
11
433.690000000000
21
967.710000000000
31
0.0
0
LINE
5
7bc
100
AcDbEntity
8
0-000
6
CONTINUOUS
62
4
100
AcDbLine
10
470.260000000000
20
947.710000000000
30
0.0
11
490.260000000000
21
967.710000000000
31
0.0
0
LINE
5
7bd
100
AcDbEntity
8
0-000
6
CONTINUOUS
62
4
100
AcDbLine
10
456.110000000000
20
947.710000000000
30
0.0
11
476.110000000000
21
967.710000000000
31
0.0
0
LINE
5
7be
100
AcDbEntity
8
0-000
6
CONTINUOUS
62
4
100
AcDbLine
10
441.970000000000
20
947.710000000000
30
0.0
11
461.970000000000
21
967.710000000000
31
0.0
0
LINE
5
7bf
100
AcDbEntity
8
0-000
6
CONTINUOUS
62
4
100
AcDbLine
10
427.830000000000
20
947.710000000000
30
0.0
11
447.830000000000
21
967.710000000000
31
0.0
0
LINE
5
7c0
100
AcDbEntity
8
0-000
6
CONTINUOUS
62
4
100
AcDbLine
10
512.680000000000
20
947.710000000000
30
0.0
11
532.680000000000
21
967.710000000000
31
0.0
0
LINE
5
7c1
100
AcDbEntity
8
0-000
6
CONTINUOUS
62
4
100
AcDbLine
10
540.970000000000
20
947.710000000000
30
0.0
11
560.970000000000
21
967.710000000000
31
0.0
0
LINE
5
7c2
100
AcDbEntity
8
0-000
6
CONTINUOUS
62
4
100
AcDbLine
10
526.830000000000
20
947.710000000000
30
0.0
11
546.830000000000
21
967.710000000000
31
0.0
0
LINE
5
7c3
100
AcDbEntity
8
0-000
6
DASHED
62
7
100
AcDbLine
10
570.390000000000
20
968.210000000000
30
0.0
11
508.570000000000
21
968.210000000000
31
0.0
0
LINE
5
7c4
100
AcDbEntity
8
0-000
6
CONTINUOUS
62
3
100
AcDbLine
10
570.390000000000
20
967.710000000000
30
0.0
11
508.570000000000
21
967.710000000000
31
0.0
0
LINE
5
7c5
100
AcDbEntity
8
0-000
6
CONTINUOUS
62
4
100
AcDbLine
10
555.110000000000
20
947.710000000000
30
0.0
11
570.390000000000
21
962.980000000000
31
0.0
0
LINE
5
7c6
100
AcDbEntity
8
0-000
6
CONTINUOUS
62
4
100
AcDbLine
10
569.250000000000
20
947.710000000000
30
0.0
11
570.390000000000
21
948.840000000000
31
0.0
0
LINE
5
7c7
100
AcDbEntity
8
0-000
6
CONTINUOUS
62
3
100
AcDbLine
10
570.390000000000
20
947.710000000000
30
0.0
11
508.570000000000
21
947.710000000000
31
0.0
0
LINE
5
7c8
100
AcDbEntity
8
0-000
6
CONTINUOUS
62
4
100
AcDbLine
10
570.390000000000
20
1054.630000000000
30
0.0
11
564.590000000000
21
1053.080000000000
31
0.0
0
LINE
5
7c9
100
AcDbEntity
8
0-000
6
CONTINUOUS
62
4
100
AcDbLine
10
570.390000000000
20
1054.630000000000
30
0.0
11
564.590000000000
21
1056.180000000000
31
0.0
0
LINE
5
7ca
100
AcDbEntity
8
0-000
6
CONTINUOUS
62
4
100
AcDbLine
10
64.760000000000
20
1054.630000000000
30
0.0
11
70.550000000000
21
1053.080000000000
31
0.0
0
LINE
5
7cb
100
AcDbEntity
8
0-000
6
CONTINUOUS
62
4
100
AcDbLine
10
64.760000000000
20
1054.630000000000
30
0.0
11
70.550000000000
21
1056.180000000000
31
0.0
0
LINE
5
7cc
100
AcDbEntity
8
0-000
6
CONTINUOUS
62
7
100
AcDbLine
10
215.180000000000
20
969.310000000000
30
0.0
11
215.440000000000
21
973.440000000000
31
0.0
0
LINE
5
7cd
100
AcDbEntity
8
0-000
6
CONTINUOUS
62
7
100
AcDbLine
10
215.180000000000
20
969.310000000000
30
0.0
11
217.470000000000
21
972.750000000000
31
0.0
0
LINE
5
7ce
100
AcDbEntity
8
0-000
6
CONTINUOUS
62
7
100
AcDbLine
10
215.180000000000
20
969.310000000000
30
0.0
11
228.100000000000
21
1007.500000000000
31
0.0
0
LINE
5
7cf
100
AcDbEntity
8
0-000
6
CONTINUOUS
62
7
100
AcDbLine
10
309.170000000000
20
968.080000000000
30
0.0
11
309.430000000000
21
972.220000000000
31
0.0
0
LINE
5
7d0
100
AcDbEntity
8
0-000
6
CONTINUOUS
62
7
100
AcDbLine
10
309.170000000000
20
968.080000000000
30
0.0
11
311.460000000000
21
971.530000000000
31
0.0
0
LINE
5
7d1
100
AcDbEntity
8
0-000
6
CONTINUOUS
62
7
100
AcDbLine
10
309.170000000000
20
968.080000000000
30
0.0
11
318.080000000000
21
994.420000000000
31
0.0
0
LINE
5
7d2
100
AcDbEntity
8
0-000
6
CONTINUOUS
62
7
100
AcDbLine
10
254.720000000000
20
952.000000000000
30
0.0
11
255.790000000000
21
948.000000000000
31
0.0
0
LINE
5
7d3
100
AcDbEntity
8
0-000
6
CONTINUOUS
62
7
100
AcDbLine
10
254.720000000000
20
952.000000000000
30
0.0
11
257.650000000000
21
949.070000000000
31
0.0
0
LINE
5
7d4
100
AcDbEntity
8
0-000
6
CONTINUOUS
62
3
100
AcDbLine
10
570.390000000000
20
927.710000000000
30
0.0
11
64.760000000000
21
927.710000000000
31
0.0
0
LINE
5
7d5
100
AcDbEntity
8
0-000
6
CONTINUOUS
62
3
100
AcDbLine
10
570.390000000000
20
867.710000000000
30
0.0
11
64.760000000000
21
867.710000000000
31
0.0
0
LINE
5
7d6
100
AcDbEntity
8
0-000
6
CONTINUOUS
62
3
100
AcDbLine
10
570.390000000000
20
847.710000000000
30
0.0
11
64.760000000000
21
847.710000000000
31
0.0
0
LINE
5
7d7
100
AcDbEntity
8
0-000
6
CENTER2
62
4
100
AcDbLine
10
153.170000000000
20
1054.630000000000
30
0.0
11
153.170000000000
21
934.630000000000
31
0.0
0
LINE
5
7d8
100
AcDbEntity
8
0-000
6
CONTINUOUS
62
7
100
AcDbLine
10
254.720000000000
20
952.000000000000
30
0.0
11
272.210000000000
21
921.710000000000
31
0.0
0
LINE
5
7d9
100
AcDbEntity
8
0-000
6
CONTINUOUS
62
4
100
AcDbLine
10
189.360000000000
20
989.910000000000
30
0.0
11
202.170000000000
21
989.910000000000
31
0.0
0
LINE
5
7da
100
AcDbEntity
8
0-000
6
CONTINUOUS
62
4
100
AcDbLine
10
498.700000000000
20
947.710000000000
30
0.0
11
518.700000000000
21
967.710000000000
31
0.0
0
LINE
5
7db
100
AcDbEntity
8
0-000
6
CONTINUOUS
62
4
100
AcDbLine
10
484.560000000000
20
947.710000000000
30
0.0
11
504.560000000000
21
967.710000000000
31
0.0
0
LINE
5
7dc
100
AcDbEntity
8
0-000
6
CONTINUOUS
62
7
100
AcDbLine
10
155.270000000000
20
986.010000000000
30
0.0
11
155.870000000000
21
986.010000000000
31
0.0
0
LINE
5
7dd
100
AcDbEntity
8
0-000
6
CONTINUOUS
62
7
100
AcDbLine
10
136.470000000000
20
970.710000000000
30
0.0
11
134.470000000000
21
970.710000000000
31
0.0
0
LINE
5
7de
100
AcDbEntity
8
0-000
6
CONTINUOUS
62
7
100
AcDbLine
10
136.470000000000
20
970.110000000000
30
0.0
11
136.470000000000
21
970.710000000000
31
0.0
0
LINE
5
7df
100
AcDbEntity
8
0-000
6
CONTINUOUS
62
7
100
AcDbLine
10
136.470000000000
20
970.110000000000
30
0.0
11
134.470000000000
21
970.110000000000
31
0.0
0
LINE
5
7e0
100
AcDbEntity
8
0-000
6
CONTINUOUS
62
7
100
AcDbLine
10
121.500000000000
20
971.130000000000
30
0.0
11
119.670000000000
21
969.310000000000
31
0.0
0
LINE
5
7e1
100
AcDbEntity
8
0-000
6
CONTINUOUS
62
7
100
AcDbLine
10
120.100000000000
20
968.880000000000
30
0.0
11
121.920000000000
21
970.710000000000
31
0.0
0
LINE
5
7e2
100
AcDbEntity
8
0-000
6
CONTINUOUS
62
7
100
AcDbLine
10
184.200000000000
20
971.130000000000
30
0.0
11
186.020000000000
21
969.310000000000
31
0.0
0
LINE
5
7e3
100
AcDbEntity
8
0-000
6
CONTINUOUS
62
7
100
AcDbLine
10
185.600000000000
20
968.880000000000
30
0.0
11
183.770000000000
21
970.710000000000
31
0.0
0
LINE
5
7e4
100
AcDbEntity
8
0-000
6
CONTINUOUS
62
7
100
AcDbLine
10
159.470000000000
20
986.010000000000
30
0.0
11
159.470000000000
21
979.010000000000
31
0.0
0
LINE
5
7e5
100
AcDbEntity
8
0-000
6
CONTINUOUS
62
7
100
AcDbLine
10
158.870000000000
20
986.010000000000
30
0.0
11
158.870000000000
21
979.010000000000
31
0.0
0
LINE
5
7e6
100
AcDbEntity
8
0-000
6
CONTINUOUS
62
7
100
AcDbLine
10
158.270000000000
20
986.010000000000
30
0.0
11
158.270000000000
21
979.010000000000
31
0.0
0
LINE
5
7e7
100
AcDbEntity
8
0-000
6
CONTINUOUS
62
7
100
AcDbLine
10
157.670000000000
20
986.010000000000
30
0.0
11
157.670000000000
21
979.010000000000
31
0.0
0
LINE
5
7e8
100
AcDbEntity
8
0-000
6
CONTINUOUS
62
7
100
AcDbLine
10
157.070000000000
20
986.010000000000
30
0.0
11
157.070000000000
21
979.010000000000
31
0.0
0
LINE
5
7e9
100
AcDbEntity
8
0-000
6
CONTINUOUS
62
7
100
AcDbLine
10
156.470000000000
20
986.010000000000
30
0.0
11
156.470000000000
21
979.010000000000
31
0.0
0
LINE
5
7ea
100
AcDbEntity
8
0-000
6
CONTINUOUS
62
7
100
AcDbLine
10
155.870000000000
20
986.010000000000
30
0.0
11
155.870000000000
21
979.010000000000
31
0.0
0
LINE
5
7eb
100
AcDbEntity
8
0-000
6
CONTINUOUS
62
7
100
AcDbLine
10
155.270000000000
20
986.010000000000
30
0.0
11
155.270000000000
21
979.010000000000
31
0.0
0
LINE
5
7ec
100
AcDbEntity
8
0-000
6
CENTER2
62
4
100
AcDbLine
10
143.670000000000
20
971.120000000000
30
0.0
11
143.670000000000
21
930.970000000000
31
0.0
0
LINE
5
7ed
100
AcDbEntity
8
0-000
6
CONTINUOUS
62
4
100
AcDbLine
10
467.470000000000
20
969.710000000000
30
0.0
11
477.470000000000
21
969.710000000000
31
0.0
0
LINE
5
7ee
100
AcDbEntity
8
0-000
6
CONTINUOUS
62
4
100
AcDbLine
10
469.470000000000
20
970.210000000000
30
0.0
11
475.470000000000
21
970.210000000000
31
0.0
0
LINE
5
7ef
100
AcDbEntity
8
0-000
6
CONTINUOUS
62
4
100
AcDbLine
10
477.470000000000
20
969.710000000000
30
0.0
11
477.470000000000
21
969.310000000000
31
0.0
0
LINE
5
7f0
100
AcDbEntity
8
0-000
6
CONTINUOUS
62
4
100
AcDbLine
10
475.470000000000
20
970.210000000000
30
0.0
11
476.970000000000
21
969.710000000000
31
0.0
0
LINE
5
7f1
100
AcDbEntity
8
0-000
6
CONTINUOUS
62
4
100
AcDbLine
10
474.870000000000
20
958.840000000000
30
0.0
11
470.070000000000
21
959.640000000000
31
0.0
0
LINE
5
7f2
100
AcDbEntity
8
0-000
6
CONTINUOUS
62
4
100
AcDbLine
10
474.870000000000
20
957.240000000000
30
0.0
11
470.070000000000
21
958.040000000000
31
0.0
0
LINE
5
7f3
100
AcDbEntity
8
0-000
6
CONTINUOUS
62
4
100
AcDbLine
10
474.870000000000
20
955.640000000000
30
0.0
11
470.070000000000
21
956.440000000000
31
0.0
0
LINE
5
7f4
100
AcDbEntity
8
0-000
6
CONTINUOUS
62
4
100
AcDbLine
10
474.870000000000
20
960.440000000000
30
0.0
11
470.070000000000
21
961.240000000000
31
0.0
0
LINE
5
7f5
100
AcDbEntity
8
0-000
6
CONTINUOUS
62
4
100
AcDbLine
10
467.470000000000
20
969.710000000000
30
0.0
11
467.470000000000
21
969.310000000000
31
0.0
0
LINE
5
7f6
100
AcDbEntity
8
0-000
6
CONTINUOUS
62
4
100
AcDbLine
10
469.470000000000
20
970.210000000000
30
0.0
11
467.970000000000
21
969.710000000000
31
0.0
0
LINE
5
7f7
100
AcDbEntity
8
0-000
6
CONTINUOUS
62
4
100
AcDbLine
10
474.870000000000
20
952.440000000000
30
0.0
11
470.070000000000
21
953.240000000000
31
0.0
0
LINE
5
7f8
100
AcDbEntity
8
0-000
6
CONTINUOUS
62
4
100
AcDbLine
10
474.870000000000
20
954.040000000000
30
0.0
11
470.070000000000
21
954.840000000000
31
0.0
0
LINE
5
7f9
100
AcDbEntity
8
0-000
6
CONTINUOUS
62
4
100
AcDbLine
10
474.870000000000
20
950.840000000000
30
0.0
11
470.070000000000
21
951.640000000000
31
0.0
0
LINE
5
7fa
100
AcDbEntity
8
0-000
6
CONTINUOUS
62
4
100
AcDbLine
10
474.870000000000
20
949.240000000000
30
0.0
11
470.070000000000
21
950.040000000000
31
0.0
0
LINE
5
7fb
100
AcDbEntity
8
0-000
6
CONTINUOUS
62
4
100
AcDbLine
10
472.470000000000
20
934.310000000000
30
0.0
11
470.470000000000
21
935.910000000000
31
0.0
0
LINE
5
7fc
100
AcDbEntity
8
0-000
6
CONTINUOUS
62
4
100
AcDbLine
10
474.470000000000
20
935.910000000000
30
0.0
11
472.470000000000
21
934.310000000000
31
0.0
0
LINE
5
7fd
100
AcDbEntity
8
0-000
6
CONTINUOUS
62
4
100
AcDbLine
10
467.470000000000
20
969.310000000000
30
0.0
11
477.470000000000
21
969.310000000000
31
0.0
0
LINE
5
7fe
100
AcDbEntity
8
0-000
6
CONTINUOUS
62
4
100
AcDbLine
10
474.870000000000
20
963.640000000000
30
0.0
11
470.070000000000
21
964.440000000000
31
0.0
0
LINE
5
7ff
100
AcDbEntity
8
0-000
6
CONTINUOUS
62
4
100
AcDbLine
10
474.870000000000
20
962.040000000000
30
0.0
11
470.070000000000
21
962.840000000000
31
0.0
0
LINE
5
800
100
AcDbEntity
8
0-000
6
CONTINUOUS
62
4
100
AcDbLine
10
474.870000000000
20
965.240000000000
30
0.0
11
470.070000000000
21
966.040000000000
31
0.0
0
LINE
5
801
100
AcDbEntity
8
0-000
6
CONTINUOUS
62
4
100
AcDbLine
10
470.470000000000
20
935.910000000000
30
0.0
11
470.470000000000
21
969.310000000000
31
0.0
0
LINE
5
802
100
AcDbEntity
8
0-000
6
CONTINUOUS
62
4
100
AcDbLine
10
474.470000000000
20
935.910000000000
30
0.0
11
474.470000000000
21
969.310000000000
31
0.0
0
LINE
5
803
100
AcDbEntity
8
0-000
6
CONTINUOUS
62
4
100
AcDbLine
10
474.870000000000
20
947.640000000000
30
0.0
11
470.070000000000
21
948.440000000000
31
0.0
0
LINE
5
804
100
AcDbEntity
8
0-000
6
CONTINUOUS
62
4
100
AcDbLine
10
474.870000000000
20
946.040000000000
30
0.0
11
470.070000000000
21
946.840000000000
31
0.0
0
LINE
5
805
100
AcDbEntity
8
0-000
6
CONTINUOUS
62
4
100
AcDbLine
10
474.870000000000
20
944.440000000000
30
0.0
11
470.070000000000
21
945.240000000000
31
0.0
0
LINE
5
806
100
AcDbEntity
8
0-000
6
CONTINUOUS
62
4
100
AcDbLine
10
474.870000000000
20
942.840000000000
30
0.0
11
470.070000000000
21
943.640000000000
31
0.0
0
LINE
5
807
100
AcDbEntity
8
0-000
6
CONTINUOUS
62
4
100
AcDbLine
10
474.870000000000
20
941.240000000000
30
0.0
11
470.070000000000
21
942.040000000000
31
0.0
0
LINE
5
808
100
AcDbEntity
8
0-000
6
CONTINUOUS
62
7
100
AcDbLine
10
484.070000000000
20
986.010000000000
30
0.0
11
484.670000000000
21
986.010000000000
31
0.0
0
LINE
5
809
100
AcDbEntity
8
0-000
6
CONTINUOUS
62
7
100
AcDbLine
10
465.270000000000
20
970.710000000000
30
0.0
11
463.270000000000
21
970.710000000000
31
0.0
0
LINE
5
80a
100
AcDbEntity
8
0-000
6
CONTINUOUS
62
7
100
AcDbLine
10
465.270000000000
20
970.110000000000
30
0.0
11
465.270000000000
21
970.710000000000
31
0.0
0
LINE
5
80b
100
AcDbEntity
8
0-000
6
CONTINUOUS
62
7
100
AcDbLine
10
465.270000000000
20
970.110000000000
30
0.0
11
463.270000000000
21
970.110000000000
31
0.0
0
LINE
5
80c
100
AcDbEntity
8
0-000
6
CONTINUOUS
62
7
100
AcDbLine
10
450.300000000000
20
971.130000000000
30
0.0
11
448.470000000000
21
969.310000000000
31
0.0
0
LINE
5
80d
100
AcDbEntity
8
0-000
6
CONTINUOUS
62
7
100
AcDbLine
10
448.900000000000
20
968.880000000000
30
0.0
11
450.720000000000
21
970.710000000000
31
0.0
0
LINE
5
80e
100
AcDbEntity
8
0-000
6
CONTINUOUS
62
7
100
AcDbLine
10
513.000000000000
20
971.130000000000
30
0.0
11
514.820000000000
21
969.310000000000
31
0.0
0
LINE
5
80f
100
AcDbEntity
8
0-000
6
CONTINUOUS
62
7
100
AcDbLine
10
514.400000000000
20
968.880000000000
30
0.0
11
512.570000000000
21
970.710000000000
31
0.0
0
LINE
5
810
100
AcDbEntity
8
0-000
6
CONTINUOUS
62
7
100
AcDbLine
10
488.270000000000
20
986.010000000000
30
0.0
11
488.270000000000
21
979.010000000000
31
0.0
0
LINE
5
811
100
AcDbEntity
8
0-000
6
CONTINUOUS
62
7
100
AcDbLine
10
487.670000000000
20
986.010000000000
30
0.0
11
487.670000000000
21
979.010000000000
31
0.0
0
LINE
5
812
100
AcDbEntity
8
0-000
6
CONTINUOUS
62
7
100
AcDbLine
10
487.070000000000
20
986.010000000000
30
0.0
11
487.070000000000
21
979.010000000000
31
0.0
0
LINE
5
813
100
AcDbEntity
8
0-000
6
CONTINUOUS
62
7
100
AcDbLine
10
486.470000000000
20
986.010000000000
30
0.0
11
486.470000000000
21
979.010000000000
31
0.0
0
LINE
5
814
100
AcDbEntity
8
0-000
6
CONTINUOUS
62
7
100
AcDbLine
10
485.870000000000
20
986.010000000000
30
0.0
11
485.870000000000
21
979.010000000000
31
0.0
0
LINE
5
815
100
AcDbEntity
8
0-000
6
CONTINUOUS
62
7
100
AcDbLine
10
485.270000000000
20
986.010000000000
30
0.0
11
485.270000000000
21
979.010000000000
31
0.0
0
LINE
5
816
100
AcDbEntity
8
0-000
6
CONTINUOUS
62
7
100
AcDbLine
10
484.670000000000
20
986.010000000000
30
0.0
11
484.670000000000
21
979.010000000000
31
0.0
0
LINE
5
817
100
AcDbEntity
8
0-000
6
CONTINUOUS
62
7
100
AcDbLine
10
484.070000000000
20
986.010000000000
30
0.0
11
484.070000000000
21
979.010000000000
31
0.0
0
LINE
5
818
100
AcDbEntity
8
0-000
6
CENTER2
62
4
100
AcDbLine
10
472.470000000000
20
971.120000000000
30
0.0
11
472.470000000000
21
930.970000000000
31
0.0
0
LINE
5
819
100
AcDbEntity
8
0-000
6
CONTINUOUS
62
4
100
AcDbLine
10
153.170000000000
20
1054.630000000000
30
0.0
11
64.760000000000
21
1054.630000000000
31
0.0
0
LINE
5
81a
100
AcDbEntity
8
0-000
6
CONTINUOUS
62
4
100
AcDbLine
10
153.170000000000
20
1054.630000000000
30
0.0
11
481.970000000000
21
1054.630000000000
31
0.0
0
LINE
5
81b
100
AcDbEntity
8
0-000
6
CONTINUOUS
62
4
100
AcDbLine
10
481.970000000000
20
1054.630000000000
30
0.0
11
570.390000000000
21
1054.630000000000
31
0.0
0
LINE
5
81c
100
AcDbEntity
8
0-000
6
CONTINUOUS
62
7
100
AcDbLine
10
64.760000000000
20
968.710000000000
30
0.0
11
119.670000000000
21
968.710000000000
31
0.0
0
LINE
5
81d
100
AcDbEntity
8
0-000
6
CONTINUOUS
62
7
100
AcDbLine
10
119.670000000000
20
969.310000000000
30
0.0
11
64.760000000000
21
969.310000000000
31
0.0
0
LINE
5
81e
100
AcDbEntity
8
0-000
6
CONTINUOUS
62
7
100
AcDbLine
10
514.820000000000
20
969.310000000000
30
0.0
11
570.390000000000
21
969.310000000000
31
0.0
0
LINE
5
81f
100
AcDbEntity
8
0-000
6
CONTINUOUS
62
7
100
AcDbLine
10
570.390000000000
20
968.710000000000
30
0.0
11
514.820000000000
21
968.710000000000
31
0.0
0
LINE
5
820
100
AcDbEntity
8
0-000
6
CONTINUOUS
62
7
100
AcDbLine
10
448.470000000000
20
969.310000000000
30
0.0
11
317.570000000000
21
969.310000000000
31
0.0
0
LINE
5
821
100
AcDbEntity
8
0-000
6
CONTINUOUS
62
7
100
AcDbLine
10
317.570000000000
20
968.710000000000
30
0.0
11
448.470000000000
21
968.710000000000
31
0.0
0
LINE
5
822
100
AcDbEntity
8
0-000
6
CONTINUOUS
62
7
100
AcDbLine
10
186.020000000000
20
969.310000000000
30
0.0
11
317.570000000000
21
969.310000000000
31
0.0
0
LINE
5
823
100
AcDbEntity
8
0-000
6
CONTINUOUS
62
7
100
AcDbLine
10
317.570000000000
20
968.710000000000
30
0.0
11
186.020000000000
21
968.710000000000
31
0.0
0
LINE
5
824
100
AcDbEntity
8
0-000
6
CONTINUOUS
62
4
100
AcDbLine
10
202.170000000000
20
969.310000000000
30
0.0
11
202.170000000000
21
989.910000000000
31
0.0
0
LINE
5
825
100
AcDbEntity
8
0-606
6
CONTINUOUS
62
4
100
AcDbLine
10
274.810000000000
20
747.270000000000
30
0.0
11
294.810000000000
21
747.270000000000
31
0.0
0
LINE
5
826
100
AcDbEntity
8
0-606
6
CONTINUOUS
62
4
100
AcDbLine
10
278.810000000000
20
748.270000000000
30
0.0
11
290.810000000000
21
748.270000000000
31
0.0
0
LINE
5
827
100
AcDbEntity
8
0-606
6
CONTINUOUS
62
4
100
AcDbLine
10
294.810000000000
20
747.270000000000
30
0.0
11
294.810000000000
21
746.470000000000
31
0.0
0
LINE
5
828
100
AcDbEntity
8
0-606
6
CONTINUOUS
62
4
100
AcDbLine
10
290.810000000000
20
748.270000000000
30
0.0
11
293.810000000000
21
747.270000000000
31
0.0
0
LINE
5
829
100
AcDbEntity
8
0-606
6
CONTINUOUS
62
4
100
AcDbLine
10
289.610000000000
20
725.520000000000
30
0.0
11
280.010000000000
21
727.120000000000
31
0.0
0
LINE
5
82a
100
AcDbEntity
8
0-606
6
CONTINUOUS
62
4
100
AcDbLine
10
289.610000000000
20
722.320000000000
30
0.0
11
280.010000000000
21
723.920000000000
31
0.0
0
LINE
5
82b
100
AcDbEntity
8
0-606
6
CONTINUOUS
62
4
100
AcDbLine
10
289.610000000000
20
719.120000000000
30
0.0
11
280.010000000000
21
720.720000000000
31
0.0
0
LINE
5
82c
100
AcDbEntity
8
0-606
6
CONTINUOUS
62
4
100
AcDbLine
10
289.610000000000
20
728.720000000000
30
0.0
11
280.010000000000
21
730.320000000000
31
0.0
0
LINE
5
82d
100
AcDbEntity
8
0-606
6
CONTINUOUS
62
4
100
AcDbLine
10
274.810000000000
20
747.270000000000
30
0.0
11
274.810000000000
21
746.470000000000
31
0.0
0
LINE
5
82e
100
AcDbEntity
8
0-606
6
CONTINUOUS
62
4
100
AcDbLine
10
278.810000000000
20
748.270000000000
30
0.0
11
275.810000000000
21
747.270000000000
31
0.0
0
LINE
5
82f
100
AcDbEntity
8
0-606
6
CONTINUOUS
62
4
100
AcDbLine
10
289.610000000000
20
712.720000000000
30
0.0
11
280.010000000000
21
714.320000000000
31
0.0
0
LINE
5
830
100
AcDbEntity
8
0-606
6
CONTINUOUS
62
4
100
AcDbLine
10
289.610000000000
20
715.920000000000
30
0.0
11
280.010000000000
21
717.520000000000
31
0.0
0
LINE
5
831
100
AcDbEntity
8
0-606
6
CONTINUOUS
62
4
100
AcDbLine
10
289.610000000000
20
709.520000000000
30
0.0
11
280.010000000000
21
711.120000000000
31
0.0
0
LINE
5
832
100
AcDbEntity
8
0-606
6
CONTINUOUS
62
4
100
AcDbLine
10
289.610000000000
20
706.320000000000
30
0.0
11
280.010000000000
21
707.920000000000
31
0.0
0
LINE
5
833
100
AcDbEntity
8
0-606
6
CONTINUOUS
62
4
100
AcDbLine
10
284.810000000000
20
676.470000000000
30
0.0
11
280.810000000000
21
679.670000000000
31
0.0
0
LINE
5
834
100
AcDbEntity
8
0-606
6
CONTINUOUS
62
4
100
AcDbLine
10
288.810000000000
20
679.670000000000
30
0.0
11
284.810000000000
21
676.470000000000
31
0.0
0
LINE
5
835
100
AcDbEntity
8
0-606
6
CONTINUOUS
62
4
100
AcDbLine
10
274.810000000000
20
746.470000000000
30
0.0
11
294.810000000000
21
746.470000000000
31
0.0
0
LINE
5
836
100
AcDbEntity
8
0-606
6
CONTINUOUS
62
4
100
AcDbLine
10
289.610000000000
20
735.120000000000
30
0.0
11
280.010000000000
21
736.720000000000
31
0.0
0
LINE
5
837
100
AcDbEntity
8
0-606
6
CONTINUOUS
62
4
100
AcDbLine
10
289.610000000000
20
731.920000000000
30
0.0
11
280.010000000000
21
733.520000000000
31
0.0
0
LINE
5
838
100
AcDbEntity
8
0-606
6
CONTINUOUS
62
4
100
AcDbLine
10
289.610000000000
20
738.320000000000
30
0.0
11
280.010000000000
21
739.920000000000
31
0.0
0
LINE
5
839
100
AcDbEntity
8
0-606
6
CONTINUOUS
62
4
100
AcDbLine
10
280.810000000000
20
679.670000000000
30
0.0
11
280.810000000000
21
746.470000000000
31
0.0
0
LINE
5
83a
100
AcDbEntity
8
0-606
6
CONTINUOUS
62
4
100
AcDbLine
10
288.810000000000
20
679.670000000000
30
0.0
11
288.810000000000
21
746.470000000000
31
0.0
0
LINE
5
83b
100
AcDbEntity
8
0-606
6
CONTINUOUS
62
4
100
AcDbLine
10
289.610000000000
20
703.120000000000
30
0.0
11
280.010000000000
21
704.720000000000
31
0.0
0
LINE
5
83c
100
AcDbEntity
8
0-606
6
CONTINUOUS
62
4
100
AcDbLine
10
289.610000000000
20
699.920000000000
30
0.0
11
280.010000000000
21
701.520000000000
31
0.0
0
LINE
5
83d
100
AcDbEntity
8
0-606
6
CONTINUOUS
62
4
100
AcDbLine
10
289.610000000000
20
696.720000000000
30
0.0
11
280.010000000000
21
698.320000000000
31
0.0
0
LINE
5
83e
100
AcDbEntity
8
0-606
6
CONTINUOUS
62
4
100
AcDbLine
10
289.610000000000
20
693.520000000000
30
0.0
11
280.010000000000
21
695.120000000000
31
0.0
0
LINE
5
83f
100
AcDbEntity
8
0-606
6
CONTINUOUS
62
4
100
AcDbLine
10
289.610000000000
20
690.320000000000
30
0.0
11
280.010000000000
21
691.920000000000
31
0.0
0
LINE
5
840
100
AcDbEntity
8
0-606
6
CONTINUOUS
62
7
100
AcDbLine
10
308.010000000000
20
779.870000000000
30
0.0
11
309.210000000000
21
779.870000000000
31
0.0
0
LINE
5
841
100
AcDbEntity
8
0-606
6
CONTINUOUS
62
7
100
AcDbLine
10
270.410000000000
20
749.270000000000
30
0.0
11
266.410000000000
21
749.270000000000
31
0.0
0
LINE
5
842
100
AcDbEntity
8
0-606
6
CONTINUOUS
62
7
100
AcDbLine
10
270.410000000000
20
748.070000000000
30
0.0
11
270.410000000000
21
749.270000000000
31
0.0
0
LINE
5
843
100
AcDbEntity
8
0-606
6
CONTINUOUS
62
7
100
AcDbLine
10
270.410000000000
20
748.070000000000
30
0.0
11
266.410000000000
21
748.070000000000
31
0.0
0
LINE
5
844
100
AcDbEntity
8
0-606
6
CONTINUOUS
62
7
100
AcDbLine
10
240.470000000000
20
750.120000000000
30
0.0
11
236.820000000000
21
746.470000000000
31
0.0
0
LINE
5
845
100
AcDbEntity
8
0-606
6
CONTINUOUS
62
7
100
AcDbLine
10
237.670000000000
20
745.620000000000
30
0.0
11
241.310000000000
21
749.270000000000
31
0.0
0
LINE
5
846
100
AcDbEntity
8
0-606
6
CONTINUOUS
62
7
100
AcDbLine
10
365.860000000000
20
750.120000000000
30
0.0
11
369.510000000000
21
746.470000000000
31
0.0
0
LINE
5
847
100
AcDbEntity
8
0-606
6
CONTINUOUS
62
7
100
AcDbLine
10
368.660000000000
20
745.620000000000
30
0.0
11
365.010000000000
21
749.270000000000
31
0.0
0
LINE
5
848
100
AcDbEntity
8
0-606
6
CONTINUOUS
62
7
100
AcDbLine
10
316.410000000000
20
779.870000000000
30
0.0
11
316.410000000000
21
765.870000000000
31
0.0
0
LINE
5
849
100
AcDbEntity
8
0-606
6
CONTINUOUS
62
7
100
AcDbLine
10
315.210000000000
20
779.870000000000
30
0.0
11
315.210000000000
21
765.870000000000
31
0.0
0
LINE
5
84a
100
AcDbEntity
8
0-606
6
CONTINUOUS
62
7
100
AcDbLine
10
314.010000000000
20
779.870000000000
30
0.0
11
314.010000000000
21
765.870000000000
31
0.0
0
LINE
5
84b
100
AcDbEntity
8
0-606
6
CONTINUOUS
62
7
100
AcDbLine
10
312.810000000000
20
779.870000000000
30
0.0
11
312.810000000000
21
765.870000000000
31
0.0
0
LINE
5
84c
100
AcDbEntity
8
0-606
6
CONTINUOUS
62
7
100
AcDbLine
10
311.610000000000
20
779.870000000000
30
0.0
11
311.610000000000
21
765.870000000000
31
0.0
0
LINE
5
84d
100
AcDbEntity
8
0-606
6
CONTINUOUS
62
7
100
AcDbLine
10
310.410000000000
20
779.870000000000
30
0.0
11
310.410000000000
21
765.870000000000
31
0.0
0
LINE
5
84e
100
AcDbEntity
8
0-606
6
CONTINUOUS
62
7
100
AcDbLine
10
309.210000000000
20
779.870000000000
30
0.0
11
309.210000000000
21
765.870000000000
31
0.0
0
LINE
5
84f
100
AcDbEntity
8
0-606
6
CONTINUOUS
62
7
100
AcDbLine
10
308.010000000000
20
779.870000000000
30
0.0
11
308.010000000000
21
765.870000000000
31
0.0
0
LINE
5
850
100
AcDbEntity
8
0-606
6
CENTER2
62
4
100
AcDbLine
10
284.810000000000
20
750.090000000000
30
0.0
11
284.810000000000
21
669.790000000000
31
0.0
0
LINE
5
851
100
AcDbEntity
8
0-606
6
CONTINUOUS
62
4
100
AcDbLine
10
331.820000000000
20
787.070000000000
30
0.0
11
375.720000000000
21
787.070000000000
31
0.0
0
LINE
5
852
100
AcDbEntity
8
0-606
6
CONTINUOUS
62
7
100
AcDbLine
10
369.510000000000
20
746.470000000000
30
0.0
11
404.620000000000
21
746.470000000000
31
0.0
0
LINE
5
853
100
AcDbEntity
8
0-606
6
CONTINUOUS
62
7
100
AcDbLine
10
404.850000000000
20
745.270000000000
30
0.0
11
369.510000000000
21
745.270000000000
31
0.0
0
LINE
5
854
100
AcDbEntity
8
0-606
6
DASHED
62
7
100
AcDbLine
10
405.020000000000
20
744.270000000000
30
0.0
11
311.810000000000
21
744.270000000000
31
0.0
0
LINE
5
855
100
AcDbEntity
8
0-606
6
CONTINUOUS
62
3
100
AcDbLine
10
405.190000000000
20
743.270000000000
30
0.0
11
311.810000000000
21
743.270000000000
31
0.0
0
LINE
5
856
100
AcDbEntity
8
0-606
6
CONTINUOUS
62
4
100
AcDbLine
10
376.610000000000
20
703.270000000000
30
0.0
11
406.300000000000
21
732.960000000000
31
0.0
0
LINE
5
857
100
AcDbEntity
8
0-606
6
CONTINUOUS
62
3
100
AcDbLine
10
403.580000000000
20
703.270000000000
30
0.0
11
311.810000000000
21
703.270000000000
31
0.0
0
LINE
5
858
100
AcDbEntity
8
0-606
6
CONTINUOUS
62
3
100
AcDbLine
10
207.010000000000
20
703.270000000000
30
0.0
11
311.810000000000
21
703.270000000000
31
0.0
0
LINE
5
859
100
AcDbEntity
8
0-606
6
CONTINUOUS
62
4
100
AcDbLine
10
206.990000000000
20
703.350000000000
30
0.0
11
246.900000000000
21
743.270000000000
31
0.0
0
LINE
5
85a
100
AcDbEntity
8
0-606
6
CONTINUOUS
62
3
100
AcDbLine
10
205.390000000000
20
743.270000000000
30
0.0
11
311.810000000000
21
743.270000000000
31
0.0
0
LINE
5
85b
100
AcDbEntity
8
0-606
6
DASHED
62
7
100
AcDbLine
10
205.560000000000
20
744.270000000000
30
0.0
11
311.810000000000
21
744.270000000000
31
0.0
0
LINE
5
85c
100
AcDbEntity
8
0-606
6
CONTINUOUS
62
7
100
AcDbLine
10
205.730000000000
20
745.270000000000
30
0.0
11
236.820000000000
21
745.270000000000
31
0.0
0
LINE
5
85d
100
AcDbEntity
8
0-606
6
CONTINUOUS
62
7
100
AcDbLine
10
236.820000000000
20
746.470000000000
30
0.0
11
205.960000000000
21
746.470000000000
31
0.0
0
LINE
5
85e
100
AcDbEntity
8
0-606
6
CONTINUOUS
62
4
100
AcDbLine
10
204.130000000000
20
728.780000000000
30
0.0
11
218.620000000000
21
743.270000000000
31
0.0
0
LINE
5
85f
100
AcDbEntity
8
0-606
6
CONTINUOUS
62
7
100
AcDbLine
10
306.810000000000
20
751.670000000000
30
0.0
11
306.810000000000
21
779.870000000000
31
0.0
0
LINE
5
860
100
AcDbEntity
8
0-606
6
CONTINUOUS
62
7
100
AcDbLine
10
308.010000000000
20
750.470000000000
30
0.0
11
365.010000000000
21
750.470000000000
31
0.0
0
LINE
5
861
100
AcDbEntity
8
0-606
6
CONTINUOUS
62
7
100
AcDbLine
10
299.610000000000
20
750.470000000000
30
0.0
11
241.310000000000
21
750.470000000000
31
0.0
0
LINE
5
862
100
AcDbEntity
8
0-606
6
CONTINUOUS
62
7
100
AcDbLine
10
300.810000000000
20
751.670000000000
30
0.0
11
300.810000000000
21
779.870000000000
31
0.0
0
LINE
5
863
100
AcDbEntity
8
0-606
6
CONTINUOUS
62
7
100
AcDbLine
10
302.010000000000
20
746.470000000000
30
0.0
11
266.410000000000
21
746.470000000000
31
0.0
0
LINE
5
864
100
AcDbEntity
8
0-606
6
CONTINUOUS
62
7
100
AcDbLine
10
303.210000000000
20
747.670000000000
30
0.0
11
303.210000000000
21
779.870000000000
31
0.0
0
LINE
5
865
100
AcDbEntity
8
0-606
6
CONTINUOUS
62
7
100
AcDbLine
10
302.010000000000
20
779.870000000000
30
0.0
11
302.010000000000
21
751.670000000000
31
0.0
0
LINE
5
866
100
AcDbEntity
8
0-606
6
CONTINUOUS
62
7
100
AcDbLine
10
299.610000000000
20
749.270000000000
30
0.0
11
241.310000000000
21
749.270000000000
31
0.0
0
LINE
5
867
100
AcDbEntity
8
0-606
6
CONTINUOUS
62
7
100
AcDbLine
10
305.610000000000
20
779.870000000000
30
0.0
11
305.610000000000
21
751.670000000000
31
0.0
0
LINE
5
868
100
AcDbEntity
8
0-606
6
CONTINUOUS
62
7
100
AcDbLine
10
308.010000000000
20
749.270000000000
30
0.0
11
365.010000000000
21
749.270000000000
31
0.0
0
LINE
5
869
100
AcDbEntity
8
0-606
6
CONTINUOUS
62
7
100
AcDbLine
10
304.410000000000
20
779.870000000000
30
0.0
11
304.410000000000
21
747.670000000000
31
0.0
0
LINE
5
86a
100
AcDbEntity
8
0-606
6
CONTINUOUS
62
7
100
AcDbLine
10
302.010000000000
20
745.270000000000
30
0.0
11
266.410000000000
21
745.270000000000
31
0.0
0
LINE
5
86b
100
AcDbEntity
8
0-000
6
CONTINUOUS
62
7
100
AcDbLine
10
479.870000000000
20
971.310000000000
30
0.0
11
450.720000000000
21
971.310000000000
31
0.0
0
LINE
5
86c
100
AcDbEntity
8
0-000
6
CONTINUOUS
62
7
100
AcDbLine
10
480.470000000000
20
971.910000000000
30
0.0
11
480.470000000000
21
986.010000000000
31
0.0
0
LINE
5
86d
100
AcDbEntity
8
0-000
6
CONTINUOUS
62
7
100
AcDbLine
10
483.470000000000
20
971.910000000000
30
0.0
11
483.470000000000
21
986.010000000000
31
0.0
0
LINE
5
86e
100
AcDbEntity
8
0-000
6
CONTINUOUS
62
7
100
AcDbLine
10
484.070000000000
20
971.310000000000
30
0.0
11
512.570000000000
21
971.310000000000
31
0.0
0
LINE
5
86f
100
AcDbEntity
8
0-000
6
CONTINUOUS
62
7
100
AcDbLine
10
481.670000000000
20
969.910000000000
30
0.0
11
481.670000000000
21
986.010000000000
31
0.0
0
LINE
5
870
100
AcDbEntity
8
0-000
6
CONTINUOUS
62
7
100
AcDbLine
10
481.070000000000
20
969.310000000000
30
0.0
11
463.270000000000
21
969.310000000000
31
0.0
0
LINE
5
871
100
AcDbEntity
8
0-000
6
CONTINUOUS
62
7
100
AcDbLine
10
481.070000000000
20
986.010000000000
30
0.0
11
481.070000000000
21
971.910000000000
31
0.0
0
LINE
5
872
100
AcDbEntity
8
0-000
6
CONTINUOUS
62
7
100
AcDbLine
10
479.870000000000
20
970.710000000000
30
0.0
11
450.720000000000
21
970.710000000000
31
0.0
0
LINE
5
873
100
AcDbEntity
8
0-000
6
CONTINUOUS
62
7
100
AcDbLine
10
482.270000000000
20
986.010000000000
30
0.0
11
482.270000000000
21
969.910000000000
31
0.0
0
LINE
5
874
100
AcDbEntity
8
0-000
6
CONTINUOUS
62
7
100
AcDbLine
10
481.070000000000
20
968.710000000000
30
0.0
11
463.270000000000
21
968.710000000000
31
0.0
0
LINE
5
875
100
AcDbEntity
8
0-000
6
CONTINUOUS
62
7
100
AcDbLine
10
482.870000000000
20
986.010000000000
30
0.0
11
482.870000000000
21
971.910000000000
31
0.0
0
LINE
5
876
100
AcDbEntity
8
0-000
6
CONTINUOUS
62
7
100
AcDbLine
10
484.070000000000
20
970.710000000000
30
0.0
11
512.570000000000
21
970.710000000000
31
0.0
0
LINE
5
877
100
AcDbEntity
8
0-000
6
CONTINUOUS
62
7
100
AcDbLine
10
154.670000000000
20
971.910000000000
30
0.0
11
154.670000000000
21
986.010000000000
31
0.0
0
LINE
5
878
100
AcDbEntity
8
0-000
6
CONTINUOUS
62
7
100
AcDbLine
10
155.270000000000
20
971.310000000000
30
0.0
11
183.770000000000
21
971.310000000000
31
0.0
0
LINE
5
879
100
AcDbEntity
8
0-000
6
CONTINUOUS
62
7
100
AcDbLine
10
151.070000000000
20
971.310000000000
30
0.0
11
121.920000000000
21
971.310000000000
31
0.0
0
LINE
5
87a
100
AcDbEntity
8
0-000
6
CONTINUOUS
62
7
100
AcDbLine
10
151.670000000000
20
971.910000000000
30
0.0
11
151.670000000000
21
986.010000000000
31
0.0
0
LINE
5
87b
100
AcDbEntity
8
0-000
6
CONTINUOUS
62
7
100
AcDbLine
10
152.270000000000
20
969.310000000000
30
0.0
11
134.470000000000
21
969.310000000000
31
0.0
0
LINE
5
87c
100
AcDbEntity
8
0-000
6
CONTINUOUS
62
7
100
AcDbLine
10
152.870000000000
20
969.910000000000
30
0.0
11
152.870000000000
21
986.010000000000
31
0.0
0
LINE
5
87d
100
AcDbEntity
8
0-000
6
CONTINUOUS
62
7
100
AcDbLine
10
152.270000000000
20
986.010000000000
30
0.0
11
152.270000000000
21
971.910000000000
31
0.0
0
LINE
5
87e
100
AcDbEntity
8
0-000
6
CONTINUOUS
62
7
100
AcDbLine
10
151.070000000000
20
970.710000000000
30
0.0
11
121.920000000000
21
970.710000000000
31
0.0
0
LINE
5
87f
100
AcDbEntity
8
0-000
6
CONTINUOUS
62
7
100
AcDbLine
10
154.070000000000
20
986.010000000000
30
0.0
11
154.070000000000
21
971.910000000000
31
0.0
0
LINE
5
880
100
AcDbEntity
8
0-000
6
CONTINUOUS
62
7
100
AcDbLine
10
155.270000000000
20
970.710000000000
30
0.0
11
183.770000000000
21
970.710000000000
31
0.0
0
LINE
5
881
100
AcDbEntity
8
0-000
6
CONTINUOUS
62
7
100
AcDbLine
10
153.470000000000
20
986.010000000000
30
0.0
11
153.470000000000
21
969.910000000000
31
0.0
0
LINE
5
882
100
AcDbEntity
8
0-000
6
CONTINUOUS
62
7
100
AcDbLine
10
152.270000000000
20
968.710000000000
30
0.0
11
134.470000000000
21
968.710000000000
31
0.0
0
LINE
5
883
100
AcDbEntity
8
0-101
6
DOT
62
7
100
AcDbLine
10
324.510000000000
20
348.480000000000
30
0.0
11
131.690000000000
21
309.920000000000
31
0.0
0
LINE
5
884
100
AcDbEntity
8
0-101
6
DOT
62
7
100
AcDbLine
10
324.600000000000
20
347.990000000000
30
0.0
11
131.790000000000
21
309.430000000000
31
0.0
0
LINE
5
885
100
AcDbEntity
8
0-101
6
CONTINUOUS
62
7
100
AcDbLine
10
323.270000000000
20
350.580000000000
30
0.0
11
131.240000000000
21
312.170000000000
31
0.0
0
LINE
5
886
100
AcDbEntity
8
0-101
6
CONTINUOUS
62
7
100
AcDbLine
10
323.390000000000
20
349.990000000000
30
0.0
11
131.350000000000
21
311.590000000000
31
0.0
0
LINE
5
887
100
AcDbEntity
8
0-101
6
DOT
62
7
100
AcDbLine
10
324.980000000000
20
349.190000000000
30
0.0
11
324.650000000000
21
350.830000000000
31
0.0
0
LINE
5
888
100
AcDbEntity
8
0-101
6
CONTINUOUS
62
7
100
AcDbLine
10
324.370000000000
20
352.230000000000
30
0.0
11
321.180000000000
21
368.150000000000
31
0.0
0
LINE
5
889
100
AcDbEntity
8
0-101
6
CONTINUOUS
62
7
100
AcDbLine
10
321.770000000000
20
368.270000000000
30
0.0
11
324.960000000000
21
352.350000000000
31
0.0
0
LINE
5
88a
100
AcDbEntity
8
0-101
6
DOT
62
7
100
AcDbLine
10
325.030000000000
20
351.960000000000
30
0.0
11
325.560000000000
21
349.310000000000
31
0.0
0
LINE
5
88b
100
AcDbEntity
8
0-101
6
CONTINUOUS
62
7
100
AcDbLine
10
322.430000000000
20
356.840000000000
30
0.0
11
130.000000000000
21
318.350000000000
31
0.0
0
LINE
5
88c
100
AcDbEntity
8
0-101
6
CONTINUOUS
62
7
100
AcDbLine
10
322.430000000000
20
356.840000000000
30
0.0
11
319.820000000000
21
369.880000000000
31
0.0
0
LINE
5
88d
100
AcDbEntity
8
0-101
6
CONTINUOUS
62
7
100
AcDbLine
10
451.160000000000
20
330.620000000000
30
0.0
11
449.380000000000
21
339.220000000000
31
0.0
0
LINE
5
88e
100
AcDbEntity
8
0-101
6
CONTINUOUS
62
7
100
AcDbLine
10
449.380000000000
20
339.220000000000
30
0.0
11
448.790000000000
21
339.100000000000
31
0.0
0
LINE
5
88f
100
AcDbEntity
8
0-101
6
CONTINUOUS
62
7
100
AcDbLine
10
450.570000000000
20
330.490000000000
30
0.0
11
448.790000000000
21
339.100000000000
31
0.0
0
LINE
5
890
100
AcDbEntity
8
0-101
6
DOT
62
7
100
AcDbLine
10
355.130000000000
20
365.600000000000
30
0.0
11
355.250000000000
21
366.190000000000
31
0.0
0
LINE
5
891
100
AcDbEntity
8
0-101
6
DOT
62
7
100
AcDbLine
10
336.900000000000
20
369.250000000000
30
0.0
11
355.130000000000
21
365.600000000000
31
0.0
0
LINE
5
892
100
AcDbEntity
8
0-101
6
DOT
62
7
100
AcDbLine
10
331.930000000000
20
348.480000000000
30
0.0
11
524.740000000000
21
309.920000000000
31
0.0
0
LINE
5
893
100
AcDbEntity
8
0-101
6
DOT
62
7
100
AcDbLine
10
331.830000000000
20
347.990000000000
30
0.0
11
524.650000000000
21
309.430000000000
31
0.0
0
LINE
5
894
100
AcDbEntity
8
0-101
6
CONTINUOUS
62
7
100
AcDbLine
10
333.160000000000
20
350.580000000000
30
0.0
11
525.200000000000
21
312.170000000000
31
0.0
0
LINE
5
895
100
AcDbEntity
8
0-101
6
CONTINUOUS
62
7
100
AcDbLine
10
333.040000000000
20
349.990000000000
30
0.0
11
525.080000000000
21
311.590000000000
31
0.0
0
LINE
5
896
100
AcDbEntity
8
0-101
6
DOT
62
7
100
AcDbLine
10
331.460000000000
20
349.190000000000
30
0.0
11
331.780000000000
21
350.830000000000
31
0.0
0
LINE
5
897
100
AcDbEntity
8
0-101
6
CONTINUOUS
62
7
100
AcDbLine
10
332.060000000000
20
352.230000000000
30
0.0
11
335.250000000000
21
368.150000000000
31
0.0
0
LINE
5
898
100
AcDbEntity
8
0-101
6
CONTINUOUS
62
7
100
AcDbLine
10
334.660000000000
20
368.270000000000
30
0.0
11
331.480000000000
21
352.350000000000
31
0.0
0
LINE
5
899
100
AcDbEntity
8
0-101
6
DOT
62
7
100
AcDbLine
10
331.400000000000
20
351.960000000000
30
0.0
11
330.870000000000
21
349.310000000000
31
0.0
0
LINE
5
89a
100
AcDbEntity
8
0-101
6
CONTINUOUS
62
7
100
AcDbLine
10
334.010000000000
20
356.840000000000
30
0.0
11
526.430000000000
21
318.350000000000
31
0.0
0
LINE
5
89b
100
AcDbEntity
8
0-101
6
CONTINUOUS
62
7
100
AcDbLine
10
456.380000000000
20
347.760000000000
30
0.0
11
452.920000000000
21
330.500000000000
31
0.0
0
LINE
5
89c
100
AcDbEntity
8
0-101
6
CONTINUOUS
62
7
100
AcDbLine
10
455.790000000000
20
347.880000000000
30
0.0
11
452.340000000000
21
330.620000000000
31
0.0
0
LINE
5
89d
100
AcDbEntity
8
0-101
6
CONTINUOUS
62
7
100
AcDbLine
10
200.640000000000
20
347.880000000000
30
0.0
11
204.100000000000
21
330.620000000000
31
0.0
0
LINE
5
89e
100
AcDbEntity
8
0-101
6
CONTINUOUS
62
7
100
AcDbLine
10
200.060000000000
20
347.760000000000
30
0.0
11
203.510000000000
21
330.500000000000
31
0.0
0
LINE
5
89f
100
AcDbEntity
8
0-101
6
DOT
62
7
100
AcDbLine
10
320.590000000000
20
369.040000000000
30
0.0
11
304.170000000000
21
344.420000000000
31
0.0
0
LINE
5
8a0
100
AcDbEntity
8
0-101
6
DOT
62
7
100
AcDbLine
10
335.850000000000
20
369.040000000000
30
0.0
11
352.260000000000
21
344.420000000000
31
0.0
0
LINE
5
8a1
100
AcDbEntity
8
0-202
6
DOT
62
7
100
AcDbLine
10
938.990000000000
20
902.010000000000
30
0.0
11
810.520000000000
21
876.310000000000
31
0.0
0
LINE
5
8a2
100
AcDbEntity
8
0-202
6
DOT
62
7
100
AcDbLine
10
812.400000000000
20
876.080000000000
30
0.0
11
939.110000000000
21
901.420000000000
31
0.0
0
LINE
5
8a3
100
AcDbEntity
8
0-202
6
DASHED
62
7
100
AcDbLine
10
791.310000000000
20
872.160000000000
30
0.0
11
733.700000000000
21
860.630000000000
31
0.0
0
LINE
5
8a4
100
AcDbEntity
8
0-101
6
CENTER2
62
4
100
AcDbLine
10
328.220000000000
20
232.900000000000
30
0.0
11
328.220000000000
21
455.780000000000
31
0.0
0
LINE
5
8a5
100
AcDbEntity
8
0-404
6
DOT
62
7
100
AcDbLine
10
1432.060000000000
20
842.270000000000
30
0.0
11
1431.940000000000
21
842.860000000000
31
0.0
0
LINE
5
8a6
100
AcDbEntity
8
0-404
6
DOT
62
7
100
AcDbLine
10
1450.300000000000
20
845.920000000000
30
0.0
11
1432.060000000000
21
842.270000000000
31
0.0
0
LINE
5
8a7
100
AcDbEntity
8
0-404
6
CONTINUOUS
62
7
100
AcDbLine
10
1450.580000000000
20
846.540000000000
30
0.0
11
1258.160000000000
21
808.060000000000
31
0.0
0
LINE
5
8a8
100
AcDbEntity
8
0-404
6
DOT
62
7
100
AcDbLine
10
1455.740000000000
20
825.850000000000
30
0.0
11
1455.410000000000
21
827.490000000000
31
0.0
0
LINE
5
8a9
100
AcDbEntity
8
0-404
6
CONTINUOUS
62
7
100
AcDbLine
10
1455.130000000000
20
828.890000000000
30
0.0
11
1451.950000000000
21
844.820000000000
31
0.0
0
LINE
5
8aa
100
AcDbEntity
8
0-404
6
CONTINUOUS
62
7
100
AcDbLine
10
1452.540000000000
20
844.940000000000
30
0.0
11
1455.720000000000
21
829.010000000000
31
0.0
0
LINE
5
8ab
100
AcDbEntity
8
0-404
6
DOT
62
7
100
AcDbLine
10
1455.800000000000
20
828.630000000000
30
0.0
11
1456.330000000000
21
825.970000000000
31
0.0
0
LINE
5
8ac
100
AcDbEntity
8
0-404
6
CONTINUOUS
62
7
100
AcDbLine
10
1453.190000000000
20
833.500000000000
30
0.0
11
1450.580000000000
21
846.540000000000
31
0.0
0
LINE
5
8ad
100
AcDbEntity
8
0-404
6
DOT
62
7
100
AcDbLine
10
1451.350000000000
20
845.710000000000
30
0.0
11
1434.930000000000
21
821.080000000000
31
0.0
0
LINE
5
8ae
100
AcDbEntity
8
0-404
6
DOT
62
7
100
AcDbLine
10
1223.360000000000
20
801.100000000000
30
0.0
11
1227.260000000000
21
781.620000000000
31
0.0
0
LINE
5
8af
100
AcDbEntity
8
0-404
6
CONTINUOUS
62
7
100
AcDbLine
10
1453.190000000000
20
833.500000000000
30
0.0
11
1225.970000000000
21
788.060000000000
31
0.0
0
LINE
5
8b0
100
AcDbEntity
8
0-404
6
CONTINUOUS
62
7
100
AcDbLine
10
1454.040000000000
20
827.250000000000
30
0.0
11
1227.210000000000
21
781.880000000000
31
0.0
0
LINE
5
8b1
100
AcDbEntity
8
0-404
6
CONTINUOUS
62
7
100
AcDbLine
10
1454.150000000000
20
826.660000000000
30
0.0
11
1227.330000000000
21
781.290000000000
31
0.0
0
LINE
5
8b2
100
AcDbEntity
8
0-404
6
DOT
62
7
100
AcDbLine
10
1455.270000000000
20
825.150000000000
30
0.0
11
1227.660000000000
21
779.630000000000
31
0.0
0
LINE
5
8b3
100
AcDbEntity
8
0-404
6
DOT
62
7
100
AcDbLine
10
1455.370000000000
20
824.660000000000
30
0.0
11
1227.760000000000
21
779.140000000000
31
0.0
0
LINE
5
8b4
100
AcDbEntity
8
0-404
6
CONTINUOUS
62
7
100
AcDbLine
10
1318.890000000000
20
803.850000000000
30
0.0
11
1320.680000000000
21
812.460000000000
31
0.0
0
LINE
5
8b5
100
AcDbEntity
8
0-404
6
CONTINUOUS
62
7
100
AcDbLine
10
1320.680000000000
20
812.460000000000
30
0.0
11
1321.260000000000
21
812.340000000000
31
0.0
0
LINE
5
8b6
100
AcDbEntity
8
0-404
6
CONTINUOUS
62
7
100
AcDbLine
10
1319.480000000000
20
803.730000000000
30
0.0
11
1321.260000000000
21
812.340000000000
31
0.0
0
LINE
5
8b7
100
AcDbEntity
8
0-404
6
CONTINUOUS
62
7
100
AcDbLine
10
1313.680000000000
20
821.000000000000
30
0.0
11
1317.130000000000
21
803.740000000000
31
0.0
0
LINE
5
8b8
100
AcDbEntity
8
0-404
6
CONTINUOUS
62
7
100
AcDbLine
10
1314.270000000000
20
821.120000000000
30
0.0
11
1317.720000000000
21
803.850000000000
31
0.0
0
LINE
5
8b9
100
AcDbEntity
8
0-303
6
CONTINUOUS
62
4
100
AcDbLine
10
852.430000000000
20
399.450000000000
30
0.0
11
862.430000000000
21
399.450000000000
31
0.0
0
LINE
5
8ba
100
AcDbEntity
8
0-303
6
CONTINUOUS
62
4
100
AcDbLine
10
854.430000000000
20
399.950000000000
30
0.0
11
860.430000000000
21
399.950000000000
31
0.0
0
LINE
5
8bb
100
AcDbEntity
8
0-303
6
CONTINUOUS
62
4
100
AcDbLine
10
862.430000000000
20
399.450000000000
30
0.0
11
862.430000000000
21
399.050000000000
31
0.0
0
LINE
5
8bc
100
AcDbEntity
8
0-303
6
CONTINUOUS
62
4
100
AcDbLine
10
860.430000000000
20
399.950000000000
30
0.0
11
861.930000000000
21
399.450000000000
31
0.0
0
LINE
5
8bd
100
AcDbEntity
8
0-303
6
CONTINUOUS
62
4
100
AcDbLine
10
859.830000000000
20
388.580000000000
30
0.0
11
855.030000000000
21
389.380000000000
31
0.0
0
LINE
5
8be
100
AcDbEntity
8
0-303
6
CONTINUOUS
62
4
100
AcDbLine
10
859.830000000000
20
386.980000000000
30
0.0
11
855.030000000000
21
387.780000000000
31
0.0
0
LINE
5
8bf
100
AcDbEntity
8
0-303
6
CONTINUOUS
62
4
100
AcDbLine
10
859.830000000000
20
385.380000000000
30
0.0
11
855.030000000000
21
386.180000000000
31
0.0
0
LINE
5
8c0
100
AcDbEntity
8
0-303
6
CONTINUOUS
62
4
100
AcDbLine
10
859.830000000000
20
390.180000000000
30
0.0
11
855.030000000000
21
390.980000000000
31
0.0
0
LINE
5
8c1
100
AcDbEntity
8
0-303
6
CONTINUOUS
62
4
100
AcDbLine
10
852.430000000000
20
399.450000000000
30
0.0
11
852.430000000000
21
399.050000000000
31
0.0
0
LINE
5
8c2
100
AcDbEntity
8
0-303
6
CONTINUOUS
62
4
100
AcDbLine
10
854.430000000000
20
399.950000000000
30
0.0
11
852.930000000000
21
399.450000000000
31
0.0
0
LINE
5
8c3
100
AcDbEntity
8
0-303
6
CONTINUOUS
62
4
100
AcDbLine
10
859.830000000000
20
382.180000000000
30
0.0
11
855.030000000000
21
382.980000000000
31
0.0
0
LINE
5
8c4
100
AcDbEntity
8
0-303
6
CONTINUOUS
62
4
100
AcDbLine
10
859.830000000000
20
383.780000000000
30
0.0
11
855.030000000000
21
384.580000000000
31
0.0
0
LINE
5
8c5
100
AcDbEntity
8
0-303
6
CONTINUOUS
62
4
100
AcDbLine
10
859.830000000000
20
380.580000000000
30
0.0
11
855.030000000000
21
381.380000000000
31
0.0
0
LINE
5
8c6
100
AcDbEntity
8
0-303
6
CONTINUOUS
62
4
100
AcDbLine
10
859.830000000000
20
378.980000000000
30
0.0
11
855.030000000000
21
379.780000000000
31
0.0
0
LINE
5
8c7
100
AcDbEntity
8
0-303
6
CONTINUOUS
62
4
100
AcDbLine
10
857.430000000000
20
364.050000000000
30
0.0
11
855.430000000000
21
365.650000000000
31
0.0
0
LINE
5
8c8
100
AcDbEntity
8
0-303
6
CONTINUOUS
62
4
100
AcDbLine
10
859.430000000000
20
365.650000000000
30
0.0
11
857.430000000000
21
364.050000000000
31
0.0
0
LINE
5
8c9
100
AcDbEntity
8
0-303
6
CONTINUOUS
62
4
100
AcDbLine
10
852.430000000000
20
399.050000000000
30
0.0
11
862.430000000000
21
399.050000000000
31
0.0
0
LINE
5
8ca
100
AcDbEntity
8
0-303
6
CONTINUOUS
62
4
100
AcDbLine
10
859.830000000000
20
393.380000000000
30
0.0
11
855.030000000000
21
394.180000000000
31
0.0
0
LINE
5
8cb
100
AcDbEntity
8
0-303
6
CONTINUOUS
62
4
100
AcDbLine
10
859.830000000000
20
391.780000000000
30
0.0
11
855.030000000000
21
392.580000000000
31
0.0
0
LINE
5
8cc
100
AcDbEntity
8
0-303
6
CONTINUOUS
62
4
100
AcDbLine
10
859.830000000000
20
394.980000000000
30
0.0
11
855.030000000000
21
395.780000000000
31
0.0
0
LINE
5
8cd
100
AcDbEntity
8
0-303
6
CONTINUOUS
62
4
100
AcDbLine
10
855.430000000000
20
365.650000000000
30
0.0
11
855.430000000000
21
399.050000000000
31
0.0
0
LINE
5
8ce
100
AcDbEntity
8
0-303
6
CONTINUOUS
62
4
100
AcDbLine
10
859.430000000000
20
365.650000000000
30
0.0
11
859.430000000000
21
399.050000000000
31
0.0
0
LINE
5
8cf
100
AcDbEntity
8
0-303
6
CONTINUOUS
62
4
100
AcDbLine
10
859.830000000000
20
377.380000000000
30
0.0
11
855.030000000000
21
378.180000000000
31
0.0
0
LINE
5
8d0
100
AcDbEntity
8
0-303
6
CONTINUOUS
62
4
100
AcDbLine
10
859.830000000000
20
375.780000000000
30
0.0
11
855.030000000000
21
376.580000000000
31
0.0
0
LINE
5
8d1
100
AcDbEntity
8
0-303
6
CONTINUOUS
62
4
100
AcDbLine
10
859.830000000000
20
374.180000000000
30
0.0
11
855.030000000000
21
374.980000000000
31
0.0
0
LINE
5
8d2
100
AcDbEntity
8
0-303
6
CONTINUOUS
62
4
100
AcDbLine
10
859.830000000000
20
372.580000000000
30
0.0
11
855.030000000000
21
373.380000000000
31
0.0
0
LINE
5
8d3
100
AcDbEntity
8
0-303
6
CONTINUOUS
62
4
100
AcDbLine
10
859.830000000000
20
370.980000000000
30
0.0
11
855.030000000000
21
371.780000000000
31
0.0
0
LINE
5
8d4
100
AcDbEntity
8
0-303
6
CONTINUOUS
62
7
100
AcDbLine
10
869.030000000000
20
415.750000000000
30
0.0
11
869.630000000000
21
415.750000000000
31
0.0
0
LINE
5
8d5
100
AcDbEntity
8
0-303
6
CONTINUOUS
62
7
100
AcDbLine
10
850.230000000000
20
400.450000000000
30
0.0
11
848.230000000000
21
400.450000000000
31
0.0
0
LINE
5
8d6
100
AcDbEntity
8
0-303
6
CONTINUOUS
62
7
100
AcDbLine
10
850.230000000000
20
399.850000000000
30
0.0
11
850.230000000000
21
400.450000000000
31
0.0
0
LINE
5
8d7
100
AcDbEntity
8
0-303
6
CONTINUOUS
62
7
100
AcDbLine
10
850.230000000000
20
399.850000000000
30
0.0
11
848.230000000000
21
399.850000000000
31
0.0
0
LINE
5
8d8
100
AcDbEntity
8
0-303
6
CONTINUOUS
62
7
100
AcDbLine
10
835.260000000000
20
400.880000000000
30
0.0
11
833.430000000000
21
399.050000000000
31
0.0
0
LINE
5
8d9
100
AcDbEntity
8
0-303
6
CONTINUOUS
62
7
100
AcDbLine
10
833.860000000000
20
398.630000000000
30
0.0
11
835.680000000000
21
400.450000000000
31
0.0
0
LINE
5
8da
100
AcDbEntity
8
0-303
6
CONTINUOUS
62
7
100
AcDbLine
10
897.960000000000
20
400.880000000000
30
0.0
11
899.780000000000
21
399.050000000000
31
0.0
0
LINE
5
8db
100
AcDbEntity
8
0-303
6
CONTINUOUS
62
7
100
AcDbLine
10
899.360000000000
20
398.630000000000
30
0.0
11
897.530000000000
21
400.450000000000
31
0.0
0
LINE
5
8dc
100
AcDbEntity
8
0-303
6
CONTINUOUS
62
7
100
AcDbLine
10
873.230000000000
20
415.750000000000
30
0.0
11
873.230000000000
21
408.750000000000
31
0.0
0
LINE
5
8dd
100
AcDbEntity
8
0-303
6
CONTINUOUS
62
7
100
AcDbLine
10
872.630000000000
20
415.750000000000
30
0.0
11
872.630000000000
21
408.750000000000
31
0.0
0
LINE
5
8de
100
AcDbEntity
8
0-303
6
CONTINUOUS
62
7
100
AcDbLine
10
872.030000000000
20
415.750000000000
30
0.0
11
872.030000000000
21
408.750000000000
31
0.0
0
LINE
5
8df
100
AcDbEntity
8
0-303
6
CONTINUOUS
62
7
100
AcDbLine
10
871.430000000000
20
415.750000000000
30
0.0
11
871.430000000000
21
408.750000000000
31
0.0
0
LINE
5
8e0
100
AcDbEntity
8
0-303
6
CONTINUOUS
62
7
100
AcDbLine
10
870.830000000000
20
415.750000000000
30
0.0
11
870.830000000000
21
408.750000000000
31
0.0
0
LINE
5
8e1
100
AcDbEntity
8
0-303
6
CONTINUOUS
62
7
100
AcDbLine
10
870.230000000000
20
415.750000000000
30
0.0
11
870.230000000000
21
408.750000000000
31
0.0
0
LINE
5
8e2
100
AcDbEntity
8
0-303
6
CONTINUOUS
62
7
100
AcDbLine
10
869.630000000000
20
415.750000000000
30
0.0
11
869.630000000000
21
408.750000000000
31
0.0
0
LINE
5
8e3
100
AcDbEntity
8
0-303
6
CONTINUOUS
62
7
100
AcDbLine
10
869.030000000000
20
415.750000000000
30
0.0
11
869.030000000000
21
408.750000000000
31
0.0
0
LINE
5
8e4
100
AcDbEntity
8
0-303
6
CENTER2
62
4
100
AcDbLine
10
857.430000000000
20
400.860000000000
30
0.0
11
857.430000000000
21
360.710000000000
31
0.0
0
LINE
5
8e5
100
AcDbEntity
8
0-303
6
CONTINUOUS
62
7
100
AcDbLine
10
864.830000000000
20
401.050000000000
30
0.0
11
835.680000000000
21
401.050000000000
31
0.0
0
LINE
5
8e6
100
AcDbEntity
8
0-303
6
CONTINUOUS
62
7
100
AcDbLine
10
865.430000000000
20
401.650000000000
30
0.0
11
865.430000000000
21
415.750000000000
31
0.0
0
LINE
5
8e7
100
AcDbEntity
8
0-303
6
CONTINUOUS
62
7
100
AcDbLine
10
868.430000000000
20
401.650000000000
30
0.0
11
868.430000000000
21
415.750000000000
31
0.0
0
LINE
5
8e8
100
AcDbEntity
8
0-303
6
CONTINUOUS
62
7
100
AcDbLine
10
869.030000000000
20
401.050000000000
30
0.0
11
897.530000000000
21
401.050000000000
31
0.0
0
LINE
5
8e9
100
AcDbEntity
8
0-303
6
CONTINUOUS
62
7
100
AcDbLine
10
866.630000000000
20
399.650000000000
30
0.0
11
866.630000000000
21
415.750000000000
31
0.0
0
LINE
5
8ea
100
AcDbEntity
8
0-303
6
CONTINUOUS
62
7
100
AcDbLine
10
866.030000000000
20
399.050000000000
30
0.0
11
848.230000000000
21
399.050000000000
31
0.0
0
LINE
5
8eb
100
AcDbEntity
8
0-303
6
CONTINUOUS
62
7
100
AcDbLine
10
866.030000000000
20
415.750000000000
30
0.0
11
866.030000000000
21
401.650000000000
31
0.0
0
LINE
5
8ec
100
AcDbEntity
8
0-303
6
CONTINUOUS
62
7
100
AcDbLine
10
864.830000000000
20
400.450000000000
30
0.0
11
835.680000000000
21
400.450000000000
31
0.0
0
LINE
5
8ed
100
AcDbEntity
8
0-303
6
CONTINUOUS
62
7
100
AcDbLine
10
867.230000000000
20
415.750000000000
30
0.0
11
867.230000000000
21
399.650000000000
31
0.0
0
LINE
5
8ee
100
AcDbEntity
8
0-303
6
CONTINUOUS
62
7
100
AcDbLine
10
866.030000000000
20
398.450000000000
30
0.0
11
848.230000000000
21
398.450000000000
31
0.0
0
LINE
5
8ef
100
AcDbEntity
8
0-303
6
CONTINUOUS
62
7
100
AcDbLine
10
867.830000000000
20
415.750000000000
30
0.0
11
867.830000000000
21
401.650000000000
31
0.0
0
LINE
5
8f0
100
AcDbEntity
8
0-303
6
CONTINUOUS
62
7
100
AcDbLine
10
869.030000000000
20
400.450000000000
30
0.0
11
897.530000000000
21
400.450000000000
31
0.0
0
LINE
5
8f1
100
AcDbEntity
8
0-303
6
CONTINUOUS
62
7
100
AcDbLine
10
899.780000000000
20
398.450000000000
30
0.0
11
951.710000000000
21
398.450000000000
31
0.0
0
LINE
5
8f2
100
AcDbEntity
8
0-303
6
CONTINUOUS
62
7
100
AcDbLine
10
899.780000000000
20
399.050000000000
30
0.0
11
951.710000000000
21
399.050000000000
31
0.0
0
LINE
5
8f3
100
AcDbEntity
8
0-505
6
CONTINUOUS
62
4
100
AcDbLine
10
1280.360000000000
20
292.110000000000
30
0.0
11
1290.360000000000
21
292.110000000000
31
0.0
0
LINE
5
8f4
100
AcDbEntity
8
0-505
6
CONTINUOUS
62
4
100
AcDbLine
10
1282.360000000000
20
292.610000000000
30
0.0
11
1288.360000000000
21
292.610000000000
31
0.0
0
LINE
5
8f5
100
AcDbEntity
8
0-505
6
CONTINUOUS
62
4
100
AcDbLine
10
1290.360000000000
20
292.110000000000
30
0.0
11
1290.360000000000
21
291.710000000000
31
0.0
0
LINE
5
8f6
100
AcDbEntity
8
0-505
6
CONTINUOUS
62
4
100
AcDbLine
10
1288.360000000000
20
292.610000000000
30
0.0
11
1289.860000000000
21
292.110000000000
31
0.0
0
LINE
5
8f7
100
AcDbEntity
8
0-505
6
CONTINUOUS
62
4
100
AcDbLine
10
1287.760000000000
20
281.240000000000
30
0.0
11
1282.960000000000
21
282.040000000000
31
0.0
0
LINE
5
8f8
100
AcDbEntity
8
0-505
6
CONTINUOUS
62
4
100
AcDbLine
10
1287.760000000000
20
279.640000000000
30
0.0
11
1282.960000000000
21
280.440000000000
31
0.0
0
LINE
5
8f9
100
AcDbEntity
8
0-505
6
CONTINUOUS
62
4
100
AcDbLine
10
1287.760000000000
20
278.040000000000
30
0.0
11
1282.960000000000
21
278.840000000000
31
0.0
0
LINE
5
8fa
100
AcDbEntity
8
0-505
6
CONTINUOUS
62
4
100
AcDbLine
10
1287.760000000000
20
282.840000000000
30
0.0
11
1282.960000000000
21
283.640000000000
31
0.0
0
LINE
5
8fb
100
AcDbEntity
8
0-505
6
CONTINUOUS
62
4
100
AcDbLine
10
1280.360000000000
20
292.110000000000
30
0.0
11
1280.360000000000
21
291.710000000000
31
0.0
0
LINE
5
8fc
100
AcDbEntity
8
0-505
6
CONTINUOUS
62
4
100
AcDbLine
10
1282.360000000000
20
292.610000000000
30
0.0
11
1280.860000000000
21
292.110000000000
31
0.0
0
LINE
5
8fd
100
AcDbEntity
8
0-505
6
CONTINUOUS
62
4
100
AcDbLine
10
1287.760000000000
20
274.840000000000
30
0.0
11
1282.960000000000
21
275.640000000000
31
0.0
0
LINE
5
8fe
100
AcDbEntity
8
0-505
6
CONTINUOUS
62
4
100
AcDbLine
10
1287.760000000000
20
276.440000000000
30
0.0
11
1282.960000000000
21
277.240000000000
31
0.0
0
LINE
5
8ff
100
AcDbEntity
8
0-505
6
CONTINUOUS
62
4
100
AcDbLine
10
1287.760000000000
20
273.240000000000
30
0.0
11
1282.960000000000
21
274.040000000000
31
0.0
0
LINE
5
900
100
AcDbEntity
8
0-505
6
CONTINUOUS
62
4
100
AcDbLine
10
1287.760000000000
20
271.640000000000
30
0.0
11
1282.960000000000
21
272.440000000000
31
0.0
0
LINE
5
901
100
AcDbEntity
8
0-505
6
CONTINUOUS
62
4
100
AcDbLine
10
1285.360000000000
20
256.710000000000
30
0.0
11
1283.360000000000
21
258.310000000000
31
0.0
0
LINE
5
902
100
AcDbEntity
8
0-505
6
CONTINUOUS
62
4
100
AcDbLine
10
1287.360000000000
20
258.310000000000
30
0.0
11
1285.360000000000
21
256.710000000000
31
0.0
0
LINE
5
903
100
AcDbEntity
8
0-505
6
CONTINUOUS
62
4
100
AcDbLine
10
1280.360000000000
20
291.710000000000
30
0.0
11
1290.360000000000
21
291.710000000000
31
0.0
0
LINE
5
904
100
AcDbEntity
8
0-505
6
CONTINUOUS
62
4
100
AcDbLine
10
1287.760000000000
20
286.040000000000
30
0.0
11
1282.960000000000
21
286.840000000000
31
0.0
0
LINE
5
905
100
AcDbEntity
8
0-505
6
CONTINUOUS
62
4
100
AcDbLine
10
1287.760000000000
20
284.440000000000
30
0.0
11
1282.960000000000
21
285.240000000000
31
0.0
0
LINE
5
906
100
AcDbEntity
8
0-505
6
CONTINUOUS
62
4
100
AcDbLine
10
1287.760000000000
20
287.640000000000
30
0.0
11
1282.960000000000
21
288.440000000000
31
0.0
0
LINE
5
907
100
AcDbEntity
8
0-505
6
CONTINUOUS
62
4
100
AcDbLine
10
1283.360000000000
20
258.310000000000
30
0.0
11
1283.360000000000
21
291.710000000000
31
0.0
0
LINE
5
908
100
AcDbEntity
8
0-505
6
CONTINUOUS
62
4
100
AcDbLine
10
1287.360000000000
20
258.310000000000
30
0.0
11
1287.360000000000
21
291.710000000000
31
0.0
0
LINE
5
909
100
AcDbEntity
8
0-505
6
CONTINUOUS
62
4
100
AcDbLine
10
1287.760000000000
20
270.040000000000
30
0.0
11
1282.960000000000
21
270.840000000000
31
0.0
0
LINE
5
90a
100
AcDbEntity
8
0-505
6
CONTINUOUS
62
4
100
AcDbLine
10
1287.760000000000
20
268.440000000000
30
0.0
11
1282.960000000000
21
269.240000000000
31
0.0
0
LINE
5
90b
100
AcDbEntity
8
0-505
6
CONTINUOUS
62
4
100
AcDbLine
10
1287.760000000000
20
266.840000000000
30
0.0
11
1282.960000000000
21
267.640000000000
31
0.0
0
LINE
5
90c
100
AcDbEntity
8
0-505
6
CONTINUOUS
62
4
100
AcDbLine
10
1287.760000000000
20
265.240000000000
30
0.0
11
1282.960000000000
21
266.040000000000
31
0.0
0
LINE
5
90d
100
AcDbEntity
8
0-505
6
CONTINUOUS
62
4
100
AcDbLine
10
1287.760000000000
20
263.640000000000
30
0.0
11
1282.960000000000
21
264.440000000000
31
0.0
0
LINE
5
90e
100
AcDbEntity
8
0-505
6
CONTINUOUS
62
7
100
AcDbLine
10
1296.960000000000
20
308.410000000000
30
0.0
11
1297.560000000000
21
308.410000000000
31
0.0
0
LINE
5
90f
100
AcDbEntity
8
0-505
6
CONTINUOUS
62
7
100
AcDbLine
10
1278.160000000000
20
293.110000000000
30
0.0
11
1276.160000000000
21
293.110000000000
31
0.0
0
LINE
5
910
100
AcDbEntity
8
0-505
6
CONTINUOUS
62
7
100
AcDbLine
10
1278.160000000000
20
292.510000000000
30
0.0
11
1278.160000000000
21
293.110000000000
31
0.0
0
LINE
5
911
100
AcDbEntity
8
0-505
6
CONTINUOUS
62
7
100
AcDbLine
10
1278.160000000000
20
292.510000000000
30
0.0
11
1276.160000000000
21
292.510000000000
31
0.0
0
LINE
5
912
100
AcDbEntity
8
0-505
6
CONTINUOUS
62
7
100
AcDbLine
10
1263.190000000000
20
293.540000000000
30
0.0
11
1261.360000000000
21
291.710000000000
31
0.0
0
LINE
5
913
100
AcDbEntity
8
0-505
6
CONTINUOUS
62
7
100
AcDbLine
10
1261.790000000000
20
291.290000000000
30
0.0
11
1263.610000000000
21
293.110000000000
31
0.0
0
LINE
5
914
100
AcDbEntity
8
0-505
6
CONTINUOUS
62
7
100
AcDbLine
10
1325.890000000000
20
293.540000000000
30
0.0
11
1327.710000000000
21
291.710000000000
31
0.0
0
LINE
5
915
100
AcDbEntity
8
0-505
6
CONTINUOUS
62
7
100
AcDbLine
10
1327.290000000000
20
291.290000000000
30
0.0
11
1325.460000000000
21
293.110000000000
31
0.0
0
LINE
5
916
100
AcDbEntity
8
0-505
6
CONTINUOUS
62
7
100
AcDbLine
10
1301.160000000000
20
308.410000000000
30
0.0
11
1301.160000000000
21
301.410000000000
31
0.0
0
LINE
5
917
100
AcDbEntity
8
0-505
6
CONTINUOUS
62
7
100
AcDbLine
10
1300.560000000000
20
308.410000000000
30
0.0
11
1300.560000000000
21
301.410000000000
31
0.0
0
LINE
5
918
100
AcDbEntity
8
0-505
6
CONTINUOUS
62
7
100
AcDbLine
10
1299.960000000000
20
308.410000000000
30
0.0
11
1299.960000000000
21
301.410000000000
31
0.0
0
LINE
5
919
100
AcDbEntity
8
0-505
6
CONTINUOUS
62
7
100
AcDbLine
10
1299.360000000000
20
308.410000000000
30
0.0
11
1299.360000000000
21
301.410000000000
31
0.0
0
LINE
5
91a
100
AcDbEntity
8
0-505
6
CONTINUOUS
62
7
100
AcDbLine
10
1298.760000000000
20
308.410000000000
30
0.0
11
1298.760000000000
21
301.410000000000
31
0.0
0
LINE
5
91b
100
AcDbEntity
8
0-505
6
CONTINUOUS
62
7
100
AcDbLine
10
1298.160000000000
20
308.410000000000
30
0.0
11
1298.160000000000
21
301.410000000000
31
0.0
0
LINE
5
91c
100
AcDbEntity
8
0-505
6
CONTINUOUS
62
7
100
AcDbLine
10
1297.560000000000
20
308.410000000000
30
0.0
11
1297.560000000000
21
301.410000000000
31
0.0
0
LINE
5
91d
100
AcDbEntity
8
0-505
6
CONTINUOUS
62
7
100
AcDbLine
10
1296.960000000000
20
308.410000000000
30
0.0
11
1296.960000000000
21
301.410000000000
31
0.0
0
LINE
5
91e
100
AcDbEntity
8
0-505
6
CENTER2
62
4
100
AcDbLine
10
1285.360000000000
20
293.520000000000
30
0.0
11
1285.360000000000
21
253.370000000000
31
0.0
0
LINE
5
91f
100
AcDbEntity
8
0-505
6
CONTINUOUS
62
7
100
AcDbLine
10
1292.760000000000
20
293.710000000000
30
0.0
11
1263.610000000000
21
293.710000000000
31
0.0
0
LINE
5
920
100
AcDbEntity
8
0-505
6
CONTINUOUS
62
7
100
AcDbLine
10
1293.360000000000
20
294.310000000000
30
0.0
11
1293.360000000000
21
308.410000000000
31
0.0
0
LINE
5
921
100
AcDbEntity
8
0-505
6
CONTINUOUS
62
7
100
AcDbLine
10
1296.360000000000
20
294.310000000000
30
0.0
11
1296.360000000000
21
308.410000000000
31
0.0
0
LINE
5
922
100
AcDbEntity
8
0-505
6
CONTINUOUS
62
7
100
AcDbLine
10
1296.960000000000
20
293.710000000000
30
0.0
11
1325.460000000000
21
293.710000000000
31
0.0
0
LINE
5
923
100
AcDbEntity
8
0-505
6
CONTINUOUS
62
7
100
AcDbLine
10
1294.560000000000
20
292.310000000000
30
0.0
11
1294.560000000000
21
308.410000000000
31
0.0
0
LINE
5
924
100
AcDbEntity
8
0-505
6
CONTINUOUS
62
7
100
AcDbLine
10
1293.960000000000
20
291.710000000000
30
0.0
11
1276.160000000000
21
291.710000000000
31
0.0
0
LINE
5
925
100
AcDbEntity
8
0-505
6
CONTINUOUS
62
7
100
AcDbLine
10
1293.960000000000
20
308.410000000000
30
0.0
11
1293.960000000000
21
294.310000000000
31
0.0
0
LINE
5
926
100
AcDbEntity
8
0-505
6
CONTINUOUS
62
7
100
AcDbLine
10
1292.760000000000
20
293.110000000000
30
0.0
11
1263.610000000000
21
293.110000000000
31
0.0
0
LINE
5
927
100
AcDbEntity
8
0-505
6
CONTINUOUS
62
7
100
AcDbLine
10
1295.160000000000
20
308.410000000000
30
0.0
11
1295.160000000000
21
292.310000000000
31
0.0
0
LINE
5
928
100
AcDbEntity
8
0-505
6
CONTINUOUS
62
7
100
AcDbLine
10
1293.960000000000
20
291.110000000000
30
0.0
11
1276.160000000000
21
291.110000000000
31
0.0
0
LINE
5
929
100
AcDbEntity
8
0-505
6
CONTINUOUS
62
7
100
AcDbLine
10
1295.760000000000
20
308.410000000000
30
0.0
11
1295.760000000000
21
294.310000000000
31
0.0
0
LINE
5
92a
100
AcDbEntity
8
0-505
6
CONTINUOUS
62
7
100
AcDbLine
10
1296.960000000000
20
293.110000000000
30
0.0
11
1325.460000000000
21
293.110000000000
31
0.0
0
LINE
5
92b
100
AcDbEntity
8
0-505
6
CONTINUOUS
62
7
100
AcDbLine
10
1261.360000000000
20
291.710000000000
30
0.0
11
1182.360000000000
21
291.710000000000
31
0.0
0
LINE
5
92c
100
AcDbEntity
8
0-505
6
CONTINUOUS
62
7
100
AcDbLine
10
1261.360000000000
20
291.110000000000
30
0.0
11
1182.360000000000
21
291.110000000000
31
0.0
0
LINE
5
92d
100
AcDbEntity
8
0-505
6
CONTINUOUS
62
7
100
AcDbLine
10
1392.380000000000
20
291.710000000000
30
0.0
11
1327.710000000000
21
291.710000000000
31
0.0
0
LINE
5
92e
100
AcDbEntity
8
0-505
6
CONTINUOUS
62
7
100
AcDbLine
10
1327.710000000000
20
291.110000000000
30
0.0
11
1392.380000000000
21
291.110000000000
31
0.0
0
LINE
5
92f
100
AcDbEntity
8
0-505
6
CONTINUOUS
62
7
100
AcDbLine
10
1394.980000000000
20
293.710000000000
30
0.0
11
1394.980000000000
21
314.410000000000
31
0.0
0
LINE
5
930
100
AcDbEntity
8
0-505
6
CONTINUOUS
62
7
100
AcDbLine
10
1394.380000000000
20
293.710000000000
30
0.0
11
1394.380000000000
21
314.410000000000
31
0.0
0
LINE
5
931
100
AcDbEntity
8
0-606
6
CONTINUOUS
62
4
100
AcDbLine
10
350.750000000000
20
750.470000000000
30
0.0
11
350.750000000000
21
787.070000000000
31
0.0
0
LINE
5
932
100
AcDbEntity
8
0-101
6
CONTINUOUS
62
7
100
AcDbLine
10
456.380000000000
20
347.760000000000
30
0.0
11
463.240000000000
21
368.060000000000
31
0.0
0
LINE
5
933
100
AcDbEntity
8
0-202
6
CONTINUOUS
62
7
100
AcDbLine
10
748.740000000000
20
842.520000000000
30
0.0
11
733.010000000000
21
815.290000000000
31
0.0
0
LINE
5
934
100
AcDbEntity
8
0-202
6
CONTINUOUS
62
7
100
AcDbLine
10
819.530000000000
20
748.330000000000
30
0.0
11
801.710000000000
21
717.480000000000
31
0.0
0
LINE
5
935
100
AcDbEntity
8
0-303
6
CONTINUOUS
62
7
100
AcDbLine
10
804.430000000000
20
291.120000000000
30
0.0
11
787.970000000000
21
262.620000000000
31
0.0
0
LINE
5
936
100
AcDbEntity
8
0-303
6
CONTINUOUS
62
7
100
AcDbLine
10
753.430000000000
20
373.440000000000
30
0.0
11
738.930000000000
21
348.340000000000
31
0.0
0
LINE
5
937
100
AcDbEntity
8
0-404
6
CONTINUOUS
62
7
100
AcDbLine
10
1388.580000000000
20
837.330000000000
30
0.0
11
1344.650000000000
21
887.310000000000
31
0.0
0
LINE
5
938
100
AcDbEntity
8
0-404
6
CONTINUOUS
62
7
100
AcDbLine
10
1259.700000000000
20
795.470000000000
30
0.0
11
1239.830000000000
21
818.070000000000
31
0.0
0
LINE
5
939
100
AcDbEntity
8
0-404
6
CONTINUOUS
62
3
100
AcDbLine
10
1471.480000000000
20
901.210000000000
30
0.0
11
1471.480000000000
21
787.380000000000
31
0.0
0
LINE
5
93a
100
AcDbEntity
8
0-202
6
CONTINUOUS
62
4
100
AcDbLine
10
852.520000000000
20
844.740000000000
30
0.0
11
853.140000000000
21
845.680000000000
31
0.0
0
LINE
5
93b
100
AcDbEntity
8
0-202
6
CONTINUOUS
62
4
100
AcDbLine
10
853.140000000000
20
845.680000000000
30
0.0
11
852.400000000000
21
846.640000000000
31
0.0
0
LINE
5
93c
100
AcDbEntity
8
0-202
6
CONTINUOUS
62
4
100
AcDbLine
10
852.400000000000
20
846.640000000000
30
0.0
11
853.460000000000
21
847.560000000000
31
0.0
0
LINE
5
93d
100
AcDbEntity
8
0-202
6
CONTINUOUS
62
4
100
AcDbLine
10
853.460000000000
20
847.560000000000
30
0.0
11
855.100000000000
21
846.070000000000
31
0.0
0
LINE
5
93e
100
AcDbEntity
8
0-404
6
CONTINUOUS
62
4
100
AcDbLine
10
1327.720000000000
20
759.660000000000
30
0.0
11
1328.350000000000
21
760.600000000000
31
0.0
0
LINE
5
93f
100
AcDbEntity
8
0-404
6
CONTINUOUS
62
4
100
AcDbLine
10
1328.350000000000
20
760.600000000000
30
0.0
11
1327.600000000000
21
761.570000000000
31
0.0
0
LINE
5
940
100
AcDbEntity
8
0-404
6
CONTINUOUS
62
4
100
AcDbLine
10
1327.600000000000
20
761.570000000000
30
0.0
11
1328.660000000000
21
762.490000000000
31
0.0
0
LINE
5
941
100
AcDbEntity
8
0-404
6
CONTINUOUS
62
4
100
AcDbLine
10
1328.660000000000
20
762.490000000000
30
0.0
11
1330.310000000000
21
760.990000000000
31
0.0
0
LINE
5
942
100
AcDbEntity
8
0-404
6
CONTINUOUS
62
4
100
AcDbLine
10
1332.860000000000
20
811.980000000000
30
0.0
11
1333.250000000000
21
812.570000000000
31
0.0
0
LINE
5
943
100
AcDbEntity
8
0-404
6
CONTINUOUS
62
4
100
AcDbLine
10
1333.250000000000
20
812.570000000000
30
0.0
11
1332.780000000000
21
813.180000000000
31
0.0
0
LINE
5
944
100
AcDbEntity
8
0-404
6
CONTINUOUS
62
4
100
AcDbLine
10
1332.780000000000
20
813.180000000000
30
0.0
11
1333.450000000000
21
813.750000000000
31
0.0
0
LINE
5
945
100
AcDbEntity
8
0-404
6
CONTINUOUS
62
4
100
AcDbLine
10
1333.450000000000
20
813.750000000000
30
0.0
11
1334.470000000000
21
812.820000000000
31
0.0
0
LINE
5
946
100
AcDbEntity
8
0-101
6
CONTINUOUS
62
4
100
AcDbLine
10
231.750000000000
20
289.950000000000
30
0.0
11
232.370000000000
21
290.900000000000
31
0.0
0
LINE
5
947
100
AcDbEntity
8
0-101
6
CONTINUOUS
62
4
100
AcDbLine
10
232.370000000000
20
290.900000000000
30
0.0
11
231.630000000000
21
291.860000000000
31
0.0
0
LINE
5
948
100
AcDbEntity
8
0-101
6
CONTINUOUS
62
4
100
AcDbLine
10
231.630000000000
20
291.860000000000
30
0.0
11
232.690000000000
21
292.780000000000
31
0.0
0
LINE
5
949
100
AcDbEntity
8
0-101
6
CONTINUOUS
62
4
100
AcDbLine
10
232.690000000000
20
292.780000000000
30
0.0
11
234.340000000000
21
291.290000000000
31
0.0
0
LINE
5
94a
100
AcDbEntity
8
0-101
6
CONTINUOUS
62
4
100
AcDbLine
10
219.230000000000
20
338.750000000000
30
0.0
11
219.630000000000
21
339.340000000000
31
0.0
0
LINE
5
94b
100
AcDbEntity
8
0-101
6
CONTINUOUS
62
4
100
AcDbLine
10
219.630000000000
20
339.340000000000
30
0.0
11
219.160000000000
21
339.940000000000
31
0.0
0
LINE
5
94c
100
AcDbEntity
8
0-101
6
CONTINUOUS
62
4
100
AcDbLine
10
219.160000000000
20
339.940000000000
30
0.0
11
219.820000000000
21
340.520000000000
31
0.0
0
LINE
5
94d
100
AcDbEntity
8
0-101
6
CONTINUOUS
62
4
100
AcDbLine
10
219.820000000000
20
340.520000000000
30
0.0
11
220.850000000000
21
339.580000000000
31
0.0
0
LINE
5
94e
100
AcDbEntity
8
0-101
6
CONTINUOUS
62
4
100
AcDbLine
10
424.690000000000
20
289.950000000000
30
0.0
11
424.060000000000
21
290.900000000000
31
0.0
0
LINE
5
94f
100
AcDbEntity
8
0-101
6
CONTINUOUS
62
4
100
AcDbLine
10
424.060000000000
20
290.900000000000
30
0.0
11
424.800000000000
21
291.860000000000
31
0.0
0
LINE
5
950
100
AcDbEntity
8
0-101
6
CONTINUOUS
62
4
100
AcDbLine
10
424.800000000000
20
291.860000000000
30
0.0
11
423.740000000000
21
292.780000000000
31
0.0
0
LINE
5
951
100
AcDbEntity
8
0-101
6
CONTINUOUS
62
4
100
AcDbLine
10
423.740000000000
20
292.780000000000
30
0.0
11
422.100000000000
21
291.290000000000
31
0.0
0
LINE
5
952
100
AcDbEntity
8
0-101
6
CONTINUOUS
62
4
100
AcDbLine
10
437.200000000000
20
338.750000000000
30
0.0
11
436.810000000000
21
339.340000000000
31
0.0
0
LINE
5
953
100
AcDbEntity
8
0-101
6
CONTINUOUS
62
4
100
AcDbLine
10
436.810000000000
20
339.340000000000
30
0.0
11
437.270000000000
21
339.940000000000
31
0.0
0
LINE
5
954
100
AcDbEntity
8
0-101
6
CONTINUOUS
62
4
100
AcDbLine
10
437.270000000000
20
339.940000000000
30
0.0
11
436.610000000000
21
340.520000000000
31
0.0
0
LINE
5
955
100
AcDbEntity
8
0-101
6
CONTINUOUS
62
4
100
AcDbLine
10
436.610000000000
20
340.520000000000
30
0.0
11
435.580000000000
21
339.580000000000
31
0.0
0
LINE
5
956
100
AcDbEntity
8
0-000
6
CONTINUOUS
62
4
100
AcDbLine
10
142.870000000000
20
935.110000000000
30
0.0
11
143.670000000000
21
935.910000000000
31
0.0
0
LINE
5
957
100
AcDbEntity
8
0-000
6
CONTINUOUS
62
4
100
AcDbLine
10
143.670000000000
20
935.910000000000
30
0.0
11
143.130000000000
21
937.000000000000
31
0.0
0
LINE
5
958
100
AcDbEntity
8
0-000
6
CONTINUOUS
62
4
100
AcDbLine
10
143.130000000000
20
937.000000000000
30
0.0
11
144.350000000000
21
937.700000000000
31
0.0
0
LINE
5
959
100
AcDbEntity
8
0-000
6
CONTINUOUS
62
4
100
AcDbLine
10
144.350000000000
20
937.700000000000
30
0.0
11
145.670000000000
21
935.910000000000
31
0.0
0
LINE
5
95a
100
AcDbEntity
8
0-000
6
CONTINUOUS
62
4
100
AcDbLine
10
471.670000000000
20
935.110000000000
30
0.0
11
472.470000000000
21
935.910000000000
31
0.0
0
LINE
5
95b
100
AcDbEntity
8
0-000
6
CONTINUOUS
62
4
100
AcDbLine
10
472.470000000000
20
935.910000000000
30
0.0
11
471.930000000000
21
937.000000000000
31
0.0
0
LINE
5
95c
100
AcDbEntity
8
0-000
6
CONTINUOUS
62
4
100
AcDbLine
10
471.930000000000
20
937.000000000000
30
0.0
11
473.150000000000
21
937.700000000000
31
0.0
0
LINE
5
95d
100
AcDbEntity
8
0-000
6
CONTINUOUS
62
4
100
AcDbLine
10
473.150000000000
20
937.700000000000
30
0.0
11
474.470000000000
21
935.910000000000
31
0.0
0
LINE
5
95e
100
AcDbEntity
8
0-606
6
CONTINUOUS
62
4
100
AcDbLine
10
283.210000000000
20
678.070000000000
30
0.0
11
284.810000000000
21
679.670000000000
31
0.0
0
LINE
5
95f
100
AcDbEntity
8
0-606
6
CONTINUOUS
62
4
100
AcDbLine
10
284.810000000000
20
679.670000000000
30
0.0
11
283.740000000000
21
681.850000000000
31
0.0
0
LINE
5
960
100
AcDbEntity
8
0-606
6
CONTINUOUS
62
4
100
AcDbLine
10
283.740000000000
20
681.850000000000
30
0.0
11
286.180000000000
21
683.240000000000
31
0.0
0
LINE
5
961
100
AcDbEntity
8
0-606
6
CONTINUOUS
62
4
100
AcDbLine
10
286.180000000000
20
683.240000000000
30
0.0
11
288.810000000000
21
679.670000000000
31
0.0
0
LINE
5
962
100
AcDbEntity
8
0-303
6
CONTINUOUS
62
4
100
AcDbLine
10
856.630000000000
20
364.850000000000
30
0.0
11
857.430000000000
21
365.650000000000
31
0.0
0
LINE
5
963
100
AcDbEntity
8
0-303
6
CONTINUOUS
62
4
100
AcDbLine
10
857.430000000000
20
365.650000000000
30
0.0
11
856.890000000000
21
366.750000000000
31
0.0
0
LINE
5
964
100
AcDbEntity
8
0-303
6
CONTINUOUS
62
4
100
AcDbLine
10
856.890000000000
20
366.750000000000
30
0.0
11
858.110000000000
21
367.440000000000
31
0.0
0
LINE
5
965
100
AcDbEntity
8
0-303
6
CONTINUOUS
62
4
100
AcDbLine
10
858.110000000000
20
367.440000000000
30
0.0
11
859.430000000000
21
365.650000000000
31
0.0
0
LINE
5
966
100
AcDbEntity
8
0-505
6
CONTINUOUS
62
4
100
AcDbLine
10
1284.560000000000
20
257.510000000000
30
0.0
11
1285.360000000000
21
258.310000000000
31
0.0
0
LINE
5
967
100
AcDbEntity
8
0-505
6
CONTINUOUS
62
4
100
AcDbLine
10
1285.360000000000
20
258.310000000000
30
0.0
11
1284.820000000000
21
259.400000000000
31
0.0
0
LINE
5
968
100
AcDbEntity
8
0-505
6
CONTINUOUS
62
4
100
AcDbLine
10
1284.820000000000
20
259.400000000000
30
0.0
11
1286.040000000000
21
260.100000000000
31
0.0
0
LINE
5
969
100
AcDbEntity
8
0-505
6
CONTINUOUS
62
4
100
AcDbLine
10
1286.040000000000
20
260.100000000000
30
0.0
11
1287.360000000000
21
258.310000000000
31
0.0
0
LINE
5
96a
100
AcDbEntity
8
0-606
6
CENTER2
62
4
100
AcDbLine
10
303.810000000000
20
799.710000000000
30
0.0
11
303.810000000000
21
734.980000000000
31
0.0
0
LINE
5
96b
100
AcDbEntity
8
0-606
6
CONTINUOUS
62
3
100
AcDbLine
10
403.580000000000
20
663.270000000000
30
0.0
11
207.010000000000
21
663.270000000000
31
0.0
0
LINE
5
96c
100
AcDbEntity
8
0-404
6
CONTINUOUS
62
3
100
AcDbLine
10
1471.480000000000
20
946.610000000000
30
0.0
11
1471.480000000000
21
1028.910000000000
31
0.0
0
LINE
5
96d
100
AcDbEntity
8
0-404
6
CONTINUOUS
62
4
100
AcDbLine
10
1428.480000000000
20
986.070000000000
30
0.0
11
1443.480000000000
21
1001.070000000000
31
0.0
0
LINE
5
96e
100
AcDbEntity
8
0-404
6
CONTINUOUS
62
4
100
AcDbLine
10
1428.480000000000
20
988.900000000000
30
0.0
11
1443.480000000000
21
1003.890000000000
31
0.0
0
LINE
5
96f
100
AcDbEntity
8
0-404
6
DASHED
62
7
100
AcDbLine
10
1456.980000000000
20
1006.160000000000
30
0.0
11
1454.580000000000
21
1002.460000000000
31
0.0
0
LINE
5
970
100
AcDbEntity
8
0-404
6
CONTINUOUS
62
7
100
AcDbLine
10
1455.180000000000
20
992.490000000000
30
0.0
11
1455.180000000000
21
1001.610000000000
31
0.0
0
LINE
5
971
100
AcDbEntity
8
0-404
6
CONTINUOUS
62
7
100
AcDbLine
10
1455.780000000000
20
992.490000000000
30
0.0
11
1455.780000000000
21
1001.610000000000
31
0.0
0
LINE
5
972
100
AcDbEntity
8
0-404
6
DASHED
62
7
100
AcDbLine
10
1454.580000000000
20
1002.460000000000
30
0.0
11
1454.580000000000
21
992.050000000000
31
0.0
0
LINE
5
973
100
AcDbEntity
8
0-404
6
DASHED
62
7
100
AcDbLine
10
1454.580000000000
20
992.050000000000
30
0.0
11
1455.180000000000
21
990.080000000000
31
0.0
0
LINE
5
974
100
AcDbEntity
8
0-404
6
DASHED
62
7
100
AcDbLine
10
1455.180000000000
20
990.080000000000
30
0.0
11
1455.180000000000
21
866.910000000000
31
0.0
0
LINE
5
975
100
AcDbEntity
8
0-404
6
CONTINUOUS
62
7
100
AcDbLine
10
1456.380000000000
20
851.020000000000
30
0.0
11
1456.380000000000
21
1001.610000000000
31
0.0
0
LINE
5
976
100
AcDbEntity
8
0-404
6
CONTINUOUS
62
7
100
AcDbLine
10
1456.980000000000
20
851.020000000000
30
0.0
11
1456.980000000000
21
1001.610000000000
31
0.0
0
LINE
5
977
100
AcDbEntity
8
0-404
6
CONTINUOUS
62
4
100
AcDbLine
10
1465.130000000000
20
998.910000000000
30
0.0
11
1507.070000000000
21
998.910000000000
31
0.0
0
LINE
5
978
100
AcDbEntity
8
0-404
6
CONTINUOUS
62
4
100
AcDbLine
10
1507.070000000000
20
998.910000000000
30
0.0
11
1507.070000000000
21
848.910000000000
31
0.0
0
LINE
5
979
100
AcDbEntity
8
0-404
6
DASHED
62
7
100
AcDbLine
10
1456.980000000000
20
1006.160000000000
30
0.0
11
1456.980000000000
21
1028.910000000000
31
0.0
0
LINE
5
97a
100
AcDbEntity
8
0-404
6
DASHED
62
7
100
AcDbLine
10
1457.980000000000
20
828.670000000000
30
0.0
11
1457.980000000000
21
1028.910000000000
31
0.0
0
LINE
5
97b
100
AcDbEntity
8
0-404
6
CONTINUOUS
62
4
100
AcDbLine
10
1458.980000000000
20
787.380000000000
30
0.0
11
1458.980000000000
21
1028.910000000000
31
0.0
0
LINE
5
97c
100
AcDbEntity
8
0-404
6
DOT
62
4
100
AcDbLine
10
1467.310000000000
20
787.380000000000
30
0.0
11
1467.310000000000
21
1028.910000000000
31
0.0
0
LINE
5
97d
100
AcDbEntity
8
0-404
6
DOT
62
4
100
AcDbLine
10
1463.150000000000
20
787.380000000000
30
0.0
11
1463.150000000000
21
1028.910000000000
31
0.0
0
LINE
5
97e
100
AcDbEntity
8
0-404
6
CONTINUOUS
62
4
100
AcDbLine
10
1532.790000000000
20
823.760000000000
30
0.0
11
1532.790000000000
21
1028.910000000000
31
0.0
0
LINE
5
97f
100
AcDbEntity
8
0-404
6
CONTINUOUS
62
4
100
AcDbLine
10
1490.850000000000
20
823.760000000000
30
0.0
11
1532.790000000000
21
823.760000000000
31
0.0
0
LINE
5
980
100
AcDbEntity
8
0-404
6
CONTINUOUS
62
4
100
AcDbLine
10
1532.790000000000
20
1028.910000000000
30
0.0
11
1535.380000000000
21
1019.250000000000
31
0.0
0
LINE
5
981
100
AcDbEntity
8
0-404
6
CONTINUOUS
62
4
100
AcDbLine
10
1532.790000000000
20
1028.910000000000
30
0.0
11
1530.200000000000
21
1019.250000000000
31
0.0
0
LINE
5
982
100
AcDbEntity
8
0-404
6
CONTINUOUS
62
7
100
AcDbLine
10
1428.480000000000
20
864.050000000000
30
0.0
11
1428.480000000000
21
1028.910000000000
31
0.0
0
LINE
5
983
100
AcDbEntity
8
0-404
6
CONTINUOUS
62
7
100
AcDbLine
10
1443.480000000000
20
864.050000000000
30
0.0
11
1443.480000000000
21
1028.910000000000
31
0.0
0
LINE
5
984
100
AcDbEntity
8
0-505
6
DASHED
62
7
100
AcDbLine
10
1457.980000000000
20
318.610000000000
30
0.0
11
1457.980000000000
21
498.210000000000
31
0.0
0
LINE
5
985
100
AcDbEntity
8
0-505
6
CONTINUOUS
62
4
100
AcDbLine
10
1428.480000000000
20
456.770000000000
30
0.0
11
1443.480000000000
21
471.770000000000
31
0.0
0
LINE
5
986
100
AcDbEntity
8
0-505
6
CONTINUOUS
62
4
100
AcDbLine
10
1428.480000000000
20
459.600000000000
30
0.0
11
1443.480000000000
21
474.600000000000
31
0.0
0
LINE
5
987
100
AcDbEntity
8
0-505
6
CONTINUOUS
62
4
100
AcDbLine
10
1458.980000000000
20
371.910000000000
30
0.0
11
1458.980000000000
21
498.210000000000
31
0.0
0
LINE
5
988
100
AcDbEntity
8
0-505
6
CONTINUOUS
62
3
100
AcDbLine
10
1471.480000000000
20
498.210000000000
30
0.0
11
1471.480000000000
21
128.320000000000
31
0.0
0
LINE
5
989
100
AcDbEntity
8
0-505
6
CONTINUOUS
62
7
100
AcDbLine
10
1455.780000000000
20
461.790000000000
30
0.0
11
1455.180000000000
21
461.790000000000
31
0.0
0
LINE
5
98a
100
AcDbEntity
8
0-505
6
DASHED
62
7
100
AcDbLine
10
1456.980000000000
20
475.470000000000
30
0.0
11
1454.580000000000
21
471.770000000000
31
0.0
0
LINE
5
98b
100
AcDbEntity
8
0-505
6
CONTINUOUS
62
7
100
AcDbLine
10
1455.180000000000
20
461.790000000000
30
0.0
11
1455.180000000000
21
470.910000000000
31
0.0
0
LINE
5
98c
100
AcDbEntity
8
0-505
6
CONTINUOUS
62
7
100
AcDbLine
10
1455.780000000000
20
461.790000000000
30
0.0
11
1455.780000000000
21
470.910000000000
31
0.0
0
LINE
5
98d
100
AcDbEntity
8
0-505
6
DASHED
62
7
100
AcDbLine
10
1454.580000000000
20
471.770000000000
30
0.0
11
1454.580000000000
21
461.360000000000
31
0.0
0
LINE
5
98e
100
AcDbEntity
8
0-505
6
CONTINUOUS
62
3
100
AcDbLine
10
1458.980000000000
20
264.610000000000
30
0.0
11
1458.980000000000
21
128.320000000000
31
0.0
0
LINE
5
98f
100
AcDbEntity
8
0-505
6
CONTINUOUS
62
4
100
AcDbLine
10
1396.980000000000
20
291.610000000000
30
0.0
11
1414.790000000000
21
298.740000000000
31
0.0
0
LINE
5
990
100
AcDbEntity
8
0-505
6
CONTINUOUS
62
4
100
AcDbLine
10
1438.290000000000
20
308.140000000000
30
0.0
11
1456.980000000000
21
315.610000000000
31
0.0
0
LINE
5
991
100
AcDbEntity
8
0-505
6
DASHED
62
7
100
AcDbLine
10
1455.180000000000
20
459.390000000000
30
0.0
11
1455.180000000000
21
337.620000000000
31
0.0
0
LINE
5
992
100
AcDbEntity
8
0-505
6
DASHED
62
7
100
AcDbLine
10
1454.580000000000
20
461.360000000000
30
0.0
11
1455.180000000000
21
459.390000000000
31
0.0
0
LINE
5
993
100
AcDbEntity
8
0-505
6
CONTINUOUS
62
7
100
AcDbLine
10
1456.380000000000
20
320.210000000000
30
0.0
11
1456.380000000000
21
470.910000000000
31
0.0
0
LINE
5
994
100
AcDbEntity
8
0-505
6
CONTINUOUS
62
7
100
AcDbLine
10
1456.980000000000
20
320.210000000000
30
0.0
11
1456.980000000000
21
470.910000000000
31
0.0
0
LINE
5
995
100
AcDbEntity
8
0-505
6
CONTINUOUS
62
4
100
AcDbLine
10
1428.480000000000
20
487.890000000000
30
0.0
11
1438.810000000000
21
498.210000000000
31
0.0
0
LINE
5
996
100
AcDbEntity
8
0-505
6
CONTINUOUS
62
4
100
AcDbLine
10
1428.480000000000
20
485.060000000000
30
0.0
11
1441.640000000000
21
498.210000000000
31
0.0
0
LINE
5
997
100
AcDbEntity
8
0-505
6
CONTINUOUS
62
4
100
AcDbLine
10
1465.130000000000
20
468.210000000000
30
0.0
11
1507.070000000000
21
468.210000000000
31
0.0
0
LINE
5
998
100
AcDbEntity
8
0-505
6
CONTINUOUS
62
4
100
AcDbLine
10
1507.070000000000
20
468.210000000000
30
0.0
11
1507.070000000000
21
318.210000000000
31
0.0
0
LINE
5
999
100
AcDbEntity
8
0-505
6
CONTINUOUS
62
4
100
AcDbLine
10
1465.130000000000
20
318.210000000000
30
0.0
11
1507.070000000000
21
318.210000000000
31
0.0
0
LINE
5
99a
100
AcDbEntity
8
0-505
6
DOT
62
4
100
AcDbLine
10
1463.150000000000
20
128.320000000000
30
0.0
11
1463.150000000000
21
498.210000000000
31
0.0
0
LINE
5
99b
100
AcDbEntity
8
0-505
6
DOT
62
4
100
AcDbLine
10
1467.310000000000
20
128.320000000000
30
0.0
11
1467.310000000000
21
498.210000000000
31
0.0
0
LINE
5
99c
100
AcDbEntity
8
0-505
6
CONTINUOUS
62
7
100
AcDbLine
10
1428.480000000000
20
333.210000000000
30
0.0
11
1428.480000000000
21
498.210000000000
31
0.0
0
LINE
5
99d
100
AcDbEntity
8
0-505
6
CONTINUOUS
62
7
100
AcDbLine
10
1443.480000000000
20
333.210000000000
30
0.0
11
1443.480000000000
21
498.210000000000
31
0.0
0
LINE
5
99e
100
AcDbEntity
8
0-505
6
CONTINUOUS
62
4
100
AcDbLine
10
1534.810000000000
20
290.610000000000
30
0.0
11
1534.810000000000
21
495.750000000000
31
0.0
0
LINE
5
99f
100
AcDbEntity
8
0-505
6
CONTINUOUS
62
4
100
AcDbLine
10
1492.870000000000
20
290.610000000000
30
0.0
11
1534.810000000000
21
290.610000000000
31
0.0
0
LINE
5
9a0
100
AcDbEntity
8
0-505
6
CONTINUOUS
62
4
100
AcDbLine
10
1534.810000000000
20
495.750000000000
30
0.0
11
1537.400000000000
21
486.090000000000
31
0.0
0
LINE
5
9a1
100
AcDbEntity
8
0-505
6
CONTINUOUS
62
4
100
AcDbLine
10
1534.810000000000
20
495.750000000000
30
0.0
11
1532.220000000000
21
486.090000000000
31
0.0
0
LINE
5
9a2
100
AcDbEntity
8
0-404
6
CONTINUOUS
62
4
100
AcDbLine
10
1428.480000000000
20
1014.350000000000
30
0.0
11
1443.030000000000
21
1028.910000000000
31
0.0
0
LINE
5
9a3
100
AcDbEntity
8
0-404
6
CONTINUOUS
62
4
100
AcDbLine
10
1428.480000000000
20
1017.180000000000
30
0.0
11
1440.210000000000
21
1028.910000000000
31
0.0
0
LINE
5
9a4
100
AcDbEntity
8
0-202
6
CONTINUOUS
62
4
100
AcDbLine
10
737.360000000000
20
868.560000000000
30
0.0
11
734.230000000000
21
884.260000000000
31
0.0
0
LINE
5
9a5
100
AcDbEntity
8
0-202
6
CONTINUOUS
62
4
100
AcDbLine
10
737.360000000000
20
868.560000000000
30
0.0
11
725.590000000000
21
866.210000000000
31
0.0
0
LINE
5
9a6
100
AcDbEntity
8
0-202
6
CONTINUOUS
62
4
100
AcDbLine
10
723.440000000000
20
882.100000000000
30
0.0
11
734.230000000000
21
884.260000000000
31
0.0
0
LINE
5
9a7
100
AcDbEntity
8
0-202
6
CONTINUOUS
62
4
100
AcDbLine
10
727.450000000000
20
856.890000000000
30
0.0
11
722.650000000000
21
880.920000000000
31
0.0
0
LINE
5
9a8
100
AcDbEntity
8
0-202
6
CONTINUOUS
62
4
100
AcDbLine
10
729.270000000000
20
855.670000000000
30
0.0
11
744.420000000000
21
858.700000000000
31
0.0
0
LINE
5
9a9
100
AcDbEntity
8
0-202
6
CONTINUOUS
62
4
100
AcDbLine
10
744.420000000000
20
858.700000000000
30
0.0
11
744.350000000000
21
859.040000000000
31
0.0
0
LINE
5
9aa
100
AcDbEntity
8
0-202
6
CONTINUOUS
62
4
100
AcDbLine
10
729.200000000000
20
856.010000000000
30
0.0
11
744.350000000000
21
859.040000000000
31
0.0
0
LINE
5
9ab
100
AcDbEntity
8
0-202
6
CONTINUOUS
62
4
100
AcDbLine
10
737.560000000000
20
857.330000000000
30
0.0
11
737.490000000000
21
857.670000000000
31
0.0
0
LINE
5
9ac
100
AcDbEntity
8
0-202
6
CONTINUOUS
62
4
100
AcDbLine
10
727.790000000000
20
856.960000000000
30
0.0
11
725.930000000000
21
866.280000000000
31
0.0
0
LINE
5
9ad
100
AcDbEntity
8
0-202
6
CONTINUOUS
62
7
100
AcDbLine
10
727.600000000000
20
860.470000000000
30
0.0
11
726.420000000000
21
866.380000000000
31
0.0
0
LINE
5
9ae
100
AcDbEntity
8
0-202
6
CONTINUOUS
62
7
100
AcDbLine
10
940.590000000000
20
924.660000000000
30
0.0
11
734.390000000000
21
883.420000000000
31
0.0
0
LINE
5
9af
100
AcDbEntity
8
0-202
6
DOT
62
7
100
AcDbLine
10
734.390000000000
20
883.420000000000
30
0.0
11
723.460000000000
21
881.240000000000
31
0.0
0
LINE
5
9b0
100
AcDbEntity
8
0-202
6
DOT
62
7
100
AcDbLine
10
726.420000000000
20
866.380000000000
30
0.0
11
723.460000000000
21
881.240000000000
31
0.0
0
LINE
5
9b1
100
AcDbEntity
8
0-202
6
CONTINUOUS
62
7
100
AcDbLine
10
943.200000000000
20
911.620000000000
30
0.0
11
736.990000000000
21
870.380000000000
31
0.0
0
LINE
5
9b2
100
AcDbEntity
8
0-202
6
DOT
62
7
100
AcDbLine
10
736.990000000000
20
870.380000000000
30
0.0
11
726.060000000000
21
868.190000000000
31
0.0
0
LINE
5
9b3
100
AcDbEntity
8
0-202
6
CONTINUOUS
62
7
100
AcDbLine
10
723.550000000000
20
876.430000000000
30
0.0
11
719.550000000000
21
877.510000000000
31
0.0
0
LINE
5
9b4
100
AcDbEntity
8
0-202
6
CONTINUOUS
62
7
100
AcDbLine
10
723.550000000000
20
876.430000000000
30
0.0
11
719.550000000000
21
875.360000000000
31
0.0
0
LINE
5
9b5
100
AcDbEntity
8
0-202
6
CONTINUOUS
62
7
100
AcDbLine
10
698.560000000000
20
876.430000000000
30
0.0
11
693.610000000000
21
885.020000000000
31
0.0
0
LINE
5
9b6
100
AcDbEntity
8
0-202
6
CONTINUOUS
62
7
100
AcDbLine
10
723.550000000000
20
876.430000000000
30
0.0
11
698.560000000000
21
876.430000000000
31
0.0
0
LINE
5
9b7
100
AcDbEntity
8
0-202
6
CONTINUOUS
62
7
100
AcDbLine
10
758.320000000000
20
888.210000000000
30
0.0
11
767.840000000000
21
916.350000000000
31
0.0
0
ARC
5
9b8
100
AcDbEntity
8
0-303
6
CONTINUOUS
62
3
100
AcDbCircle
10
826.730000000000
20
369.650000000000
30
0.0
40
2.299999732846
100
AcDbArc
50
90.000000000000
51
180.000000000000
0
ARC
5
9b9
100
AcDbEntity
8
0-303
6
CONTINUOUS
62
3
100
AcDbCircle
10
826.730000000000
20
369.650000000000
30
0.0
40
2.299999732846
100
AcDbArc
50
90.000000000000
51
180.000000000000
0
ARC
5
9ba
100
AcDbEntity
8
0-303
6
CONTINUOUS
62
3
100
AcDbCircle
10
872.130000000000
20
369.650000000000
30
0.0
40
2.299999732846
100
AcDbArc
50
360.000000000000
51
450.000000000000
0
ARC
5
9bb
100
AcDbEntity
8
0-303
6
CONTINUOUS
62
3
100
AcDbCircle
10
872.130000000000
20
274.250000000000
30
0.0
40
2.299999732846
100
AcDbArc
50
270.000000000000
51
360.000000000000
0
ARC
5
9bc
100
AcDbEntity
8
0-303
6
CONTINUOUS
62
3
100
AcDbCircle
10
826.730000000000
20
274.250000000000
30
0.0
40
2.299999732846
100
AcDbArc
50
180.000000000000
51
270.000000000000
0
ARC
5
9bd
100
AcDbEntity
8
0-303
6
CONTINUOUS
62
7
100
AcDbCircle
10
737.280000000000
20
396.910000000000
30
0.0
40
2.258799955813
100
AcDbArc
50
90.098495483398
51
270.098495483398
0
ARC
5
9be
100
AcDbEntity
8
0-303
6
CONTINUOUS
62
7
100
AcDbCircle
10
737.280000000000
20
396.910000000000
30
0.0
40
2.859999639189
100
AcDbArc
50
90.072433471680
51
270.072433471680
0
ARC
5
9bf
100
AcDbEntity
8
0-303
6
CONTINUOUS
62
7
100
AcDbCircle
10
754.930000000000
20
356.440000000000
30
0.0
40
1.499999880466
100
AcDbArc
50
276.460876464844
51
359.993194580078
0
ARC
5
9c0
100
AcDbEntity
8
0-303
6
CONTINUOUS
62
7
100
AcDbCircle
10
754.930000000000
20
356.440000000000
30
0.0
40
0.899999870217
100
AcDbArc
50
179.992706298828
51
359.992706298828
0
ARC
5
9c1
100
AcDbEntity
8
0-303
6
CONTINUOUS
62
7
100
AcDbCircle
10
754.930000000000
20
356.440000000000
30
0.0
40
1.499999880466
100
AcDbArc
50
184.437149047852
51
276.460876464844
0
ARC
5
9c2
100
AcDbEntity
8
0-303
6
CONTINUOUS
62
7
100
AcDbCircle
10
755.230000000000
20
370.950000000000
30
0.0
40
0.599999913478
100
AcDbArc
50
89.999984741211
51
179.997756958008
0
ARC
5
9c3
100
AcDbEntity
8
0-303
6
CONTINUOUS
62
7
100
AcDbCircle
10
753.430000000000
20
395.190000000000
30
0.0
40
0.599999913478
100
AcDbArc
50
360.000000000000
51
450.000152587891
0
ARC
5
9c4
100
AcDbEntity
8
0-303
6
CONTINUOUS
62
7
100
AcDbCircle
10
737.290000000000
20
396.690000000000
30
0.0
40
1.499999880466
100
AcDbArc
50
89.999877929688
51
269.999877929688
0
ARC
5
9c5
100
AcDbEntity
8
0-303
6
CONTINUOUS
62
7
100
AcDbCircle
10
737.290000000000
20
396.690000000000
30
0.0
40
0.899999870217
100
AcDbArc
50
89.999755859375
51
269.999755859375
0
ARC
5
9c6
100
AcDbEntity
8
0-303
6
CONTINUOUS
62
7
100
AcDbCircle
10
818.540000000000
20
397.850000000000
30
0.0
40
0.896399979894
100
AcDbArc
50
269.814971923828
51
449.814971923828
0
ARC
5
9c7
100
AcDbEntity
8
0-303
6
CONTINUOUS
62
7
100
AcDbCircle
10
818.540000000000
20
397.850000000000
30
0.0
40
0.299999956739
100
AcDbArc
50
270.000000000000
51
450.000000000000
0
ARC
5
9c8
100
AcDbEntity
8
0-303
6
CONTINUOUS
62
7
100
AcDbCircle
10
794.950000000000
20
-1125.300000000000
30
0.0
40
1525.977535203871
100
AcDbArc
50
89.660446166992
51
91.978622436523
0
ARC
5
9c9
100
AcDbEntity
8
0-303
6
CONTINUOUS
62
7
100
AcDbCircle
10
794.950000000000
20
-1125.300000000000
30
0.0
40
1525.377522516588
100
AcDbArc
50
89.660308837891
51
91.978637695313
0
ARC
5
9ca
100
AcDbEntity
8
0-303
6
CONTINUOUS
62
7
100
AcDbCircle
10
802.230000000000
20
370.950000000000
30
0.0
40
0.599999913478
100
AcDbArc
50
360.000000000000
51
450.000000000000
0
ARC
5
9cb
100
AcDbEntity
8
0-303
6
CONTINUOUS
62
7
100
AcDbCircle
10
803.130000000000
20
321.950000000000
30
0.0
40
0.299999956739
100
AcDbArc
50
179.990539550781
51
359.990539550781
0
ARC
5
9cc
100
AcDbEntity
8
0-303
6
CONTINUOUS
62
7
100
AcDbCircle
10
803.130000000000
20
321.950000000000
30
0.0
40
0.899999870217
100
AcDbArc
50
180.000000000000
51
360.000000000000
0
ARC
5
9cd
100
AcDbEntity
8
0-202
6
CONTINUOUS
62
3
100
AcDbCircle
10
822.210000000000
20
848.670000000000
30
0.0
40
2.299999732846
100
AcDbArc
50
101.309921264648
51
191.309921264648
0
ARC
5
9ce
100
AcDbEntity
8
0-202
6
CONTINUOUS
62
3
100
AcDbCircle
10
866.720000000000
20
857.570000000000
30
0.0
40
2.299999732846
100
AcDbArc
50
11.309921264648
51
101.309921264648
0
ARC
5
9cf
100
AcDbEntity
8
0-202
6
CONTINUOUS
62
3
100
AcDbCircle
10
885.430000000000
20
764.030000000000
30
0.0
40
2.299999732846
100
AcDbArc
50
281.309921264648
51
371.309921264648
0
ARC
5
9d0
100
AcDbEntity
8
0-202
6
CONTINUOUS
62
3
100
AcDbCircle
10
840.920000000000
20
755.120000000000
30
0.0
40
2.299999732846
100
AcDbArc
50
191.309921264648
51
281.309921264648
0
ARC
5
9d1
100
AcDbEntity
8
0-202
6
CONTINUOUS
62
7
100
AcDbCircle
10
729.150000000000
20
857.860000000000
30
0.0
40
2.258799955813
100
AcDbArc
50
101.408416748047
51
281.408416748047
0
ARC
5
9d2
100
AcDbEntity
8
0-202
6
CONTINUOUS
62
7
100
AcDbCircle
10
729.150000000000
20
857.860000000000
30
0.0
40
2.859999639189
100
AcDbArc
50
101.382354736328
51
281.382354736328
0
ARC
5
9d3
100
AcDbEntity
8
0-202
6
CONTINUOUS
62
7
100
AcDbCircle
10
754.390000000000
20
821.630000000000
30
0.0
40
1.499999880466
100
AcDbArc
50
287.770797729492
51
371.303115844727
0
ARC
5
9d4
100
AcDbEntity
8
0-202
6
CONTINUOUS
62
7
100
AcDbCircle
10
754.390000000000
20
821.630000000000
30
0.0
40
0.899999870217
100
AcDbArc
50
191.302627563477
51
371.302627563477
0
ARC
5
9d5
100
AcDbEntity
8
0-202
6
CONTINUOUS
62
7
100
AcDbCircle
10
754.390000000000
20
821.630000000000
30
0.0
40
1.499999880466
100
AcDbArc
50
195.747070312500
51
287.770797729492
0
ARC
5
9d6
100
AcDbEntity
8
0-202
6
CONTINUOUS
62
7
100
AcDbCircle
10
751.830000000000
20
835.920000000000
30
0.0
40
0.599999913478
100
AcDbArc
50
101.309906005859
51
191.307678222656
0
ARC
5
9d7
100
AcDbEntity
8
0-202
6
CONTINUOUS
62
7
100
AcDbCircle
10
745.320000000000
20
859.330000000000
30
0.0
40
0.599999913478
100
AcDbArc
50
11.309921264648
51
101.310073852539
0
ARC
5
9d8
100
AcDbEntity
8
0-202
6
CONTINUOUS
62
7
100
AcDbCircle
10
729.190000000000
20
857.630000000000
30
0.0
40
1.499999880466
100
AcDbArc
50
101.309799194336
51
281.309799194336
0
ARC
5
9d9
100
AcDbEntity
8
0-202
6
CONTINUOUS
62
7
100
AcDbCircle
10
729.190000000000
20
857.630000000000
30
0.0
40
0.899999870217
100
AcDbArc
50
101.309677124023
51
281.309677124023
0
ARC
5
9da
100
AcDbEntity
8
0-202
6
CONTINUOUS
62
7
100
AcDbCircle
10
808.640000000000
20
874.710000000000
30
0.0
40
0.896399979894
100
AcDbArc
50
281.124893188477
51
461.124893188477
0
ARC
5
9db
100
AcDbEntity
8
0-202
6
CONTINUOUS
62
7
100
AcDbCircle
10
808.640000000000
20
874.710000000000
30
0.0
40
0.299999956739
100
AcDbArc
50
281.309921264648
51
461.309921264648
0
ARC
5
9dc
100
AcDbEntity
8
0-202
6
CONTINUOUS
62
7
100
AcDbCircle
10
1084.220000000000
20
-623.490000000000
30
0.0
40
1525.977535203871
100
AcDbArc
50
100.970367431641
51
103.288543701172
0
ARC
5
9dd
100
AcDbEntity
8
0-202
6
CONTINUOUS
62
7
100
AcDbCircle
10
1084.220000000000
20
-623.490000000000
30
0.0
40
1525.377522516588
100
AcDbArc
50
100.970230102539
51
103.288558959961
0
ARC
5
9de
100
AcDbEntity
8
0-202
6
CONTINUOUS
62
7
100
AcDbCircle
10
797.930000000000
20
845.140000000000
30
0.0
40
0.599999913478
100
AcDbArc
50
11.309921264648
51
101.309921264648
0
ARC
5
9df
100
AcDbEntity
8
0-202
6
CONTINUOUS
62
7
100
AcDbCircle
10
808.420000000000
20
797.270000000000
30
0.0
40
0.299999956739
100
AcDbArc
50
191.300460815430
51
371.300460815430
0
ARC
5
9e0
100
AcDbEntity
8
0-202
6
CONTINUOUS
62
7
100
AcDbCircle
10
808.420000000000
20
797.270000000000
30
0.0
40
0.899999870217
100
AcDbArc
50
191.309921264648
51
371.309921264648
0
ARC
5
9e1
100
AcDbEntity
8
0-404
6
CONTINUOUS
62
3
100
AcDbCircle
10
1304.320000000000
20
764.980000000000
30
0.0
40
2.299999732846
100
AcDbArc
50
101.309921264648
51
191.309921264648
0
ARC
5
9e2
100
AcDbEntity
8
0-404
6
CONTINUOUS
62
3
100
AcDbCircle
10
1348.840000000000
20
773.880000000000
30
0.0
40
2.299999732846
100
AcDbArc
50
11.309921264648
51
101.309921264648
0
ARC
5
9e3
100
AcDbEntity
8
0-404
6
CONTINUOUS
62
3
100
AcDbCircle
10
1367.550000000000
20
680.330000000000
30
0.0
40
2.299999732846
100
AcDbArc
50
281.309921264648
51
371.309921264648
0
ARC
5
9e4
100
AcDbEntity
8
0-404
6
CONTINUOUS
62
3
100
AcDbCircle
10
1323.030000000000
20
671.430000000000
30
0.0
40
2.299999732846
100
AcDbArc
50
191.309921264648
51
281.309921264648
0
ARC
5
9e5
100
AcDbEntity
8
0-404
6
CONTINUOUS
62
7
100
AcDbCircle
10
1293.890000000000
20
817.960000000000
30
0.0
40
0.899999870217
100
AcDbArc
50
101.310867309570
51
281.310867309570
0
ARC
5
9e6
100
AcDbEntity
8
0-404
6
CONTINUOUS
62
7
100
AcDbCircle
10
1293.890000000000
20
817.960000000000
30
0.0
40
0.299999956739
100
AcDbArc
50
101.310867309570
51
281.310867309570
0
ARC
5
9e7
100
AcDbEntity
8
0-404
6
CONTINUOUS
62
7
100
AcDbCircle
10
1293.890000000000
20
817.960000000000
30
0.0
40
2.099999890715
100
AcDbArc
50
101.309265136719
51
281.309265136719
0
ARC
5
9e8
100
AcDbEntity
8
0-404
6
CONTINUOUS
62
7
100
AcDbCircle
10
1293.890000000000
20
817.960000000000
30
0.0
40
1.499999880466
100
AcDbArc
50
101.309555053711
51
281.309555053711
0
ARC
5
9e9
100
AcDbEntity
8
0-404
6
CONTINUOUS
62
7
100
AcDbCircle
10
1313.680000000000
20
821.000000000000
30
0.0
40
0.599999913478
100
AcDbArc
50
11.314559936523
51
101.308990478516
0
ARC
5
9ea
100
AcDbEntity
8
0-404
6
CONTINUOUS
62
7
100
AcDbCircle
10
1343.150000000000
20
826.590000000000
30
0.0
40
0.899999870217
100
AcDbArc
50
281.310867309570
51
461.310867309570
0
ARC
5
9eb
100
AcDbEntity
8
0-404
6
CONTINUOUS
62
7
100
AcDbCircle
10
1343.150000000000
20
826.590000000000
30
0.0
40
0.299999956739
100
AcDbArc
50
281.312713623047
51
461.312713623047
0
ARC
5
9ec
100
AcDbEntity
8
0-404
6
CONTINUOUS
62
7
100
AcDbCircle
10
1323.560000000000
20
822.970000000000
30
0.0
40
0.599999913478
100
AcDbArc
50
266.989196777344
51
281.310867309570
0
ARC
5
9ed
100
AcDbEntity
8
0-404
6
CONTINUOUS
62
7
100
AcDbCircle
10
1314.070000000000
20
821.690000000000
30
0.0
40
0.599999913478
100
AcDbArc
50
86.989196777344
51
101.310867309570
0
ARC
5
9ee
100
AcDbEntity
8
0-404
6
CONTINUOUS
62
7
100
AcDbCircle
10
1323.680000000000
20
822.390000000000
30
0.0
40
0.599999913478
100
AcDbArc
50
266.989196777344
51
281.310867309570
0
ARC
5
9ef
100
AcDbEntity
8
0-404
6
CONTINUOUS
62
7
100
AcDbCircle
10
1313.960000000000
20
822.280000000000
30
0.0
40
0.599999913478
100
AcDbArc
50
86.989196777344
51
101.310867309570
0
ARC
5
9f0
100
AcDbEntity
8
0-404
6
CONTINUOUS
62
4
100
AcDbCircle
10
1331.600000000000
20
820.820000000000
30
0.0
40
4.613399573563
100
AcDbArc
50
71.269683837891
51
131.349884033203
0
ARC
5
9f1
100
AcDbEntity
8
0-404
6
DASHED
62
7
100
AcDbCircle
10
1452.980000000000
20
828.670000000000
30
0.0
40
4.999999924124
100
AcDbArc
50
281.310379028320
51
360.000000000000
0
ARC
5
9f2
100
AcDbEntity
8
0-404
6
CONTINUOUS
62
7
100
AcDbCircle
10
1454.380000000000
20
851.020000000000
30
0.0
40
1.999999969650
100
AcDbArc
50
280.049911499023
51
360.000000000000
0
ARC
5
9f3
100
AcDbEntity
8
0-404
6
CONTINUOUS
62
7
100
AcDbCircle
10
1454.380000000000
20
851.020000000000
30
0.0
40
2.599999883128
100
AcDbArc
50
322.416275024414
51
360.000000000000
0
ARC
5
9f4
100
AcDbEntity
8
0-404
6
CONTINUOUS
62
7
100
AcDbCircle
10
1454.380000000000
20
851.020000000000
30
0.0
40
2.599999883128
100
AcDbArc
50
280.049911499023
51
322.416275024414
0
ARC
5
9f5
100
AcDbEntity
8
0-404
6
CONTINUOUS
62
3
100
AcDbCircle
10
1569.180000000000
20
946.610000000000
30
0.0
40
2.299999732846
100
AcDbArc
50
360.000000000000
51
450.000000000000
0
ARC
5
9f6
100
AcDbEntity
8
0-404
6
CONTINUOUS
62
3
100
AcDbCircle
10
1569.180000000000
20
901.210000000000
30
0.0
40
2.299999732846
100
AcDbArc
50
270.000000000000
51
360.000000000000
0
ARC
5
9f7
100
AcDbEntity
8
0-404
6
CONTINUOUS
62
3
100
AcDbCircle
10
1473.780000000000
20
901.210000000000
30
0.0
40
2.299999732846
100
AcDbArc
50
180.000000000000
51
270.000000000000
0
ARC
5
9f8
100
AcDbEntity
8
0-404
6
CONTINUOUS
62
3
100
AcDbCircle
10
1473.780000000000
20
946.610000000000
30
0.0
40
2.299999732846
100
AcDbArc
50
90.000000000000
51
180.000000000000
0
ARC
5
9f9
100
AcDbEntity
8
0-404
6
CONTINUOUS
62
7
100
AcDbCircle
10
1456.080000000000
20
1001.610000000000
30
0.0
40
0.299999956739
100
AcDbArc
50
360.000000000000
51
540.000000000000
0
ARC
5
9fa
100
AcDbEntity
8
0-404
6
CONTINUOUS
62
7
100
AcDbCircle
10
1456.080000000000
20
1001.610000000000
30
0.0
40
0.899999870217
100
AcDbArc
50
360.000000000000
51
540.000000000000
0
ARC
5
9fb
100
AcDbEntity
8
0-101
6
CONTINUOUS
62
3
100
AcDbCircle
10
208.350000000000
20
295.270000000000
30
0.0
40
2.299999732846
100
AcDbArc
50
101.309921264648
51
191.309921264648
0
ARC
5
9fc
100
AcDbEntity
8
0-101
6
CONTINUOUS
62
3
100
AcDbCircle
10
252.870000000000
20
304.170000000000
30
0.0
40
2.299999732846
100
AcDbArc
50
11.309921264648
51
101.309921264648
0
ARC
5
9fd
100
AcDbEntity
8
0-101
6
CONTINUOUS
62
3
100
AcDbCircle
10
271.580000000000
20
210.630000000000
30
0.0
40
2.299999732846
100
AcDbArc
50
281.309921264648
51
371.309921264648
0
ARC
5
9fe
100
AcDbEntity
8
0-101
6
CONTINUOUS
62
3
100
AcDbCircle
10
227.060000000000
20
201.720000000000
30
0.0
40
2.299999732846
100
AcDbArc
50
191.309921264648
51
281.309921264648
0
ARC
5
9ff
100
AcDbEntity
8
0-101
6
CONTINUOUS
62
7
100
AcDbCircle
10
180.270000000000
20
344.720000000000
30
0.0
40
0.899999870217
100
AcDbArc
50
101.310867309570
51
281.310867309570
0
ARC
5
a00
100
AcDbEntity
8
0-101
6
CONTINUOUS
62
7
100
AcDbCircle
10
180.270000000000
20
344.720000000000
30
0.0
40
0.299999956739
100
AcDbArc
50
101.310867309570
51
281.310867309570
0
ARC
5
a01
100
AcDbEntity
8
0-101
6
CONTINUOUS
62
7
100
AcDbCircle
10
180.270000000000
20
344.720000000000
30
0.0
40
2.099999890715
100
AcDbArc
50
101.309265136719
51
281.309265136719
0
ARC
5
a02
100
AcDbEntity
8
0-101
6
CONTINUOUS
62
7
100
AcDbCircle
10
180.270000000000
20
344.720000000000
30
0.0
40
1.499999880466
100
AcDbArc
50
101.309555053711
51
281.309555053711
0
ARC
5
a03
100
AcDbEntity
8
0-101
6
CONTINUOUS
62
7
100
AcDbCircle
10
204.690000000000
20
330.740000000000
30
0.0
40
0.599999913478
100
AcDbArc
50
191.305282592773
51
348.307754516602
0
ARC
5
a04
100
AcDbEntity
8
0-101
6
CONTINUOUS
62
7
100
AcDbCircle
10
204.690000000000
20
330.740000000000
30
0.0
40
1.199999826956
100
AcDbArc
50
191.305282592773
51
348.307754516602
0
ARC
5
a05
100
AcDbEntity
8
0-101
6
CONTINUOUS
62
7
100
AcDbCircle
10
200.060000000000
20
347.760000000000
30
0.0
40
0.599999913478
100
AcDbArc
50
11.314559936523
51
101.308990478516
0
ARC
5
a06
100
AcDbEntity
8
0-101
6
CONTINUOUS
62
7
100
AcDbCircle
10
229.530000000000
20
353.350000000000
30
0.0
40
0.899999870217
100
AcDbArc
50
281.310867309570
51
461.310867309570
0
ARC
5
a07
100
AcDbEntity
8
0-101
6
CONTINUOUS
62
7
100
AcDbCircle
10
229.530000000000
20
353.350000000000
30
0.0
40
0.299999956739
100
AcDbArc
50
281.312713623047
51
461.312713623047
0
ARC
5
a08
100
AcDbEntity
8
0-101
6
CONTINUOUS
62
7
100
AcDbCircle
10
209.940000000000
20
349.740000000000
30
0.0
40
0.599999913478
100
AcDbArc
50
266.989196777344
51
281.310867309570
0
ARC
5
a09
100
AcDbEntity
8
0-101
6
CONTINUOUS
62
7
100
AcDbCircle
10
200.450000000000
20
348.450000000000
30
0.0
40
0.599999913478
100
AcDbArc
50
86.989196777344
51
101.310867309570
0
ARC
5
a0a
100
AcDbEntity
8
0-101
6
CONTINUOUS
62
7
100
AcDbCircle
10
210.050000000000
20
349.150000000000
30
0.0
40
0.599999913478
100
AcDbArc
50
266.989196777344
51
281.310867309570
0
ARC
5
a0b
100
AcDbEntity
8
0-101
6
CONTINUOUS
62
7
100
AcDbCircle
10
200.340000000000
20
349.040000000000
30
0.0
40
0.599999913478
100
AcDbArc
50
86.989196777344
51
101.310867309570
0
ARC
5
a0c
100
AcDbEntity
8
0-101
6
CONTINUOUS
62
4
100
AcDbCircle
10
217.980000000000
20
347.580000000000
30
0.0
40
4.613399573563
100
AcDbArc
50
71.269683837891
51
131.349884033203
0
ARC
5
a0d
100
AcDbEntity
8
0-101
6
CONTINUOUS
62
7
100
AcDbCircle
10
323.000000000000
20
351.950000000000
30
0.0
40
1.999999969650
100
AcDbArc
50
281.309371948242
51
371.309371948242
0
ARC
5
a0e
100
AcDbEntity
8
0-101
6
CONTINUOUS
62
7
100
AcDbCircle
10
323.000000000000
20
351.950000000000
30
0.0
40
1.399999959401
100
AcDbArc
50
281.309371948242
51
371.309371948242
0
ARC
5
a0f
100
AcDbEntity
8
0-101
6
CONTINUOUS
62
7
100
AcDbCircle
10
319.810000000000
20
367.880000000000
30
0.0
40
1.399999959401
100
AcDbArc
50
11.309097290039
51
44.358596801758
0
ARC
5
a10
100
AcDbEntity
8
0-101
6
CONTINUOUS
62
7
100
AcDbCircle
10
319.810000000000
20
367.880000000000
30
0.0
40
1.999999969650
100
AcDbArc
50
11.309097290039
51
89.771469116211
0
ARC
5
a11
100
AcDbEntity
8
0-101
6
DOT
62
7
100
AcDbCircle
10
319.810000000000
20
367.880000000000
30
0.0
40
1.999999969650
100
AcDbArc
50
90.589843750000
51
101.309936523438
0
ARC
5
a12
100
AcDbEntity
8
0-101
6
CONTINUOUS
62
7
100
AcDbCircle
10
319.810000000000
20
367.880000000000
30
0.0
40
1.399999959401
100
AcDbArc
50
44.358596801758
51
84.706253051758
0
ARC
5
a13
100
AcDbEntity
8
0-101
6
DOT
62
7
100
AcDbCircle
10
319.810000000000
20
367.880000000000
30
0.0
40
1.399999959401
100
AcDbArc
50
86.238861083984
51
101.309936523438
0
ARC
5
a14
100
AcDbEntity
8
0-101
6
CONTINUOUS
62
3
100
AcDbCircle
10
448.080000000000
20
295.270000000000
30
0.0
40
2.299999732846
100
AcDbArc
50
348.690063476563
51
438.690063476563
0
ARC
5
a15
100
AcDbEntity
8
0-101
6
CONTINUOUS
62
3
100
AcDbCircle
10
403.560000000000
20
304.170000000000
30
0.0
40
2.299999732846
100
AcDbArc
50
78.690063476563
51
168.690063476563
0
ARC
5
a16
100
AcDbEntity
8
0-101
6
CONTINUOUS
62
3
100
AcDbCircle
10
384.850000000000
20
210.630000000000
30
0.0
40
2.299999732846
100
AcDbArc
50
168.690063476563
51
258.690063476563
0
ARC
5
a17
100
AcDbEntity
8
0-101
6
CONTINUOUS
62
3
100
AcDbCircle
10
429.370000000000
20
201.720000000000
30
0.0
40
2.299999732846
100
AcDbArc
50
258.690063476563
51
348.690063476563
0
ARC
5
a18
100
AcDbEntity
8
0-101
6
CONTINUOUS
62
7
100
AcDbCircle
10
476.160000000000
20
344.720000000000
30
0.0
40
0.899999870217
100
AcDbArc
50
258.689132690430
51
438.689132690430
0
ARC
5
a19
100
AcDbEntity
8
0-101
6
CONTINUOUS
62
7
100
AcDbCircle
10
476.160000000000
20
344.720000000000
30
0.0
40
0.299999956739
100
AcDbArc
50
258.689132690430
51
438.689132690430
0
ARC
5
a1a
100
AcDbEntity
8
0-101
6
CONTINUOUS
62
7
100
AcDbCircle
10
476.160000000000
20
344.720000000000
30
0.0
40
2.099999890715
100
AcDbArc
50
258.690734863281
51
438.690734863281
0
ARC
5
a1b
100
AcDbEntity
8
0-101
6
CONTINUOUS
62
7
100
AcDbCircle
10
476.160000000000
20
344.720000000000
30
0.0
40
1.499999880466
100
AcDbArc
50
258.690444946289
51
438.690444946289
0
ARC
5
a1c
100
AcDbEntity
8
0-101
6
CONTINUOUS
62
7
100
AcDbCircle
10
456.380000000000
20
347.760000000000
30
0.0
40
0.599999913478
100
AcDbArc
50
78.690994262695
51
168.685424804688
0
ARC
5
a1d
100
AcDbEntity
8
0-101
6
CONTINUOUS
62
7
100
AcDbCircle
10
426.900000000000
20
353.350000000000
30
0.0
40
0.899999870217
100
AcDbArc
50
78.689132690430
51
258.689132690430
0
ARC
5
a1e
100
AcDbEntity
8
0-101
6
CONTINUOUS
62
7
100
AcDbCircle
10
426.900000000000
20
353.350000000000
30
0.0
40
0.299999956739
100
AcDbArc
50
78.687286376953
51
258.687286376953
0
ARC
5
a1f
100
AcDbEntity
8
0-101
6
CONTINUOUS
62
7
100
AcDbCircle
10
446.500000000000
20
349.740000000000
30
0.0
40
0.599999913478
100
AcDbArc
50
258.689132690430
51
273.010803222656
0
ARC
5
a20
100
AcDbEntity
8
0-101
6
CONTINUOUS
62
7
100
AcDbCircle
10
455.980000000000
20
348.450000000000
30
0.0
40
0.599999913478
100
AcDbArc
50
78.689132690430
51
93.010803222656
0
ARC
5
a21
100
AcDbEntity
8
0-101
6
CONTINUOUS
62
7
100
AcDbCircle
10
446.380000000000
20
349.150000000000
30
0.0
40
0.599999913478
100
AcDbArc
50
258.689132690430
51
273.010803222656
0
ARC
5
a22
100
AcDbEntity
8
0-101
6
CONTINUOUS
62
7
100
AcDbCircle
10
456.100000000000
20
349.040000000000
30
0.0
40
0.599999913478
100
AcDbArc
50
78.689132690430
51
93.010803222656
0
ARC
5
a23
100
AcDbEntity
8
0-101
6
CONTINUOUS
62
4
100
AcDbCircle
10
438.450000000000
20
347.580000000000
30
0.0
40
4.613399573563
100
AcDbArc
50
48.650451660156
51
108.730651855469
0
ARC
5
a24
100
AcDbEntity
8
0-101
6
CONTINUOUS
62
7
100
AcDbCircle
10
328.220000000000
20
371.290000000000
30
0.0
40
1.999999969650
100
AcDbArc
50
79.777420043945
51
100.222579956055
0
ARC
5
a25
100
AcDbEntity
8
0-101
6
CONTINUOUS
62
7
100
AcDbCircle
10
328.220000000000
20
371.900000000000
30
0.0
40
1.999999969650
100
AcDbArc
50
79.777420043945
51
100.222579956055
0
ARC
5
a26
100
AcDbEntity
8
0-101
6
DASHED
62
7
100
AcDbCircle
10
328.220000000000
20
343.000000000000
30
0.0
40
4.999999924124
100
AcDbArc
50
78.690734863281
51
101.309265136719
0
ARC
5
a27
100
AcDbEntity
8
0-505
6
CONTINUOUS
62
3
100
AcDbCircle
10
1569.180000000000
20
417.310000000000
30
0.0
40
2.299999732846
100
AcDbArc
50
360.000000000000
51
450.000000000000
0
ARC
5
a28
100
AcDbEntity
8
0-505
6
CONTINUOUS
62
3
100
AcDbCircle
10
1569.180000000000
20
371.910000000000
30
0.0
40
2.299999732846
100
AcDbArc
50
270.000000000000
51
360.000000000000
0
ARC
5
a29
100
AcDbEntity
8
0-505
6
CONTINUOUS
62
3
100
AcDbCircle
10
1473.780000000000
20
371.910000000000
30
0.0
40
2.299999732846
100
AcDbArc
50
180.000000000000
51
270.000000000000
0
ARC
5
a2a
100
AcDbEntity
8
0-505
6
CONTINUOUS
62
3
100
AcDbCircle
10
1473.780000000000
20
417.310000000000
30
0.0
40
2.299999732846
100
AcDbArc
50
90.000000000000
51
180.000000000000
0
ARC
5
a2b
100
AcDbEntity
8
0-505
6
CONTINUOUS
62
7
100
AcDbCircle
10
1454.380000000000
20
320.210000000000
30
0.0
40
1.999999969650
100
AcDbArc
50
270.000000000000
51
360.000000000000
0
ARC
5
a2c
100
AcDbEntity
8
0-505
6
CONTINUOUS
62
7
100
AcDbCircle
10
1454.380000000000
20
320.210000000000
30
0.0
40
2.599999883128
100
AcDbArc
50
270.000000000000
51
360.000000000000
0
ARC
5
a2d
100
AcDbEntity
8
0-505
6
DASHED
62
7
100
AcDbCircle
10
1397.980000000000
20
314.610000000000
30
0.0
40
1.999999969650
100
AcDbArc
50
90.000000000000
51
180.000000000000
0
ARC
5
a2e
100
AcDbEntity
8
0-505
6
DASHED
62
7
100
AcDbCircle
10
1393.980000000000
20
292.610000000000
30
0.0
40
1.999999969650
100
AcDbArc
50
270.000000000000
51
360.000000000000
0
ARC
5
a2f
100
AcDbEntity
8
0-505
6
DASHED
62
7
100
AcDbCircle
10
1455.980000000000
20
292.610000000000
30
0.0
40
1.999999969650
100
AcDbArc
50
270.000000000000
51
360.000000000000
0
ARC
5
a30
100
AcDbEntity
8
0-505
6
DASHED
62
7
100
AcDbCircle
10
1455.980000000000
20
318.610000000000
30
0.0
40
1.999999969650
100
AcDbArc
50
270.000000000000
51
360.000000000000
0
ARC
5
a31
100
AcDbEntity
8
0-505
6
CONTINUOUS
62
7
100
AcDbCircle
10
1378.480000000000
20
316.710000000000
30
0.0
40
1.499999880466
100
AcDbArc
50
90.000000000000
51
270.000000000000
0
ARC
5
a32
100
AcDbEntity
8
0-505
6
CONTINUOUS
62
7
100
AcDbCircle
10
1378.480000000000
20
316.710000000000
30
0.0
40
0.899999870217
100
AcDbArc
50
90.000000000000
51
270.000000000000
0
ARC
5
a33
100
AcDbEntity
8
0-505
6
CONTINUOUS
62
7
100
AcDbCircle
10
1392.380000000000
20
314.410000000000
30
0.0
40
1.999999969650
100
AcDbArc
50
360.000000000000
51
450.000000000000
0
ARC
5
a34
100
AcDbEntity
8
0-505
6
CONTINUOUS
62
7
100
AcDbCircle
10
1392.380000000000
20
314.410000000000
30
0.0
40
2.599999883128
100
AcDbArc
50
360.000000000000
51
450.000000000000
0
ARC
5
a35
100
AcDbEntity
8
0-505
6
CONTINUOUS
62
7
100
AcDbCircle
10
1392.380000000000
20
293.710000000000
30
0.0
40
1.999999969650
100
AcDbArc
50
270.000000000000
51
360.000000000000
0
ARC
5
a36
100
AcDbEntity
8
0-505
6
CONTINUOUS
62
7
100
AcDbCircle
10
1392.380000000000
20
293.710000000000
30
0.0
40
2.599999883128
100
AcDbArc
50
270.000000000000
51
360.000000000000
0
ARC
5
a37
100
AcDbEntity
8
0-505
6
CONTINUOUS
62
3
100
AcDbCircle
10
1456.680000000000
20
262.310000000000
30
0.0
40
2.299999732846
100
AcDbArc
50
360.000000000000
51
450.000000000000
0
ARC
5
a38
100
AcDbEntity
8
0-505
6
CONTINUOUS
62
3
100
AcDbCircle
10
1411.280000000000
20
262.310000000000
30
0.0
40
2.299999732846
100
AcDbArc
50
90.000000000000
51
180.000000000000
0
ARC
5
a39
100
AcDbEntity
8
0-505
6
CONTINUOUS
62
3
100
AcDbCircle
10
1411.280000000000
20
166.910000000000
30
0.0
40
2.299999732846
100
AcDbArc
50
180.000000000000
51
270.000000000000
0
ARC
5
a3a
100
AcDbEntity
8
0-505
6
CONTINUOUS
62
3
100
AcDbCircle
10
1456.680000000000
20
166.910000000000
30
0.0
40
2.299999732846
100
AcDbArc
50
270.000000000000
51
360.000000000000
0
CIRCLE
5
a3b
100
AcDbEntity
8
0-808
6
CONTINUOUS
62
3
100
AcDbCircle
10
88.840000000000
20
66.090000000000
30
0.0
40
11.313799562926
0
CIRCLE
5
a3c
100
AcDbEntity
8
0-808
6
CONTINUOUS
62
3
100
AcDbCircle
10
88.840000000000
20
66.090000000000
30
0.0
40
12.913798299974
0
CIRCLE
5
a3d
100
AcDbEntity
8
0-808
6
CONTINUOUS
62
4
100
AcDbCircle
10
88.840000000000
20
66.090000000000
30
0.0
40
11.473799591465
0
CIRCLE
5
a3e
100
AcDbEntity
8
0-808
6
CONTINUOUS
62
4
100
AcDbCircle
10
88.840000000000
20
66.090000000000
30
0.0
40
11.793798874372
0
CIRCLE
5
a3f
100
AcDbEntity
8
0-808
6
CONTINUOUS
62
4
100
AcDbCircle
10
88.840000000000
20
66.090000000000
30
0.0
40
12.113798931450
0
CIRCLE
5
a40
100
AcDbEntity
8
0-808
6
CONTINUOUS
62
4
100
AcDbCircle
10
88.840000000000
20
66.090000000000
30
0.0
40
12.433799762697
0
CIRCLE
5
a41
100
AcDbEntity
8
0-808
6
CONTINUOUS
62
4
100
AcDbCircle
10
88.840000000000
20
66.090000000000
30
0.0
40
12.753799045605
0
ARC
5
a42
100
AcDbEntity
8
0-000
6
CONTINUOUS
62
7
100
AcDbCircle
10
155.570000000000
20
986.010000000000
30
0.0
40
3.899999631149
100
AcDbArc
50
360.000000000000
51
540.000000000000
0
ARC
5
a43
100
AcDbEntity
8
0-000
6
CONTINUOUS
62
7
100
AcDbCircle
10
155.570000000000
20
986.010000000000
30
0.0
40
3.299999717671
100
AcDbArc
50
360.000000000000
51
540.000000000000
0
ARC
5
a44
100
AcDbEntity
8
0-000
6
CONTINUOUS
62
7
100
AcDbCircle
10
155.570000000000
20
986.010000000000
30
0.0
40
2.699999997736
100
AcDbArc
50
360.000000000000
51
540.000000000000
0
ARC
5
a45
100
AcDbEntity
8
0-000
6
CONTINUOUS
62
7
100
AcDbCircle
10
155.570000000000
20
986.010000000000
30
0.0
40
2.099999890715
100
AcDbArc
50
360.000000000000
51
540.000000000000
0
ARC
5
a46
100
AcDbEntity
8
0-000
6
CONTINUOUS
62
7
100
AcDbCircle
10
155.570000000000
20
986.010000000000
30
0.0
40
1.499999880466
100
AcDbArc
50
360.000000000000
51
540.000000000000
0
ARC
5
a47
100
AcDbEntity
8
0-000
6
CONTINUOUS
62
7
100
AcDbCircle
10
155.570000000000
20
986.010000000000
30
0.0
40
0.899999870217
100
AcDbArc
50
360.000000000000
51
540.000000000000
0
ARC
5
a48
100
AcDbEntity
8
0-000
6
CONTINUOUS
62
7
100
AcDbCircle
10
157.370000000000
20
979.010000000000
30
0.0
40
2.099999890715
100
AcDbArc
50
180.000000000000
51
360.000000000000
0
ARC
5
a49
100
AcDbEntity
8
0-000
6
CONTINUOUS
62
7
100
AcDbCircle
10
157.370000000000
20
979.010000000000
30
0.0
40
1.499999880466
100
AcDbArc
50
180.000000000000
51
360.000000000000
0
ARC
5
a4a
100
AcDbEntity
8
0-000
6
CONTINUOUS
62
7
100
AcDbCircle
10
157.370000000000
20
979.010000000000
30
0.0
40
0.899999870217
100
AcDbArc
50
180.000000000000
51
360.000000000000
0
ARC
5
a4b
100
AcDbEntity
8
0-000
6
CONTINUOUS
62
7
100
AcDbCircle
10
157.370000000000
20
979.010000000000
30
0.0
40
0.299999956739
100
AcDbArc
50
180.000000000000
51
360.000000000000
0
ARC
5
a4c
100
AcDbEntity
8
0-000
6
CONTINUOUS
62
7
100
AcDbCircle
10
134.470000000000
20
969.710000000000
30
0.0
40
0.399999950383
100
AcDbArc
50
90.000000000000
51
270.000000000000
0
ARC
5
a4d
100
AcDbEntity
8
0-000
6
CONTINUOUS
62
7
100
AcDbCircle
10
134.470000000000
20
969.710000000000
30
0.0
40
0.999999984825
100
AcDbArc
50
90.000000000000
51
270.000000000000
0
ARC
5
a4e
100
AcDbEntity
8
0-000
6
CONTINUOUS
62
7
100
AcDbCircle
10
121.920000000000
20
970.710000000000
30
0.0
40
0.599999913478
100
AcDbArc
50
90.000000000000
51
135.000000000000
0
ARC
5
a4f
100
AcDbEntity
8
0-000
6
CONTINUOUS
62
7
100
AcDbCircle
10
119.670000000000
20
969.310000000000
30
0.0
40
0.599999913478
100
AcDbArc
50
270.000000000000
51
315.000000000000
0
ARC
5
a50
100
AcDbEntity
8
0-000
6
CONTINUOUS
62
7
100
AcDbCircle
10
183.770000000000
20
970.710000000000
30
0.0
40
0.599999913478
100
AcDbArc
50
45.000000000000
51
90.000000000000
0
ARC
5
a51
100
AcDbEntity
8
0-000
6
CONTINUOUS
62
7
100
AcDbCircle
10
186.020000000000
20
969.310000000000
30
0.0
40
0.599999913478
100
AcDbArc
50
225.000000000000
51
270.000000000000
0
ARC
5
a52
100
AcDbEntity
8
0-000
6
CONTINUOUS
62
7
100
AcDbCircle
10
484.370000000000
20
986.010000000000
30
0.0
40
3.899999631149
100
AcDbArc
50
360.000000000000
51
540.000000000000
0
ARC
5
a53
100
AcDbEntity
8
0-000
6
CONTINUOUS
62
7
100
AcDbCircle
10
484.370000000000
20
986.010000000000
30
0.0
40
3.299999717671
100
AcDbArc
50
360.000000000000
51
540.000000000000
0
ARC
5
a54
100
AcDbEntity
8
0-000
6
CONTINUOUS
62
7
100
AcDbCircle
10
484.370000000000
20
986.010000000000
30
0.0
40
2.699999997736
100
AcDbArc
50
360.000000000000
51
540.000000000000
0
ARC
5
a55
100
AcDbEntity
8
0-000
6
CONTINUOUS
62
7
100
AcDbCircle
10
484.370000000000
20
986.010000000000
30
0.0
40
2.099999890715
100
AcDbArc
50
360.000000000000
51
540.000000000000
0
ARC
5
a56
100
AcDbEntity
8
0-000
6
CONTINUOUS
62
7
100
AcDbCircle
10
484.370000000000
20
986.010000000000
30
0.0
40
1.499999880466
100
AcDbArc
50
360.000000000000
51
540.000000000000
0
ARC
5
a57
100
AcDbEntity
8
0-000
6
CONTINUOUS
62
7
100
AcDbCircle
10
484.370000000000
20
986.010000000000
30
0.0
40
0.899999870217
100
AcDbArc
50
360.000000000000
51
540.000000000000
0
ARC
5
a58
100
AcDbEntity
8
0-000
6
CONTINUOUS
62
7
100
AcDbCircle
10
486.170000000000
20
979.010000000000
30
0.0
40
2.099999890715
100
AcDbArc
50
180.000000000000
51
360.000000000000
0
ARC
5
a59
100
AcDbEntity
8
0-000
6
CONTINUOUS
62
7
100
AcDbCircle
10
486.170000000000
20
979.010000000000
30
0.0
40
1.499999880466
100
AcDbArc
50
180.000000000000
51
360.000000000000
0
ARC
5
a5a
100
AcDbEntity
8
0-000
6
CONTINUOUS
62
7
100
AcDbCircle
10
486.170000000000
20
979.010000000000
30
0.0
40
0.899999870217
100
AcDbArc
50
180.000000000000
51
360.000000000000
0
ARC
5
a5b
100
AcDbEntity
8
0-000
6
CONTINUOUS
62
7
100
AcDbCircle
10
486.170000000000
20
979.010000000000
30
0.0
40
0.299999956739
100
AcDbArc
50
180.000000000000
51
360.000000000000
0
ARC
5
a5c
100
AcDbEntity
8
0-000
6
CONTINUOUS
62
7
100
AcDbCircle
10
463.270000000000
20
969.710000000000
30
0.0
40
0.399999950383
100
AcDbArc
50
90.000000000000
51
270.000000000000
0
ARC
5
a5d
100
AcDbEntity
8
0-000
6
CONTINUOUS
62
7
100
AcDbCircle
10
463.270000000000
20
969.710000000000
30
0.0
40
0.999999984825
100
AcDbArc
50
90.000000000000
51
270.000000000000
0
ARC
5
a5e
100
AcDbEntity
8
0-000
6
CONTINUOUS
62
7
100
AcDbCircle
10
450.720000000000
20
970.710000000000
30
0.0
40
0.599999913478
100
AcDbArc
50
90.000000000000
51
135.000000000000
0
ARC
5
a5f
100
AcDbEntity
8
0-000
6
CONTINUOUS
62
7
100
AcDbCircle
10
448.470000000000
20
969.310000000000
30
0.0
40
0.599999913478
100
AcDbArc
50
270.000000000000
51
315.000000000000
0
ARC
5
a60
100
AcDbEntity
8
0-000
6
CONTINUOUS
62
7
100
AcDbCircle
10
512.570000000000
20
970.710000000000
30
0.0
40
0.599999913478
100
AcDbArc
50
45.000000000000
51
90.000000000000
0
ARC
5
a61
100
AcDbEntity
8
0-000
6
CONTINUOUS
62
7
100
AcDbCircle
10
514.820000000000
20
969.310000000000
30
0.0
40
0.599999913478
100
AcDbArc
50
225.000000000000
51
270.000000000000
0
ARC
5
a62
100
AcDbEntity
8
0-606
6
CONTINUOUS
62
7
100
AcDbCircle
10
308.610000000000
20
779.870000000000
30
0.0
40
7.799999262298
100
AcDbArc
50
360.000000000000
51
540.000000000000
0
ARC
5
a63
100
AcDbEntity
8
0-606
6
CONTINUOUS
62
7
100
AcDbCircle
10
308.610000000000
20
779.870000000000
30
0.0
40
6.599999435342
100
AcDbArc
50
360.000000000000
51
540.000000000000
0
ARC
5
a64
100
AcDbEntity
8
0-606
6
CONTINUOUS
62
7
100
AcDbCircle
10
308.610000000000
20
779.870000000000
30
0.0
40
5.399999995471
100
AcDbArc
50
360.000000000000
51
540.000000000000
0
ARC
5
a65
100
AcDbEntity
8
0-606
6
CONTINUOUS
62
7
100
AcDbCircle
10
308.610000000000
20
779.870000000000
30
0.0
40
4.199999781430
100
AcDbArc
50
360.000000000000
51
540.000000000000
0
ARC
5
a66
100
AcDbEntity
8
0-606
6
CONTINUOUS
62
7
100
AcDbCircle
10
308.610000000000
20
779.870000000000
30
0.0
40
2.999999760932
100
AcDbArc
50
360.000000000000
51
540.000000000000
0
ARC
5
a67
100
AcDbEntity
8
0-606
6
CONTINUOUS
62
7
100
AcDbCircle
10
308.610000000000
20
779.870000000000
30
0.0
40
1.799999740434
100
AcDbArc
50
360.000000000000
51
540.000000000000
0
ARC
5
a68
100
AcDbEntity
8
0-606
6
CONTINUOUS
62
7
100
AcDbCircle
10
312.210000000000
20
765.870000000000
30
0.0
40
4.199999781430
100
AcDbArc
50
180.000000000000
51
360.000000000000
0
ARC
5
a69
100
AcDbEntity
8
0-606
6
CONTINUOUS
62
7
100
AcDbCircle
10
312.210000000000
20
765.870000000000
30
0.0
40
2.999999760932
100
AcDbArc
50
180.000000000000
51
360.000000000000
0
ARC
5
a6a
100
AcDbEntity
8
0-606
6
CONTINUOUS
62
7
100
AcDbCircle
10
312.210000000000
20
765.870000000000
30
0.0
40
1.799999740434
100
AcDbArc
50
180.000000000000
51
360.000000000000
0
ARC
5
a6b
100
AcDbEntity
8
0-606
6
CONTINUOUS
62
7
100
AcDbCircle
10
312.210000000000
20
765.870000000000
30
0.0
40
0.599999913478
100
AcDbArc
50
180.000000000000
51
360.000000000000
0
ARC
5
a6c
100
AcDbEntity
8
0-606
6
CONTINUOUS
62
7
100
AcDbCircle
10
266.410000000000
20
747.270000000000
30
0.0
40
0.799999900766
100
AcDbArc
50
90.000000000000
51
270.000000000000
0
ARC
5
a6d
100
AcDbEntity
8
0-606
6
CONTINUOUS
62
7
100
AcDbCircle
10
266.410000000000
20
747.270000000000
30
0.0
40
1.999999969650
100
AcDbArc
50
90.000000000000
51
270.000000000000
0
ARC
5
a6e
100
AcDbEntity
8
0-606
6
CONTINUOUS
62
7
100
AcDbCircle
10
241.310000000000
20
749.270000000000
30
0.0
40
1.199999826956
100
AcDbArc
50
90.000000000000
51
135.000000000000
0
ARC
5
a6f
100
AcDbEntity
8
0-606
6
CONTINUOUS
62
7
100
AcDbCircle
10
236.820000000000
20
746.470000000000
30
0.0
40
1.199999826956
100
AcDbArc
50
270.000000000000
51
315.000000000000
0
ARC
5
a70
100
AcDbEntity
8
0-606
6
CONTINUOUS
62
7
100
AcDbCircle
10
365.010000000000
20
749.270000000000
30
0.0
40
1.199999826956
100
AcDbArc
50
45.000000000000
51
90.000000000000
0
ARC
5
a71
100
AcDbEntity
8
0-606
6
CONTINUOUS
62
7
100
AcDbCircle
10
369.510000000000
20
746.470000000000
30
0.0
40
1.199999826956
100
AcDbArc
50
225.000000000000
51
270.000000000000
0
ARC
5
a72
100
AcDbEntity
8
0-606
6
CONTINUOUS
62
7
100
AcDbCircle
10
308.010000000000
20
751.670000000000
30
0.0
40
1.199999826956
100
AcDbArc
50
180.000000000000
51
270.000000000000
0
ARC
5
a73
100
AcDbEntity
8
0-606
6
CONTINUOUS
62
7
100
AcDbCircle
10
299.610000000000
20
751.670000000000
30
0.0
40
1.199999826956
100
AcDbArc
50
270.000000000000
51
360.000000000000
0
ARC
5
a74
100
AcDbEntity
8
0-606
6
CONTINUOUS
62
7
100
AcDbCircle
10
302.010000000000
20
747.670000000000
30
0.0
40
1.199999826956
100
AcDbArc
50
270.000000000000
51
360.000000000000
0
ARC
5
a75
100
AcDbEntity
8
0-606
6
CONTINUOUS
62
7
100
AcDbCircle
10
299.610000000000
20
751.670000000000
30
0.0
40
2.399999653912
100
AcDbArc
50
270.000000000000
51
360.000000000000
0
ARC
5
a76
100
AcDbEntity
8
0-606
6
CONTINUOUS
62
7
100
AcDbCircle
10
302.010000000000
20
747.670000000000
30
0.0
40
2.399999653912
100
AcDbArc
50
270.000000000000
51
360.000000000000
0
ARC
5
a77
100
AcDbEntity
8
0-606
6
CONTINUOUS
62
7
100
AcDbCircle
10
308.010000000000
20
751.670000000000
30
0.0
40
2.399999653912
100
AcDbArc
50
180.000000000000
51
270.000000000000
0
ARC
5
a78
100
AcDbEntity
8
0-000
6
CONTINUOUS
62
7
100
AcDbCircle
10
479.870000000000
20
971.910000000000
30
0.0
40
0.599999913478
100
AcDbArc
50
270.000000000000
51
360.000000000000
0
ARC
5
a79
100
AcDbEntity
8
0-000
6
CONTINUOUS
62
7
100
AcDbCircle
10
484.070000000000
20
971.910000000000
30
0.0
40
0.599999913478
100
AcDbArc
50
180.000000000000
51
270.000000000000
0
ARC
5
a7a
100
AcDbEntity
8
0-000
6
CONTINUOUS
62
7
100
AcDbCircle
10
481.070000000000
20
969.910000000000
30
0.0
40
0.599999913478
100
AcDbArc
50
270.000000000000
51
360.000000000000
0
ARC
5
a7b
100
AcDbEntity
8
0-000
6
CONTINUOUS
62
7
100
AcDbCircle
10
484.070000000000
20
971.910000000000
30
0.0
40
1.199999826956
100
AcDbArc
50
180.000000000000
51
270.000000000000
0
ARC
5
a7c
100
AcDbEntity
8
0-000
6
CONTINUOUS
62
7
100
AcDbCircle
10
479.870000000000
20
971.910000000000
30
0.0
40
1.199999826956
100
AcDbArc
50
270.000000000000
51
360.000000000000
0
ARC
5
a7d
100
AcDbEntity
8
0-000
6
CONTINUOUS
62
7
100
AcDbCircle
10
481.070000000000
20
969.910000000000
30
0.0
40
1.199999826956
100
AcDbArc
50
270.000000000000
51
360.000000000000
0
ARC
5
a7e
100
AcDbEntity
8
0-000
6
CONTINUOUS
62
7
100
AcDbCircle
10
155.270000000000
20
971.910000000000
30
0.0
40
0.599999913478
100
AcDbArc
50
180.000000000000
51
270.000000000000
0
ARC
5
a7f
100
AcDbEntity
8
0-000
6
CONTINUOUS
62
7
100
AcDbCircle
10
151.070000000000
20
971.910000000000
30
0.0
40
0.599999913478
100
AcDbArc
50
270.000000000000
51
360.000000000000
0
ARC
5
a80
100
AcDbEntity
8
0-000
6
CONTINUOUS
62
7
100
AcDbCircle
10
152.270000000000
20
969.910000000000
30
0.0
40
0.599999913478
100
AcDbArc
50
270.000000000000
51
360.000000000000
0
ARC
5
a81
100
AcDbEntity
8
0-000
6
CONTINUOUS
62
7
100
AcDbCircle
10
151.070000000000
20
971.910000000000
30
0.0
40
1.199999826956
100
AcDbArc
50
270.000000000000
51
360.000000000000
0
ARC
5
a82
100
AcDbEntity
8
0-000
6
CONTINUOUS
62
7
100
AcDbCircle
10
155.270000000000
20
971.910000000000
30
0.0
40
1.199999826956
100
AcDbArc
50
180.000000000000
51
270.000000000000
0
ARC
5
a83
100
AcDbEntity
8
0-000
6
CONTINUOUS
62
7
100
AcDbCircle
10
152.270000000000
20
969.910000000000
30
0.0
40
1.199999826956
100
AcDbArc
50
270.000000000000
51
360.000000000000
0
ARC
5
a84
100
AcDbEntity
8
0-101
6
DOT
62
7
100
AcDbCircle
10
324.390000000000
20
349.070000000000
30
0.0
40
0.599999913478
100
AcDbArc
50
281.309936523438
51
371.310394287109
0
ARC
5
a85
100
AcDbEntity
8
0-101
6
DOT
62
7
100
AcDbCircle
10
324.390000000000
20
349.070000000000
30
0.0
40
1.099999905890
100
AcDbArc
50
281.309936523438
51
371.310394287109
0
ARC
5
a86
100
AcDbEntity
8
0-101
6
CONTINUOUS
62
7
100
AcDbCircle
10
451.750000000000
20
330.740000000000
30
0.0
40
0.599999913478
100
AcDbArc
50
191.692245483398
51
348.694702148438
0
ARC
5
a87
100
AcDbEntity
8
0-101
6
CONTINUOUS
62
7
100
AcDbCircle
10
451.750000000000
20
330.740000000000
30
0.0
40
1.199999826956
100
AcDbArc
50
191.692245483398
51
348.694702148438
0
ARC
5
a88
100
AcDbEntity
8
0-101
6
CONTINUOUS
62
7
100
AcDbCircle
10
333.440000000000
20
351.950000000000
30
0.0
40
1.999999969650
100
AcDbArc
50
168.690628051758
51
258.690628051758
0
ARC
5
a89
100
AcDbEntity
8
0-101
6
CONTINUOUS
62
7
100
AcDbCircle
10
333.440000000000
20
351.950000000000
30
0.0
40
1.399999959401
100
AcDbArc
50
168.690628051758
51
258.690628051758
0
ARC
5
a8a
100
AcDbEntity
8
0-101
6
CONTINUOUS
62
7
100
AcDbCircle
10
336.620000000000
20
367.880000000000
30
0.0
40
1.399999959401
100
AcDbArc
50
135.641403198242
51
168.690902709961
0
ARC
5
a8b
100
AcDbEntity
8
0-101
6
CONTINUOUS
62
7
100
AcDbCircle
10
336.620000000000
20
367.880000000000
30
0.0
40
1.999999969650
100
AcDbArc
50
90.228530883789
51
168.690902709961
0
ARC
5
a8c
100
AcDbEntity
8
0-101
6
DOT
62
7
100
AcDbCircle
10
336.620000000000
20
367.880000000000
30
0.0
40
1.999999969650
100
AcDbArc
50
78.690063476563
51
89.410156250000
0
ARC
5
a8d
100
AcDbEntity
8
0-101
6
CONTINUOUS
62
7
100
AcDbCircle
10
336.620000000000
20
367.880000000000
30
0.0
40
1.399999959401
100
AcDbArc
50
95.293746948242
51
135.641403198242
0
ARC
5
a8e
100
AcDbEntity
8
0-101
6
DOT
62
7
100
AcDbCircle
10
336.620000000000
20
367.880000000000
30
0.0
40
1.399999959401
100
AcDbArc
50
78.690063476563
51
93.761138916016
0
ARC
5
a8f
100
AcDbEntity
8
0-101
6
DOT
62
7
100
AcDbCircle
10
332.040000000000
20
349.070000000000
30
0.0
40
0.599999913478
100
AcDbArc
50
168.689605712891
51
258.690063476563
0
ARC
5
a90
100
AcDbEntity
8
0-101
6
DOT
62
7
100
AcDbCircle
10
332.040000000000
20
349.070000000000
30
0.0
40
1.099999905890
100
AcDbArc
50
168.689605712891
51
258.690063476563
0
ARC
5
a91
100
AcDbEntity
8
0-404
6
CONTINUOUS
62
7
100
AcDbCircle
10
1453.760000000000
20
828.620000000000
30
0.0
40
1.999999969650
100
AcDbArc
50
281.309371948242
51
371.309371948242
0
ARC
5
a92
100
AcDbEntity
8
0-404
6
CONTINUOUS
62
7
100
AcDbCircle
10
1453.760000000000
20
828.620000000000
30
0.0
40
1.399999959401
100
AcDbArc
50
281.309371948242
51
371.309371948242
0
ARC
5
a93
100
AcDbEntity
8
0-404
6
CONTINUOUS
62
7
100
AcDbCircle
10
1450.580000000000
20
844.540000000000
30
0.0
40
1.399999959401
100
AcDbArc
50
11.309097290039
51
44.358596801758
0
ARC
5
a94
100
AcDbEntity
8
0-404
6
CONTINUOUS
62
7
100
AcDbCircle
10
1450.580000000000
20
844.540000000000
30
0.0
40
1.999999969650
100
AcDbArc
50
11.309097290039
51
89.771469116211
0
ARC
5
a95
100
AcDbEntity
8
0-404
6
DOT
62
7
100
AcDbCircle
10
1450.580000000000
20
844.540000000000
30
0.0
40
1.999999969650
100
AcDbArc
50
90.589843750000
51
101.309936523438
0
ARC
5
a96
100
AcDbEntity
8
0-404
6
CONTINUOUS
62
7
100
AcDbCircle
10
1450.580000000000
20
844.540000000000
30
0.0
40
1.399999959401
100
AcDbArc
50
44.358596801758
51
84.706253051758
0
ARC
5
a97
100
AcDbEntity
8
0-404
6
DOT
62
7
100
AcDbCircle
10
1450.580000000000
20
844.540000000000
30
0.0
40
1.399999959401
100
AcDbArc
50
86.238861083984
51
101.309936523438
0
ARC
5
a98
100
AcDbEntity
8
0-404
6
DOT
62
7
100
AcDbCircle
10
1455.150000000000
20
825.740000000000
30
0.0
40
0.599999913478
100
AcDbArc
50
281.309936523438
51
371.310394287109
0
ARC
5
a99
100
AcDbEntity
8
0-404
6
DOT
62
7
100
AcDbCircle
10
1455.150000000000
20
825.740000000000
30
0.0
40
1.099999905890
100
AcDbArc
50
281.309936523438
51
371.310394287109
0
ARC
5
a9a
100
AcDbEntity
8
0-404
6
CONTINUOUS
62
7
100
AcDbCircle
10
1318.310000000000
20
803.970000000000
30
0.0
40
0.599999913478
100
AcDbArc
50
191.305282592773
51
348.307754516602
0
ARC
5
a9b
100
AcDbEntity
8
0-404
6
CONTINUOUS
62
7
100
AcDbCircle
10
1318.310000000000
20
803.970000000000
30
0.0
40
1.199999826956
100
AcDbArc
50
191.305282592773
51
348.307754516602
0
ARC
5
a9c
100
AcDbEntity
8
0-303
6
CONTINUOUS
62
7
100
AcDbCircle
10
869.330000000000
20
415.750000000000
30
0.0
40
3.899999631149
100
AcDbArc
50
360.000000000000
51
540.000000000000
0
ARC
5
a9d
100
AcDbEntity
8
0-303
6
CONTINUOUS
62
7
100
AcDbCircle
10
869.330000000000
20
415.750000000000
30
0.0
40
3.299999717671
100
AcDbArc
50
360.000000000000
51
540.000000000000
0
ARC
5
a9e
100
AcDbEntity
8
0-303
6
CONTINUOUS
62
7
100
AcDbCircle
10
869.330000000000
20
415.750000000000
30
0.0
40
2.699999997736
100
AcDbArc
50
360.000000000000
51
540.000000000000
0
ARC
5
a9f
100
AcDbEntity
8
0-303
6
CONTINUOUS
62
7
100
AcDbCircle
10
869.330000000000
20
415.750000000000
30
0.0
40
2.099999890715
100
AcDbArc
50
360.000000000000
51
540.000000000000
0
ARC
5
aa0
100
AcDbEntity
8
0-303
6
CONTINUOUS
62
7
100
AcDbCircle
10
869.330000000000
20
415.750000000000
30
0.0
40
1.499999880466
100
AcDbArc
50
360.000000000000
51
540.000000000000
0
ARC
5
aa1
100
AcDbEntity
8
0-303
6
CONTINUOUS
62
7
100
AcDbCircle
10
869.330000000000
20
415.750000000000
30
0.0
40
0.899999870217
100
AcDbArc
50
360.000000000000
51
540.000000000000
0
ARC
5
aa2
100
AcDbEntity
8
0-303
6
CONTINUOUS
62
7
100
AcDbCircle
10
871.130000000000
20
408.750000000000
30
0.0
40
2.099999890715
100
AcDbArc
50
180.000000000000
51
360.000000000000
0
ARC
5
aa3
100
AcDbEntity
8
0-303
6
CONTINUOUS
62
7
100
AcDbCircle
10
871.130000000000
20
408.750000000000
30
0.0
40
1.499999880466
100
AcDbArc
50
180.000000000000
51
360.000000000000
0
ARC
5
aa4
100
AcDbEntity
8
0-303
6
CONTINUOUS
62
7
100
AcDbCircle
10
871.130000000000
20
408.750000000000
30
0.0
40
0.899999870217
100
AcDbArc
50
180.000000000000
51
360.000000000000
0
ARC
5
aa5
100
AcDbEntity
8
0-303
6
CONTINUOUS
62
7
100
AcDbCircle
10
871.130000000000
20
408.750000000000
30
0.0
40
0.299999956739
100
AcDbArc
50
180.000000000000
51
360.000000000000
0
ARC
5
aa6
100
AcDbEntity
8
0-303
6
CONTINUOUS
62
7
100
AcDbCircle
10
848.230000000000
20
399.450000000000
30
0.0
40
0.399999950383
100
AcDbArc
50
90.000000000000
51
270.000000000000
0
ARC
5
aa7
100
AcDbEntity
8
0-303
6
CONTINUOUS
62
7
100
AcDbCircle
10
848.230000000000
20
399.450000000000
30
0.0
40
0.999999984825
100
AcDbArc
50
90.000000000000
51
270.000000000000
0
ARC
5
aa8
100
AcDbEntity
8
0-303
6
CONTINUOUS
62
7
100
AcDbCircle
10
835.680000000000
20
400.450000000000
30
0.0
40
0.599999913478
100
AcDbArc
50
90.000000000000
51
135.000000000000
0
ARC
5
aa9
100
AcDbEntity
8
0-303
6
CONTINUOUS
62
7
100
AcDbCircle
10
833.430000000000
20
399.050000000000
30
0.0
40
0.599999913478
100
AcDbArc
50
270.000000000000
51
315.000000000000
0
ARC
5
aaa
100
AcDbEntity
8
0-303
6
CONTINUOUS
62
7
100
AcDbCircle
10
897.530000000000
20
400.450000000000
30
0.0
40
0.599999913478
100
AcDbArc
50
45.000000000000
51
90.000000000000
0
ARC
5
aab
100
AcDbEntity
8
0-303
6
CONTINUOUS
62
7
100
AcDbCircle
10
899.780000000000
20
399.050000000000
30
0.0
40
0.599999913478
100
AcDbArc
50
225.000000000000
51
270.000000000000
0
ARC
5
aac
100
AcDbEntity
8
0-303
6
CONTINUOUS
62
7
100
AcDbCircle
10
864.830000000000
20
401.650000000000
30
0.0
40
0.599999913478
100
AcDbArc
50
270.000000000000
51
360.000000000000
0
ARC
5
aad
100
AcDbEntity
8
0-303
6
CONTINUOUS
62
7
100
AcDbCircle
10
869.030000000000
20
401.650000000000
30
0.0
40
0.599999913478
100
AcDbArc
50
180.000000000000
51
270.000000000000
0
ARC
5
aae
100
AcDbEntity
8
0-303
6
CONTINUOUS
62
7
100
AcDbCircle
10
866.030000000000
20
399.650000000000
30
0.0
40
0.599999913478
100
AcDbArc
50
270.000000000000
51
360.000000000000
0
ARC
5
aaf
100
AcDbEntity
8
0-303
6
CONTINUOUS
62
7
100
AcDbCircle
10
869.030000000000
20
401.650000000000
30
0.0
40
1.199999826956
100
AcDbArc
50
180.000000000000
51
270.000000000000
0
ARC
5
ab0
100
AcDbEntity
8
0-303
6
CONTINUOUS
62
7
100
AcDbCircle
10
864.830000000000
20
401.650000000000
30
0.0
40
1.199999826956
100
AcDbArc
50
270.000000000000
51
360.000000000000
0
ARC
5
ab1
100
AcDbEntity
8
0-303
6
CONTINUOUS
62
7
100
AcDbCircle
10
866.030000000000
20
399.650000000000
30
0.0
40
1.199999826956
100
AcDbArc
50
270.000000000000
51
360.000000000000
0
ARC
5
ab2
100
AcDbEntity
8
0-303
6
CONTINUOUS
62
7
100
AcDbCircle
10
807.290000000000
20
189.680000000000
30
0.0
40
210.995774475072
100
AcDbArc
50
82.881973266602
51
90.900909423828
0
ARC
5
ab3
100
AcDbEntity
8
0-303
6
CONTINUOUS
62
7
100
AcDbCircle
10
807.290000000000
20
189.680000000000
30
0.0
40
210.395786561228
100
AcDbArc
50
82.881973266602
51
90.900909423828
0
ARC
5
ab4
100
AcDbEntity
8
0-505
6
CONTINUOUS
62
7
100
AcDbCircle
10
1297.260000000000
20
308.410000000000
30
0.0
40
3.899999631149
100
AcDbArc
50
360.000000000000
51
540.000000000000
0
ARC
5
ab5
100
AcDbEntity
8
0-505
6
CONTINUOUS
62
7
100
AcDbCircle
10
1297.260000000000
20
308.410000000000
30
0.0
40
3.299999717671
100
AcDbArc
50
360.000000000000
51
540.000000000000
0
ARC
5
ab6
100
AcDbEntity
8
0-505
6
CONTINUOUS
62
7
100
AcDbCircle
10
1297.260000000000
20
308.410000000000
30
0.0
40
2.699999997736
100
AcDbArc
50
360.000000000000
51
540.000000000000
0
ARC
5
ab7
100
AcDbEntity
8
0-505
6
CONTINUOUS
62
7
100
AcDbCircle
10
1297.260000000000
20
308.410000000000
30
0.0
40
2.099999890715
100
AcDbArc
50
360.000000000000
51
540.000000000000
0
ARC
5
ab8
100
AcDbEntity
8
0-505
6
CONTINUOUS
62
7
100
AcDbCircle
10
1297.260000000000
20
308.410000000000
30
0.0
40
1.499999880466
100
AcDbArc
50
360.000000000000
51
540.000000000000
0
ARC
5
ab9
100
AcDbEntity
8
0-505
6
CONTINUOUS
62
7
100
AcDbCircle
10
1297.260000000000
20
308.410000000000
30
0.0
40
0.899999870217
100
AcDbArc
50
360.000000000000
51
540.000000000000
0
ARC
5
aba
100
AcDbEntity
8
0-505
6
CONTINUOUS
62
7
100
AcDbCircle
10
1299.060000000000
20
301.410000000000
30
0.0
40
2.099999890715
100
AcDbArc
50
180.000000000000
51
360.000000000000
0
ARC
5
abb
100
AcDbEntity
8
0-505
6
CONTINUOUS
62
7
100
AcDbCircle
10
1299.060000000000
20
301.410000000000
30
0.0
40
1.499999880466
100
AcDbArc
50
180.000000000000
51
360.000000000000
0
ARC
5
abc
100
AcDbEntity
8
0-505
6
CONTINUOUS
62
7
100
AcDbCircle
10
1299.060000000000
20
301.410000000000
30
0.0
40
0.899999870217
100
AcDbArc
50
180.000000000000
51
360.000000000000
0
ARC
5
abd
100
AcDbEntity
8
0-505
6
CONTINUOUS
62
7
100
AcDbCircle
10
1299.060000000000
20
301.410000000000
30
0.0
40
0.299999956739
100
AcDbArc
50
180.000000000000
51
360.000000000000
0
ARC
5
abe
100
AcDbEntity
8
0-505
6
CONTINUOUS
62
7
100
AcDbCircle
10
1276.160000000000
20
292.110000000000
30
0.0
40
0.399999950383
100
AcDbArc
50
90.000000000000
51
270.000000000000
0
ARC
5
abf
100
AcDbEntity
8
0-505
6
CONTINUOUS
62
7
100
AcDbCircle
10
1276.160000000000
20
292.110000000000
30
0.0
40
0.999999984825
100
AcDbArc
50
90.000000000000
51
270.000000000000
0
ARC
5
ac0
100
AcDbEntity
8
0-505
6
CONTINUOUS
62
7
100
AcDbCircle
10
1263.610000000000
20
293.110000000000
30
0.0
40
0.599999913478
100
AcDbArc
50
90.000000000000
51
135.000000000000
0
ARC
5
ac1
100
AcDbEntity
8
0-505
6
CONTINUOUS
62
7
100
AcDbCircle
10
1261.360000000000
20
291.710000000000
30
0.0
40
0.599999913478
100
AcDbArc
50
270.000000000000
51
315.000000000000
0
ARC
5
ac2
100
AcDbEntity
8
0-505
6
CONTINUOUS
62
7
100
AcDbCircle
10
1325.460000000000
20
293.110000000000
30
0.0
40
0.599999913478
100
AcDbArc
50
45.000000000000
51
90.000000000000
0
ARC
5
ac3
100
AcDbEntity
8
0-505
6
CONTINUOUS
62
7
100
AcDbCircle
10
1327.710000000000
20
291.710000000000
30
0.0
40
0.599999913478
100
AcDbArc
50
225.000000000000
51
270.000000000000
0
ARC
5
ac4
100
AcDbEntity
8
0-505
6
CONTINUOUS
62
7
100
AcDbCircle
10
1292.760000000000
20
294.310000000000
30
0.0
40
0.599999913478
100
AcDbArc
50
270.000000000000
51
360.000000000000
0
ARC
5
ac5
100
AcDbEntity
8
0-505
6
CONTINUOUS
62
7
100
AcDbCircle
10
1296.960000000000
20
294.310000000000
30
0.0
40
0.599999913478
100
AcDbArc
50
180.000000000000
51
270.000000000000
0
ARC
5
ac6
100
AcDbEntity
8
0-505
6
CONTINUOUS
62
7
100
AcDbCircle
10
1293.960000000000
20
292.310000000000
30
0.0
40
0.599999913478
100
AcDbArc
50
270.000000000000
51
360.000000000000
0
ARC
5
ac7
100
AcDbEntity
8
0-505
6
CONTINUOUS
62
7
100
AcDbCircle
10
1296.960000000000
20
294.310000000000
30
0.0
40
1.199999826956
100
AcDbArc
50
180.000000000000
51
270.000000000000
0
ARC
5
ac8
100
AcDbEntity
8
0-505
6
CONTINUOUS
62
7
100
AcDbCircle
10
1292.760000000000
20
294.310000000000
30
0.0
40
1.199999826956
100
AcDbArc
50
270.000000000000
51
360.000000000000
0
ARC
5
ac9
100
AcDbEntity
8
0-505
6
CONTINUOUS
62
7
100
AcDbCircle
10
1293.960000000000
20
292.310000000000
30
0.0
40
1.199999826956
100
AcDbArc
50
270.000000000000
51
360.000000000000
0
ARC
5
aca
100
AcDbEntity
8
0-505
6
CONTINUOUS
62
7
100
AcDbCircle
10
1456.080000000000
20
470.910000000000
30
0.0
40
0.299999956739
100
AcDbArc
50
360.000000000000
51
540.000000000000
0
ARC
5
acb
100
AcDbEntity
8
0-505
6
CONTINUOUS
62
7
100
AcDbCircle
10
1456.080000000000
20
470.910000000000
30
0.0
40
0.899999870217
100
AcDbArc
50
360.000000000000
51
540.000000000000
0
ARC
5
acc
100
AcDbEntity
8
0-202
6
CONTINUOUS
62
4
100
AcDbCircle
10
723.640000000000
20
881.120000000000
30
0.0
40
0.999999984825
100
AcDbArc
50
101.309936523438
51
191.280426025391
0
ARC
5
acd
100
AcDbEntity
8
0-202
6
CONTINUOUS
62
4
100
AcDbCircle
10
728.970000000000
20
857.190000000000
30
0.0
40
1.549999937770
100
AcDbArc
50
191.277603149414
51
281.309570312500
0
ARC
5
ace
100
AcDbEntity
8
0-202
6
CONTINUOUS
62
4
100
AcDbCircle
10
728.970000000000
20
857.190000000000
30
0.0
40
1.199999923727
100
AcDbArc
50
191.277603149414
51
281.309570312500
0
TEXT
5
acf
100
AcDbEntity
8
0-303
62
2
100
AcDbText
10
785.684
20
445.539
30
0.0
40
9.750
1
２００以内
41
1.100
50
0.000
100
AcDbText
0
TEXT
5
ad0
100
AcDbEntity
8
0-202
62
2
100
AcDbText
10
747.956
20
962.818
30
0.0
40
9.750
1
１５０以内
41
1.100
50
11.310
100
AcDbText
0
TEXT
5
ad1
100
AcDbEntity
8
0-404
62
2
100
AcDbText
10
1317.418
20
955.302
30
0.0
40
9.750
1
１５０～２００
41
1.100
50
11.310
100
AcDbText
0
TEXT
5
ad2
100
AcDbEntity
8
0-404
62
2
100
AcDbText
10
1236.461
20
863.295
30
0.0
40
9.750
1
通し唐草（エプロン）
41
1.100
50
0.000
100
AcDbText
0
TEXT
5
ad3
100
AcDbEntity
8
0-404
62
2
100
AcDbText
10
1369.693
20
935.941
30
0.0
40
9.750
1
外壁材
41
1.100
50
0.000
100
AcDbText
0
TEXT
5
ad4
100
AcDbEntity
8
0-202
62
2
100
AcDbText
10
890.139
20
836.024
30
0.0
40
9.750
1
野地板材
41
1.100
50
0.000
100
AcDbText
0
TEXT
5
ad5
100
AcDbEntity
8
0-202
62
2
100
AcDbText
10
706.320
20
801.214
30
0.0
40
9.750
1
軒先唐草
41
1.100
50
0.000
100
AcDbText
0
TEXT
5
ad6
100
AcDbEntity
8
0-202
62
2
100
AcDbText
10
778.539
20
703.202
30
0.0
40
9.750
1
鼻隠し
41
1.100
50
0.000
100
AcDbText
0
TEXT
5
ad7
100
AcDbEntity
8
0-202
62
2
100
AcDbText
10
911.821
20
703.447
30
0.0
40
9.750
1
軒天
41
1.100
50
0.000
100
AcDbText
0
TEXT
5
ad8
100
AcDbEntity
8
0-303
62
2
100
AcDbText
10
946.289
20
357.633
30
0.0
40
9.750
1
野地板材
41
1.100
50
0.000
100
AcDbText
0
TEXT
5
ad9
100
AcDbEntity
8
0-303
62
2
100
AcDbText
10
703.658
20
334.137
30
0.0
40
9.750
1
けらば唐草
41
1.100
50
0.000
100
AcDbText
0
TEXT
5
ada
100
AcDbEntity
8
0-303
62
2
100
AcDbText
10
762.832
20
249.909
30
0.0
40
9.750
1
外壁材
41
1.100
50
0.000
100
AcDbText
0
TEXT
5
adb
100
AcDbEntity
8
0-505
62
7
100
AcDbText
10
1399.083
20
300.822
30
0.0
40
5.850
1
木下地２４×６０
41
1.167
50
0.000
100
AcDbText
0
TEXT
5
adc
100
AcDbEntity
8
0-505
62
2
100
AcDbText
10
1370.109
20
433.175
30
0.0
40
9.750
1
外壁材
41
1.100
50
0.000
100
AcDbText
0
TEXT
5
add
100
AcDbEntity
8
0-505
62
2
100
AcDbText
10
1324.949
20
367.216
30
0.0
40
9.750
1
壁取合雨押（流れ）
41
1.100
50
0.000
100
AcDbText
0
TEXT
5
ade
100
AcDbEntity
8
0-202
62
2
100
AcDbText
10
850.982
20
941.713
30
0.0
40
9.750
1
アスファルトルーフィング９４０
41
1.100
50
0.000
100
AcDbText
0
TEXT
5
adf
100
AcDbEntity
8
0-101
62
2
100
AcDbText
10
344.154
20
392.554
30
0.0
40
9.750
1
アスファルトルーフィング９４０
41
1.100
50
0.000
100
AcDbText
0
TEXT
5
ae0
100
AcDbEntity
8
0-404
62
2
100
AcDbText
10
1370.706
20
876.612
30
0.0
40
9.750
1
八千代折り
41
1.100
50
0.000
100
AcDbText
0
TEXT
5
ae1
100
AcDbEntity
8
0-404
62
2
100
AcDbText
10
1411.184
20
760.213
30
0.0
40
9.750
1
野地板材
41
1.100
50
0.000
100
AcDbText
0
TEXT
5
ae2
100
AcDbEntity
8
0-404
62
2
100
AcDbText
10
1354.103
20
731.367
30
0.0
40
9.750
1
アスファルトルーフィング９４０
41
1.100
50
0.000
100
AcDbText
0
TEXT
5
ae3
100
AcDbEntity
8
0-505
62
2
100
AcDbText
10
1208.421
20
222.915
30
0.0
40
9.750
1
アスファルトルーフィング９４０
41
1.100
50
0.000
100
AcDbText
0
TEXT
5
ae4
100
AcDbEntity
8
0-505
62
2
100
AcDbText
10
1351.916
20
249.942
30
0.0
40
9.750
1
野地板材
41
1.100
50
0.000
100
AcDbText
0
TEXT
5
ae5
100
AcDbEntity
8
0-303
62
2
100
AcDbText
10
895.808
20
327.770
30
0.0
40
9.750
1
アスファルトルーフィング９４０
41
1.100
50
0.000
100
AcDbText
0
TEXT
5
ae6
100
AcDbEntity
8
0-101
62
2
100
AcDbText
10
275.911
20
285.980
30
0.0
40
9.750
1
野地板材
41
1.100
50
0.000
100
AcDbText
0
TEXT
5
ae7
100
AcDbEntity
8
0-101
62
2
100
AcDbText
10
449.167
20
369.527
30
0.0
40
9.750
1
通し唐草（エプロン）
41
1.100
50
0.000
100
AcDbText
0
TEXT
5
ae8
100
AcDbEntity
8
0-101
62
2
100
AcDbText
10
238.014
20
398.538
30
0.0
40
9.750
1
棟　包　み
41
1.100
50
0.000
100
AcDbText
0
TEXT
5
ae9
100
AcDbEntity
8
0-101
62
2
100
AcDbText
10
274.511
20
383.663
30
0.0
40
9.750
1
八千代折り
41
1.100
50
0.000
100
AcDbText
0
TEXT
5
aea
100
AcDbEntity
8
0-808
62
3
100
AcDbText
10
166.352
20
42.403
30
0.0
40
7.800
1
静岡県静岡市流通センター１６番
41
1.125
50
0.000
100
AcDbText
0
TEXT
5
aeb
100
AcDbEntity
8
0-808
62
3
100
AcDbText
10
166.356
20
27.570
30
0.0
40
7.800
1
電話（０５４）２６３－２２８０（代表）
41
1.125
50
0.000
100
AcDbText
0
TEXT
5
aec
100
AcDbEntity
8
0-808
62
7
100
AcDbText
10
531.856
20
74.854
30
0.0
40
5.850
1
変　　　　　　更　　　　　　記　　　　　　事
41
1.167
50
0.000
100
AcDbText
0
TEXT
5
aed
100
AcDbEntity
8
0-808
62
7
100
AcDbText
10
815.591
20
74.054
30
0.0
40
5.850
1
受領　　日附
41
1.167
50
0.000
100
AcDbText
0
TEXT
5
aee
100
AcDbEntity
8
0-808
62
7
100
AcDbText
10
1013.808
20
44.622
30
0.0
40
5.850
1
施工者
41
1.167
50
0.000
100
AcDbText
0
TEXT
5
aef
100
AcDbEntity
8
0-808
62
7
100
AcDbText
10
1013.808
20
74.252
30
0.0
40
5.850
1
設計者
41
1.167
50
0.000
100
AcDbText
0
TEXT
5
af0
100
AcDbEntity
8
0-808
62
7
100
AcDbText
10
1219.291
20
44.079
30
0.0
40
5.850
1
作図
41
1.167
50
0.000
100
AcDbText
0
TEXT
5
af1
100
AcDbEntity
8
0-808
62
7
100
AcDbText
10
1291.118
20
44.610
30
0.0
40
5.850
1
図面名
41
1.167
50
0.000
100
AcDbText
0
TEXT
5
af2
100
AcDbEntity
8
0-808
62
7
100
AcDbText
10
1219.291
20
73.709
30
0.0
40
5.850
1
日附
41
1.167
50
0.000
100
AcDbText
0
TEXT
5
af3
100
AcDbEntity
8
0-808
62
7
100
AcDbText
10
1291.118
20
74.239
30
0.0
40
5.850
1
工事件名
41
1.167
50
0.000
100
AcDbText
0
TEXT
5
af4
100
AcDbEntity
8
0-808
62
7
100
AcDbText
10
1241.427
20
73.457
30
0.0
40
5.850
1
年　月　日
41
1.167
50
0.000
100
AcDbText
0
TEXT
5
af5
100
AcDbEntity
8
0-808
62
7
100
AcDbText
10
1241.427
20
43.827
30
0.0
40
5.850
1
年　月　日
41
1.167
50
0.000
100
AcDbText
0
TEXT
5
af6
100
AcDbEntity
8
0-808
62
7
100
AcDbText
10
1543.461
20
74.239
30
0.0
40
5.850
1
設計番号
41
1.167
50
0.000
100
AcDbText
0
TEXT
5
af7
100
AcDbEntity
8
0-808
62
7
100
AcDbText
10
1543.461
20
44.610
30
0.0
40
5.850
1
縮　尺
41
1.167
50
0.000
100
AcDbText
0
TEXT
5
af8
100
AcDbEntity
8
0-808
62
7
100
AcDbText
10
386.778
20
67.470
30
0.0
40
5.850
1
. 　.　 
41
1.167
50
0.000
100
AcDbText
0
TEXT
5
af9
100
AcDbEntity
8
0-808
62
7
100
AcDbText
10
386.778
20
57.594
30
0.0
40
5.850
1
. 　.　 
41
1.167
50
0.000
100
AcDbText
0
TEXT
5
afa
100
AcDbEntity
8
0-808
62
7
100
AcDbText
10
386.778
20
47.717
30
0.0
40
5.850
1
. 　.　 
41
1.167
50
0.000
100
AcDbText
0
TEXT
5
afb
100
AcDbEntity
8
0-808
62
7
100
AcDbText
10
386.778
20
37.840
30
0.0
40
5.850
1
. 　.　 
41
1.167
50
0.000
100
AcDbText
0
TEXT
5
afc
100
AcDbEntity
8
0-808
62
7
100
AcDbText
10
386.778
20
27.963
30
0.0
40
5.850
1
. 　.　 
41
1.167
50
0.000
100
AcDbText
0
TEXT
5
afd
100
AcDbEntity
8
0-808
62
3
100
AcDbText
10
1034.071
20
61.176
30
0.0
40
7.800
1
　　　　　　　　　　
41
1.125
50
0.000
100
AcDbText
0
TEXT
5
afe
100
AcDbEntity
8
0-808
62
3
100
AcDbText
10
1034.071
20
31.546
30
0.0
40
7.800
1
　　　　　　　　　　
41
1.125
50
0.000
100
AcDbText
0
TEXT
5
aff
100
AcDbEntity
8
0-808
62
3
100
AcDbText
10
1317.534
20
62.723
30
0.0
40
7.800
1
　　　　　　　　　　　　　
41
1.125
50
0.000
100
AcDbText
0
TEXT
5
b00
100
AcDbEntity
8
0-808
62
7
100
AcDbText
10
377.806
20
74.789
30
0.0
40
5.850
1
年　月　日
41
1.167
50
0.000
100
AcDbText
0
TEXT
5
b01
100
AcDbEntity
8
0-808
62
7
100
AcDbText
10
872.762
20
73.470
30
0.0
40
5.850
1
年　　月　　日
41
1.167
50
0.000
100
AcDbText
0
TEXT
5
b02
100
AcDbEntity
8
0-808
62
7
100
AcDbText
10
885.314
20
63.047
30
0.0
40
5.850
1
.　 　.
41
1.167
50
0.000
100
AcDbText
0
TEXT
5
b03
100
AcDbEntity
8
0-808
62
7
100
AcDbText
10
815.591
20
44.425
30
0.0
40
5.850
1
受領　　日附
41
1.167
50
0.000
100
AcDbText
0
TEXT
5
b04
100
AcDbEntity
8
0-808
62
7
100
AcDbText
10
872.762
20
43.840
30
0.0
40
5.850
1
年　　月　　日
41
1.167
50
0.000
100
AcDbText
0
TEXT
5
b05
100
AcDbEntity
8
0-808
62
7
100
AcDbText
10
885.314
20
33.418
30
0.0
40
5.850
1
.　 　.
41
1.167
50
0.000
100
AcDbText
0
TEXT
5
b06
100
AcDbEntity
8
0-808
62
7
100
AcDbText
10
1248.199
20
61.334
30
0.0
40
5.850
1
.　　.　
41
1.167
50
0.000
100
AcDbText
0
TEXT
5
b07
100
AcDbEntity
8
0-808
62
6
100
AcDbText
10
114.146
20
58.763
30
0.0
40
15.600
1
小　池　弥　太　郎　商　店
41
1.125
50
0.000
100
AcDbText
0
TEXT
5
b08
100
AcDbEntity
8
0-606
62
2
100
AcDbText
10
374.724
20
757.517
30
0.0
40
9.750
1
２０
41
1.100
50
90.000
100
AcDbText
0
TEXT
5
b09
100
AcDbEntity
8
0-404
62
2
100
AcDbText
10
1300.205
20
894.651
30
0.0
40
9.750
1
壁取合雨押（水上）
41
1.100
50
0.000
100
AcDbText
0
TEXT
5
b0a
100
AcDbEntity
8
0-000
62
2
100
AcDbText
10
277.467
20
994.767
30
0.0
40
9.750
1
アスファルトルーフィング９４０
41
1.100
50
0.000
100
AcDbText
0
TEXT
5
b0b
100
AcDbEntity
8
0-000
62
2
100
AcDbText
10
265.113
20
910.456
30
0.0
40
9.750
1
野地板材
41
1.100
50
0.000
100
AcDbText
0
TEXT
5
b0c
100
AcDbEntity
8
0-000
62
2
100
AcDbText
10
273.822
20
1055.632
30
0.0
40
9.750
1
３３０（３２８．８）
41
1.100
50
0.000
100
AcDbText
0
TEXT
5
b0d
100
AcDbEntity
8
0-000
62
2
100
AcDbText
10
201.349
20
970.262
30
0.0
40
9.750
1
２０
41
1.100
50
90.000
100
AcDbText
0
TEXT
5
b0e
100
AcDbEntity
8
0-606
62
2
100
AcDbText
10
349.752
20
757.517
30
0.0
40
9.750
1
１８
41
1.100
50
90.000
100
AcDbText
0
TEXT
5
b0f
100
AcDbEntity
8
0-101
62
2
100
AcDbText
10
110.479
20
359.668
30
0.0
40
9.750
1
ＤＫライン３３０
41
1.100
50
0.000
100
AcDbText
0
TEXT
5
b10
100
AcDbEntity
8
0-000
62
2
100
AcDbText
10
214.300
20
1010.780
30
0.0
40
9.750
1
ＤＫライン３３０
41
1.100
50
0.000
100
AcDbText
0
TEXT
5
b11
100
AcDbEntity
8
0-000
62
2
100
AcDbText
10
496.475
20
1056.205
30
0.0
40
9.750
1
＠３３０
41
1.100
50
0.000
100
AcDbText
0
TEXT
5
b12
100
AcDbEntity
8
0-808
62
2
100
AcDbText
10
230.996
20
587.583
30
0.0
40
9.750
1
ＤＫライン３３０　棟部納め図
41
1.100
50
0.000
100
AcDbText
0
TEXT
5
b13
100
AcDbEntity
8
0-202
62
2
100
AcDbText
10
732.513
20
918.400
30
0.0
40
9.750
1
ＤＫライン３３０
41
1.100
50
0.000
100
AcDbText
0
TEXT
5
b14
100
AcDbEntity
8
0-808
62
2
100
AcDbText
10
756.626
20
1117.957
30
0.0
40
9.750
1
ＤＫライン３３０　軒先部納め図
41
1.100
50
0.000
100
AcDbText
0
TEXT
5
b15
100
AcDbEntity
8
0-404
62
2
100
AcDbText
10
1196.494
20
821.795
30
0.0
40
9.750
1
ＤＫライン３３０
41
1.100
50
0.000
100
AcDbText
0
TEXT
5
b16
100
AcDbEntity
8
0-808
62
2
100
AcDbText
10
1282.255
20
1117.957
30
0.0
40
9.750
1
ＤＫライン３３０　壁取合部（水上）納め図
41
1.100
50
0.000
100
AcDbText
0
TEXT
5
b17
100
AcDbEntity
8
0-303
62
2
100
AcDbText
10
895.709
20
421.183
30
0.0
40
9.750
1
ＤＫライン３３０
41
1.100
50
0.000
100
AcDbText
0
TEXT
5
b18
100
AcDbEntity
8
0-303
62
2
100
AcDbText
10
894.721
20
446.655
30
0.0
40
9.750
1
＠３３０
41
1.100
50
0.000
100
AcDbText
0
TEXT
5
b19
100
AcDbEntity
8
0-808
62
2
100
AcDbText
10
756.626
20
587.583
30
0.0
40
9.750
1
ＤＫライン３３０　けらば部納め図
41
1.100
50
0.000
100
AcDbText
0
TEXT
5
b1a
100
AcDbEntity
8
0-808
62
2
100
AcDbText
10
1282.255
20
587.583
30
0.0
40
9.750
1
ＤＫライン３３０　壁取合部（流れ）納め図
41
1.100
50
0.000
100
AcDbText
0
TEXT
5
b1b
100
AcDbEntity
8
0-505
62
2
100
AcDbText
10
1198.206
20
342.078
30
0.0
40
9.750
1
ＤＫライン３３０
41
1.100
50
0.000
100
AcDbText
0
TEXT
5
b1c
100
AcDbEntity
8
0-000
62
2
100
AcDbText
10
95.669
20
1056.205
30
0.0
40
9.750
1
＠３３０
41
1.100
50
0.000
100
AcDbText
0
TEXT
5
b1d
100
AcDbEntity
8
0-101
62
2
100
AcDbText
10
222.729
20
433.650
30
0.0
40
9.750
1
１５０
41
1.100
50
11.310
100
AcDbText
0
TEXT
5
b1e
100
AcDbEntity
8
0-101
62
2
100
AcDbText
10
402.324
20
439.926
30
0.0
40
9.750
1
１５０
41
1.100
50
348.690
100
AcDbText
0
TEXT
5
b1f
100
AcDbEntity
8
0-808
62
3
100
AcDbText
10
1566.700
20
40.449
30
0.0
40
7.800
1
Ａ１－１／２　
41
1.125
50
0.000
100
AcDbText
0
TEXT
5
b20
100
AcDbEntity
8
0-808
62
3
100
AcDbText
10
1566.700
20
25.634
30
0.0
40
7.800
1
Ａ３－１／４　
41
1.125
50
0.000
100
AcDbText
0
TEXT
5
b21
100
AcDbEntity
8
0-808
62
2
100
AcDbText
10
230.996
20
1117.957
30
0.0
40
9.750
1
ＤＫライン３３０　嵌合断面図
41
1.100
50
0.000
100
AcDbText
0
TEXT
5
b22
100
AcDbEntity
8
0-808
62
3
100
AcDbText
10
1557.545
20
60.854
30
0.0
40
7.800
1
ＫＲ－ＤＫ－０２
41
1.125
50
0.000
100
AcDbText
0
TEXT
5
b23
100
AcDbEntity
8
0-404
62
2
100
AcDbText
10
1506.069
20
873.155
30
0.0
40
9.750
1
１５０以上
41
1.100
50
90.000
100
AcDbText
0
TEXT
5
b24
100
AcDbEntity
8
0-404
62
2
100
AcDbText
10
1531.789
20
843.155
30
0.0
40
9.750
1
下葺材２５０以上
41
1.100
50
90.000
100
AcDbText
0
TEXT
5
b25
100
AcDbEntity
8
0-808
62
7
100
AcDbText
10
1222.482
20
30.668
30
0.0
40
5.850
1
MA 2024-07-11  
41
1.167
50
0.000
100
AcDbText
0
TEXT
5
b26
100
AcDbEntity
8
0-808
62
3
100
AcDbText
10
1317.534
20
33.093
30
0.0
40
7.800
1
コイケルーフ　ＤＫライン３３０　参考納め図
41
1.125
50
0.000
100
AcDbText
0
TEXT
5
b27
100
AcDbEntity
8
0-505
62
2
100
AcDbText
10
1506.069
20
342.462
30
0.0
40
9.750
1
１５０以上
41
1.100
50
90.000
100
AcDbText
0
TEXT
5
b28
100
AcDbEntity
8
0-505
62
2
100
AcDbText
10
1533.808
20
310.004
30
0.0
40
9.750
1
下葺材２５０以上
41
1.100
50
90.000
100
AcDbText
0
TEXT
5
b29
100
AcDbEntity
8
0-202
62
2
100
AcDbText
10
654.173
20
899.897
30
0.0
40
9.750
1
化粧ｷｬｯﾌﾟ
41
1.100
50
0.000
100
AcDbText
0
TEXT
5
b2a
100
AcDbEntity
8
0-202
62
3
100
AcDbText
10
646.203
20
888.466
30
0.0
40
7.800
1
（サン魅せる）
41
1.125
50
0.000
100
AcDbText
0
POINT
5
b2b
100
AcDbEntity
8
0-303
62
3
100
AcDbPoint
10
734.430000000000
20
444.540000000000
30
0.0
0
POINT
5
b2c
100
AcDbEntity
8
0-303
62
3
100
AcDbPoint
10
734.430000000000
20
444.540000000000
30
0.0
0
POINT
5
b2d
100
AcDbEntity
8
0-303
62
3
100
AcDbPoint
10
866.930000000000
20
444.540000000000
30
0.0
0
POINT
5
b2e
100
AcDbEntity
8
0-202
62
3
100
AcDbPoint
10
707.210000000000
20
953.030000000000
30
0.0
0
POINT
5
b2f
100
AcDbEntity
8
0-202
62
3
100
AcDbPoint
10
826.890000000000
20
976.960000000000
30
0.0
0
POINT
5
b30
100
AcDbEntity
8
0-404
62
3
100
AcDbPoint
10
1269.490000000000
20
944.070000000000
30
0.0
0
POINT
5
b31
100
AcDbEntity
8
0-404
62
3
100
AcDbPoint
10
1434.270000000000
20
977.030000000000
30
0.0
0
POINT
5
b32
100
AcDbEntity
8
0-404
62
3
100
AcDbPoint
10
1507.070000000000
20
848.910000000000
30
0.0
0
POINT
5
b33
100
AcDbEntity
8
0-101
62
3
100
AcDbPoint
10
312.760000000000
20
451.230000000000
30
0.0
0
POINT
5
b34
100
AcDbEntity
8
0-101
62
3
100
AcDbPoint
10
163.710000000000
20
421.420000000000
30
0.0
0
POINT
5
b35
100
AcDbEntity
8
0-505
62
3
100
AcDbPoint
10
1519.570000000000
20
419.610000000000
30
0.0
0
POINT
5
b36
100
AcDbEntity
8
0-101
62
3
100
AcDbPoint
10
343.670000000000
20
451.230000000000
30
0.0
0
POINT
5
b37
100
AcDbEntity
8
0-101
62
3
100
AcDbPoint
10
492.730000000000
20
421.420000000000
30
0.0
0
POINT
5
b38
100
AcDbEntity
8
0-606
62
3
100
AcDbPoint
10
375.720000000000
20
746.470000000000
30
0.0
0
POINT
5
b39
100
AcDbEntity
8
0-606
62
3
100
AcDbPoint
10
375.720000000000
20
787.070000000000
30
0.0
0
POINT
5
b3a
100
AcDbEntity
8
0-000
62
3
100
AcDbPoint
10
153.170000000000
20
1054.630000000000
30
0.0
0
POINT
5
b3b
100
AcDbEntity
8
0-000
62
3
100
AcDbPoint
10
481.970000000000
20
1054.630000000000
30
0.0
0
POINT
5
b3c
100
AcDbEntity
8
0-000
62
3
100
AcDbPoint
10
202.170000000000
20
969.310000000000
30
0.0
0
POINT
5
b3d
100
AcDbEntity
8
0-000
62
3
100
AcDbPoint
10
202.170000000000
20
989.910000000000
30
0.0
0
POINT
5
b3e
100
AcDbEntity
8
0-606
62
3
100
AcDbPoint
10
350.750000000000
20
750.470000000000
30
0.0
0
POINT
5
b3f
100
AcDbEntity
8
0-606
62
3
100
AcDbPoint
10
350.750000000000
20
787.070000000000
30
0.0
0
POINT
5
b40
100
AcDbEntity
8
0-404
62
3
100
AcDbPoint
10
1507.070000000000
20
998.910000000000
30
0.0
0
POINT
5
b41
100
AcDbEntity
8
0-404
62
3
100
AcDbPoint
10
1532.790000000000
20
823.760000000000
30
0.0
0
POINT
5
b42
100
AcDbEntity
8
0-505
62
3
100
AcDbPoint
10
1507.070000000000
20
468.210000000000
30
0.0
0
POINT
5
b43
100
AcDbEntity
8
0-505
62
3
100
AcDbPoint
10
1507.070000000000
20
318.210000000000
30
0.0
0
POINT
5
b44
100
AcDbEntity
8
0-505
62
3
100
AcDbPoint
10
1507.070000000000
20
468.210000000000
30
0.0
0
POINT
5
b45
100
AcDbEntity
8
0-505
62
3
100
AcDbPoint
10
1534.810000000000
20
290.610000000000
30
0.0
0
ENDSEC
0
EOF
