0
SECTION
2
HEADER
9
$ACADVER
1
AC1015
9
$ACADMAINTVER
 70
6
9
$DWGCODEPAGE
3
ANSI_932
9
$EXTMIN
10
0.000
20
0.000
30
0.0
9
$EXTMAX
10
2378.000
20
1682.000
30
0.0
9
$LIMMIN
10
0.000
20
0.000
9
$LIMMAX
10
2378.000
20
1682.000
9
$DIMSCALE
40
2.000000
9
$LTSCALE
40
2.000
9
$PDMODE
70
0
9
$PDSIZE
40
40.0
9
$HANDSEED
5
6218b
9
$UNITMODE
70
0
9
$VISRETAIN
70
0
9
$PLINEGEN
70
0
9
$PSLTSCALE
70
1
9
$TREEDEPTH
70
3020
9
$CMLSTYLE
2
STANDARD
9
$CMLJUST
70
0
9
$CMLSCALE
40
1.0
9
$PROXYGRAPHICS
70
1
9
$MEASUREMENT
70
0
9
$CELWEIGHT
370
-1
9
$ENDCAPS
280
0
9
$JOINSTYLE
280
0
9
$LWDISPLAY
290
0
9
$INSUNITS
70
0
9
$HYPERLINKBASE
1

9
$STYLESHEET
1

9
$XEDIT
290
1
9
$CEPSNTYPE
380
0
9
$PSTYLEMODE
290
1
9
$FINGERPRINTGUID
2
{5F082321-0195-11D3-BDFB-0060B0CD5109}
9
$VERSIONGUID
2
{12943756-294D-11D3-98C2-0060B087942D}
9
$EXTNAMES
290
1
9
$PSVPSCALE
40
0.0
9
$OLESTARTUP
290
0
0
ENDSEC
0
SECTION
  2
CLASSES
0
ENDSEC
0
SECTION
2
TABLES
0
TABLE
2
VPORT
5
190
100
AcDbSymbolTable
70
2
0
VPORT
5
191
100
AcDbSymbolTableRecord
100
AcDbViewportTableRecord
2
*ACTIVE
70
0
10
0.0
20
0.0
11
1.0
21
1.0
12
1189.000
22
841.000
13
0.0
23
0.0
14
1.0
24
1.0
15
0.0
25
0.0
16
0.0
26
0.0
36
1.0
17
0.0
27
0.0
37
0.0
40
1723.188
41
2.0
42
50.0
43
0.0
44
0.0
50
0.0
51
0.0
71
0
72
1000
73
1
74
1
75
0
76
0
77
0
78
0
0
ENDTAB
0
TABLE
2
LTYPE
5
1f4
100
AcDbSymbolTable
70
9
0
LTYPE
5
1f5
100
AcDbSymbolTableRecord
100
AcDbLinetypeTableRecord
2
BYBLOCK
70
 64
3

72
 65
73
  0
40
0.0
0
LTYPE
5
1f6
100
AcDbSymbolTableRecord
100
AcDbLinetypeTableRecord
2
BYLAYER
70
 64
3

72
 65
73
  0
40
0.0
0
LTYPE
5
1f7
100
AcDbSymbolTableRecord
100
AcDbLinetypeTableRecord
2
CONTINUOUS
70
64
3
SolidLine
72
65
73
0
40
0.0
0
LTYPE
5
1f8
100
AcDbSymbolTableRecord
100
AcDbLinetypeTableRecord
2
DOT
70
64
3
--  --  --  --  --  --  --  --     
72
65
73
2
40
3.000
49
1.000
74
0
49
-2.000
74
0
0
LTYPE
5
1f9
100
AcDbSymbolTableRecord
100
AcDbLinetypeTableRecord
2
DASHED
70
64
3
----    ----    ----    ----    
72
65
73
2
40
5.000
49
2.000
74
0
49
-3.000
74
0
0
LTYPE
5
1fa
100
AcDbSymbolTableRecord
100
AcDbLinetypeTableRecord
2
DASHED2
70
64
3
------  ------  ------  ------ 
72
65
73
2
40
10.000
49
4.000
74
0
49
-6.000
74
0
0
LTYPE
5
1fb
100
AcDbSymbolTableRecord
100
AcDbLinetypeTableRecord
2
CENTER
70
64
3
----- - ----- - ----- - ----- - 
72
65
73
4
40
10.000
49
6.000
74
0
49
-3.000
74
0
49
1.000
74
0
49
-3.000
74
0
0
LTYPE
5
1fc
100
AcDbSymbolTableRecord
100
AcDbLinetypeTableRecord
2
CENTER2
70
64
3
----------  --  ----------  -- 
72
65
73
4
40
17.000
49
12.000
74
0
49
-5.000
74
0
49
2.000
74
0
49
-5.000
74
0
0
LTYPE
5
1fd
100
AcDbSymbolTableRecord
100
AcDbLinetypeTableRecord
2
PHANTOM
70
64
3
--- - - --- - - --- - - --- - -
72
65
73
6
40
13.000
49
5.000
74
0
49
-3.000
74
0
49
1.000
74
0
49
-3.000
74
0
49
1.000
74
0
49
-3.000
74
0
0
LTYPE
5
1fe
100
AcDbSymbolTableRecord
100
AcDbLinetypeTableRecord
2
PHANTOM2
70
64
3
--------  -  -  --------  -  -
72
65
73
6
40
20.000
49
6.000
74
0
49
-5.000
74
0
49
2.000
74
0
49
-5.000
74
0
49
2.000
74
0
49
-5.000
74
0
0
LTYPE
5
1ff
100
AcDbSymbolTableRecord
100
AcDbLinetypeTableRecord
2
HIDDEN
70
64
3
-   -   -   -   -   -   -   -   
72
65
73
2
40
3.000
49
0.500
74
0
49
-2.500
74
0
0
ENDTAB
0
TABLE
2
STYLE
5
200
100
AcDbSymbolTable
70
1
0
STYLE
5
201
100
AcDbSymbolTableRecord
100
AcDbTextStyleTableRecord
2
STANDARD
70
0
40
0.0
41
1.0
50
0.0
71
0
42
0.0
3
txt.shx
4
extfont.shx
0
STYLE
5
202
100
AcDbSymbolTableRecord
100
AcDbTextStyleTableRecord
2
TATEGAKI
70
4
40
0.0
41
1.0
50
0.0
71
0
42
0.0
3
txt.shx
4
extfont.shx
0
STYLE
5
203
100
AcDbSymbolTableRecord
100
AcDbTextStyleTableRecord
2
DIM
70
0
40
0.0
41
0.75
50
0.0
71
0
42
0.0
3
txt.shx
4
extfont.shx
0
STYLE
5
204
100
AcDbSymbolTableRecord
100
AcDbTextStyleTableRecord
2
_Gothic_
70
0
40
1.0
41
1.0
50
0.0
71
0
42
10.0
3

4

1001
ACAD
1000
MS Gothic
1071
32817
0
STYLE
5
205
100
AcDbSymbolTableRecord
100
AcDbTextStyleTableRecord
2
_TateGothic_
70
4
40
0.0
41
1.0
50
0.0
71
0
42
0.0
3
@MS Gothic
4

0
ENDTAB
0
TABLE
2
VIEW
5
206
100
AcDbSymbolTable
70
0
0
ENDTAB
0
TABLE
2
UCS
5
207
100
AcDbSymbolTable
70
0
0
ENDTAB
0
TABLE
2
APPID
5
208
100
AcDbSymbolTable
70
1
0
APPID
5
209
100
AcDbSymbolTableRecord
100
AcDbRegAppTableRecord
2
ACAD
70
0
0
ENDTAB
0
TABLE
2
DIMSTYLE
5
403
330
0
100
AcDbSymbolTable
70
1
100
AcDbDimStyleTable
71
0
0
DIMSTYLE
105
404
330
402
100
AcDbSymbolTableRecord
100
AcDbDimStyleTableRecord
2
JAC_DIM
70
0
41
4.000
42
0.000
44
0.0
73
0
74
0
77
1
78
8
79
2
140
0.000
170
0
171
2
172
0
173
0
174
0
175
0
176
0
177
0
178
0
270
2
271
0
272
0
273
2
274
2
340
201
275
0
280
0
281
0
282
0
283
0
284
0
285
0
286
0
287
3
288
0
0
ENDTAB
0
TABLE
2
BLOCK_RECORD
5
405
100
AcDbSymbolTable
70
0
0
BLOCK_RECORD
5
406
100
AcDbSymbolTableRecord
100
AcDbBlockTableRecord
2
*MODEL_SPACE
0
BLOCK_RECORD
5
407
100
AcDbSymbolTableRecord
100
AcDbBlockTableRecord
2
*PAPER_SPACE
0
BLOCK_RECORD
5
408
100
AcDbSymbolTableRecord
100
AcDbBlockTableRecord
2
_JACCONVERT_
0
ENDTAB
0
TABLE
2
LAYER
5
409
100
AcDbSymbolTable
70
10
0
LAYER
5
40a
100
AcDbSymbolTableRecord
100
AcDbLayerTableRecord
2
0
70
0
62
7
6
CONTINUOUS
370
-3
390
14
0
LAYER
5
40b
100
AcDbSymbolTableRecord
100
AcDbLayerTableRecord
2
0-00
70
0
62
7
6
CONTINUOUS
370
-3
390
14
0
LAYER
5
40c
100
AcDbSymbolTableRecord
100
AcDbLayerTableRecord
2
0-1_2_0
70
0
62
7
6
CONTINUOUS
370
-3
390
14
0
LAYER
5
40d
100
AcDbSymbolTableRecord
100
AcDbLayerTableRecord
2
0-2_2_1
70
0
62
7
6
CONTINUOUS
370
-3
390
14
0
LAYER
5
40e
100
AcDbSymbolTableRecord
100
AcDbLayerTableRecord
2
0-4_2_3
70
0
62
7
6
CONTINUOUS
370
-3
390
14
0
LAYER
5
40f
100
AcDbSymbolTableRecord
100
AcDbLayerTableRecord
2
0-6_2_5
70
0
62
7
6
CONTINUOUS
370
-3
390
14
0
LAYER
5
410
100
AcDbSymbolTableRecord
100
AcDbLayerTableRecord
2
0-8_2_7
70
0
62
7
6
CONTINUOUS
370
-3
390
14
0
LAYER
5
411
100
AcDbSymbolTableRecord
100
AcDbLayerTableRecord
2
1-1_2_16
70
0
62
7
6
CONTINUOUS
370
-3
390
14
0
LAYER
5
412
100
AcDbSymbolTableRecord
100
AcDbLayerTableRecord
2
F-E_J_ADD
70
0
62
-7
6
CONTINUOUS
290
0
370
-3
390
14
0
LAYER
5
413
100
AcDbSymbolTableRecord
100
AcDbLayerTableRecord
2
F-F
70
0
62
7
6
CONTINUOUS
370
-3
390
14
0
ENDTAB
0
ENDSEC
0
SECTION
2
BLOCKS
0
BLOCK
5
414
100
AcDbEntity
67
1
8
0
100
AcDbBlockBegin
2
*MODEL_SPACE
70
0
10
0.0
20
0.0
30
0.0
3
*MODEL_SPACE
1

0
ENDBLK
5
415
100
AcDbEntity
8
0
100
AcDbBlockEnd
0
BLOCK
5
416
100
AcDbEntity
67
1
8
0
100
AcDbBlockBegin
2
*PAPER_SPACE
70
0
10
0.0
20
0.0
30
0.0
3
*PAPER_SPACE
1

0
ENDBLK
5
417
100
AcDbEntity
67
1
8
0
100
AcDbBlockEnd
0
BLOCK
5
418
100
AcDbEntity
8
0
100
AcDbBlockBegin
2
_JACCONVERT_
70
2
10
0.0
20
0.0
30
0.0
3
_JACCONVERT_
1
_JACCONVERT_
0
ATTDEF
5
419
100
AcDbEntity
8
0
62
0
100
AcDbText
10
0.0
20
0.0
30
0.0
40
1.0
1
User:460950EB0890EC0964308A
100
AcDbAttributeDefinition
3

2
USER
70
8
0
ATTDEF
5
41a
100
AcDbEntity
8
0
62
0
100
AcDbText
10
0.0
20
2.0
30
0.0
40
1.0
1
Date:15/06/06 14:01
100
AcDbAttributeDefinition
3

2
REVDATE
70
8
0
ATTDEF
5
41b
100
AcDbEntity
8
0
62
0
100
AcDbText
10
0.0
20
4.0
30
0.0
40
1.0
1
File:DKライン330　納め図.dxf
100
AcDbAttributeDefinition
3

2
FNAME
70
8
0
ATTDEF
5
41c
100
AcDbEntity
8
0
62
0
100
AcDbText
10
0.0
20
6.0
30
0.0
40
1.0
1
JacConvert Version3.09 copyright (c) 2001-2013 K.Nakahara
100
AcDbAttributeDefinition
3

2
VER
70
8
0
ENDBLK
5
41d
100
AcDbEntity
67
1
8
0
100
AcDbBlockEnd
0
ENDSEC
0
SECTION
2
ENTITIES
0
LINE
5
41e
100
AcDbEntity
8
0-4_2_3
6
CONTINUOUS
62
3
100
AcDbLine
10
1200.130000000000
20
621.250000000000
30
0.0
11
1154.730000000000
21
621.250000000000
31
0.0
0
LINE
5
41f
100
AcDbEntity
8
0-4_2_3
6
CONTINUOUS
62
3
100
AcDbLine
10
1152.430000000000
20
716.650000000000
30
0.0
11
1152.430000000000
21
621.250000000000
31
0.0
0
LINE
5
420
100
AcDbEntity
8
0-4_2_3
6
CONTINUOUS
62
3
100
AcDbLine
10
1154.730000000000
20
621.250000000000
30
0.0
11
1154.730000000000
21
716.650000000000
31
0.0
0
LINE
5
421
100
AcDbEntity
8
0-4_2_3
6
CONTINUOUS
62
3
100
AcDbLine
10
1200.130000000000
20
718.950000000000
30
0.0
11
1154.730000000000
21
718.950000000000
31
0.0
0
LINE
5
422
100
AcDbEntity
8
0-4_2_3
6
CONTINUOUS
62
3
100
AcDbLine
10
1154.730000000000
20
716.650000000000
30
0.0
11
1200.130000000000
21
716.650000000000
31
0.0
0
LINE
5
423
100
AcDbEntity
8
0-4_2_3
6
CONTINUOUS
62
3
100
AcDbLine
10
1202.430000000000
20
698.950000000000
30
0.0
11
1202.430000000000
21
716.650000000000
31
0.0
0
POLYLINE
5
424
100
AcDbEntity
8
0-4_2_3
6
CONTINUOUS
62
  3
100
AcDb2dPolyline
66
1
10
0.0
20
0.0
30
0.0
70
0
0
VERTEX
5
425
100
AcDbEntity
8
0-4_2_3
6
CONTINUOUS
62
  3
100
AcDbVertex
100
AcDb2dVertex
10
1200.130000000000
20
716.650000000000
30
0.0
0
VERTEX
5
426
100
AcDbEntity
8
0-4_2_3
6
CONTINUOUS
62
  3
100
AcDbVertex
100
AcDb2dVertex
10
1200.130000000000
20
698.950000000000
30
0.0
0
VERTEX
5
427
100
AcDbEntity
8
0-4_2_3
6
CONTINUOUS
62
  3
100
AcDbVertex
100
AcDb2dVertex
10
1202.430000000000
20
698.950000000000
30
0.0
0
SEQEND
5
428
100
AcDbEntity
8
0-4_2_3
0
LINE
5
429
100
AcDbEntity
8
0-4_2_3
6
CONTINUOUS
62
3
100
AcDbLine
10
1200.130000000000
20
638.950000000000
30
0.0
11
1200.130000000000
21
621.250000000000
31
0.0
0
POLYLINE
5
42a
100
AcDbEntity
8
0-4_2_3
6
CONTINUOUS
62
  3
100
AcDb2dPolyline
66
1
10
0.0
20
0.0
30
0.0
70
0
0
VERTEX
5
42b
100
AcDbEntity
8
0-4_2_3
6
CONTINUOUS
62
  3
100
AcDbVertex
100
AcDb2dVertex
10
1202.430000000000
20
621.250000000000
30
0.0
0
VERTEX
5
42c
100
AcDbEntity
8
0-4_2_3
6
CONTINUOUS
62
  3
100
AcDbVertex
100
AcDb2dVertex
10
1202.430000000000
20
638.950000000000
30
0.0
0
VERTEX
5
42d
100
AcDbEntity
8
0-4_2_3
6
CONTINUOUS
62
  3
100
AcDbVertex
100
AcDb2dVertex
10
1200.130000000000
20
638.950000000000
30
0.0
0
SEQEND
5
42e
100
AcDbEntity
8
0-4_2_3
0
LINE
5
42f
100
AcDbEntity
8
0-4_2_3
6
CONTINUOUS
62
3
100
AcDbLine
10
1154.730000000000
20
618.950000000000
30
0.0
11
1200.130000000000
21
618.950000000000
31
0.0
0
LINE
5
430
100
AcDbEntity
8
0-4_2_3
6
CONTINUOUS
62
3
100
AcDbLine
10
1082.430000000000
20
743.950000000000
30
0.0
11
1082.430000000000
21
718.950000000000
31
0.0
0
LINE
5
431
100
AcDbEntity
8
0-4_2_3
6
CONTINUOUS
62
7
100
AcDbLine
10
1082.630000000000
20
703.440000000000
30
0.0
11
1083.230000000000
21
703.440000000000
31
0.0
0
POLYLINE
5
432
100
AcDbEntity
8
0-4_2_3
6
CONTINUOUS
62
  7
100
AcDb2dPolyline
66
1
10
0.0
20
0.0
30
0.0
70
0
0
VERTEX
5
433
100
AcDbEntity
8
0-4_2_3
6
CONTINUOUS
62
  7
100
AcDbVertex
100
AcDb2dVertex
10
1083.830000000000
20
703.380000000000
30
0.0
0
VERTEX
5
434
100
AcDbEntity
8
0-4_2_3
6
CONTINUOUS
62
  7
100
AcDbVertex
100
AcDb2dVertex
10
1083.830000000000
20
711.950000000000
30
0.0
0
VERTEX
5
435
100
AcDbEntity
8
0-4_2_3
6
CONTINUOUS
62
  7
100
AcDbVertex
100
AcDb2dVertex
10
1084.430000000000
20
711.950000000000
30
0.0
0
VERTEX
5
436
100
AcDbEntity
8
0-4_2_3
6
CONTINUOUS
62
  7
100
AcDbVertex
100
AcDb2dVertex
10
1084.430000000000
20
703.440000000000
30
0.0
0
SEQEND
5
437
100
AcDbEntity
8
0-4_2_3
0
LINE
5
438
100
AcDbEntity
8
0-4_2_3
6
CONTINUOUS
62
7
100
AcDbLine
10
1131.280000000000
20
745.740000000000
30
0.0
11
1131.280000000000
21
745.140000000000
31
0.0
0
LINE
5
439
100
AcDbEntity
8
0-4_2_3
6
CONTINUOUS
62
7
100
AcDbLine
10
1075.430000000000
20
741.650000000000
30
0.0
11
1065.290000000000
21
741.650000000000
31
0.0
0
POLYLINE
5
43a
100
AcDbEntity
8
0-4_2_3
6
CONTINUOUS
62
  7
100
AcDb2dPolyline
66
1
10
0.0
20
0.0
30
0.0
70
0
0
VERTEX
5
43b
100
AcDbEntity
8
0-4_2_3
6
CONTINUOUS
62
  7
100
AcDbVertex
100
AcDb2dVertex
10
1075.430000000000
20
741.650000000000
30
0.0
0
VERTEX
5
43c
100
AcDbEntity
8
0-4_2_3
6
CONTINUOUS
62
  7
100
AcDbVertex
100
AcDb2dVertex
10
1075.430000000000
20
741.050000000000
30
0.0
0
VERTEX
5
43d
100
AcDbEntity
8
0-4_2_3
6
CONTINUOUS
62
  7
100
AcDbVertex
100
AcDb2dVertex
10
1065.290000000000
20
741.050000000000
30
0.0
0
SEQEND
5
43e
100
AcDbEntity
8
0-4_2_3
0
LINE
5
43f
100
AcDbEntity
8
0-4_2_3
6
CONTINUOUS
62
7
100
AcDbLine
10
1146.540000000000
20
743.950000000000
30
0.0
11
1070.290000000000
21
744.590000000000
31
0.0
0
LINE
5
440
100
AcDbEntity
8
0-4_2_3
6
CONTINUOUS
62
7
100
AcDbLine
10
1070.290000000000
20
745.190000000000
30
0.0
11
1146.540000000000
21
744.550000000000
31
0.0
0
LINE
5
441
100
AcDbEntity
8
0-4_2_3
6
DASHED
62
7
100
AcDbLine
10
1147.830000000000
20
746.350000000000
30
0.0
11
1151.990000000000
21
744.950000000000
31
0.0
0
LINE
5
442
100
AcDbEntity
8
0-4_2_3
6
DASHED
62
7
100
AcDbLine
10
1129.040000000000
20
745.740000000000
30
0.0
11
1070.290000000000
21
745.740000000000
31
0.0
0
LINE
5
443
100
AcDbEntity
8
0-4_2_3
6
DASHED
62
7
100
AcDbLine
10
1130.840000000000
20
746.350000000000
30
0.0
11
1129.040000000000
21
745.740000000000
31
0.0
0
LINE
5
444
100
AcDbEntity
8
0-4_2_3
6
CONTINUOUS
62
7
100
AcDbLine
10
1131.280000000000
20
745.740000000000
30
0.0
11
1146.540000000000
21
745.740000000000
31
0.0
0
LINE
5
445
100
AcDbEntity
8
0-4_2_3
6
CONTINUOUS
62
7
100
AcDbLine
10
1146.540000000000
20
745.150000000000
30
0.0
11
1131.280000000000
21
745.150000000000
31
0.0
0
LINE
5
446
100
AcDbEntity
8
0-4_2_3
6
DASHED
62
7
100
AcDbLine
10
1130.840000000000
20
746.350000000000
30
0.0
11
1147.830000000000
21
746.350000000000
31
0.0
0
LINE
5
447
100
AcDbEntity
8
0-4_2_3
6
CONTINUOUS
62
7
100
AcDbLine
10
1081.430000000000
20
703.330000000000
30
0.0
11
1081.430000000000
21
742.190000000000
31
0.0
0
LINE
5
448
100
AcDbEntity
8
0-4_2_3
6
CONTINUOUS
62
7
100
AcDbLine
10
1082.030000000000
20
742.190000000000
30
0.0
11
1082.030000000000
21
703.440000000000
31
0.0
0
LINE
5
449
100
AcDbEntity
8
0-4_2_3
6
CONTINUOUS
62
7
100
AcDbLine
10
1081.430000000000
20
742.790000000000
30
0.0
11
1065.290000000000
21
742.790000000000
31
0.0
0
LINE
5
44a
100
AcDbEntity
8
0-4_2_3
6
CONTINUOUS
62
7
100
AcDbLine
10
1065.290000000000
20
744.590000000000
30
0.0
11
1070.290000000000
21
744.590000000000
31
0.0
0
LINE
5
44b
100
AcDbEntity
8
0-4_2_3
6
CONTINUOUS
62
7
100
AcDbLine
10
1070.290000000000
20
745.190000000000
30
0.0
11
1065.290000000000
21
745.190000000000
31
0.0
0
LINE
5
44c
100
AcDbEntity
8
0-4_2_3
6
CONTINUOUS
62
7
100
AcDbLine
10
1081.430000000000
20
742.190000000000
30
0.0
11
1065.290000000000
21
742.190000000000
31
0.0
0
LINE
5
44d
100
AcDbEntity
8
0-4_2_3
6
CONTINUOUS
62
7
100
AcDbLine
10
1065.280000000000
20
746.770000000000
30
0.0
11
1070.260000000000
21
746.770000000000
31
0.0
0
LINE
5
44e
100
AcDbEntity
8
0-4_2_3
6
CONTINUOUS
62
7
100
AcDbLine
10
1083.230000000000
20
703.440000000000
30
0.0
11
1083.230000000000
21
717.950000000000
31
0.0
0
LINE
5
44f
100
AcDbEntity
8
0-4_2_3
6
CONTINUOUS
62
7
100
AcDbLine
10
1082.630000000000
20
717.950000000000
30
0.0
11
1082.630000000000
21
703.440000000000
31
0.0
0
LINE
5
450
100
AcDbEntity
8
0-4_2_3
6
CONTINUOUS
62
7
100
AcDbLine
10
1132.430000000000
20
716.650000000000
30
0.0
11
1132.430000000000
21
544.180000000000
31
0.0
0
LINE
5
451
100
AcDbEntity
8
0-4_2_3
6
CONTINUOUS
62
7
100
AcDbLine
10
1065.280000000000
20
746.170000000000
30
0.0
11
1070.280000000000
21
746.170000000000
31
0.0
0
LINE
5
452
100
AcDbEntity
8
0-4_2_3
6
CONTINUOUS
62
7
100
AcDbLine
10
1083.230000000000
20
717.950000000000
30
0.0
11
1130.230000000000
21
717.950000000000
31
0.0
0
LINE
5
453
100
AcDbEntity
8
0-4_2_3
6
CONTINUOUS
62
7
100
AcDbLine
10
1130.230000000000
20
718.550000000000
30
0.0
11
1083.230000000000
21
718.550000000000
31
0.0
0
LINE
5
454
100
AcDbEntity
8
0-4_2_3
6
CONTINUOUS
62
7
100
AcDbLine
10
1130.230000000000
20
668.950000000000
30
0.0
11
1130.230000000000
21
717.950000000000
31
0.0
0
LINE
5
455
100
AcDbEntity
8
0-4_2_3
6
CONTINUOUS
62
7
100
AcDbLine
10
1130.830000000000
20
717.950000000000
30
0.0
11
1130.830000000000
21
668.950000000000
31
0.0
0
POLYLINE
5
456
100
AcDbEntity
8
0-4_2_3
6
CONTINUOUS
62
  7
100
AcDb2dPolyline
66
1
10
0.0
20
0.0
30
0.0
70
0
0
VERTEX
5
457
100
AcDbEntity
8
0-4_2_3
6
CONTINUOUS
62
  7
100
AcDbVertex
100
AcDb2dVertex
10
1131.430000000000
20
668.950000000000
30
0.0
0
VERTEX
5
458
100
AcDbEntity
8
0-4_2_3
6
CONTINUOUS
62
  7
100
AcDbVertex
100
AcDb2dVertex
10
1131.430000000000
20
678.950000000000
30
0.0
0
VERTEX
5
459
100
AcDbEntity
8
0-4_2_3
6
CONTINUOUS
62
  7
100
AcDbVertex
100
AcDb2dVertex
10
1132.030000000000
20
678.950000000000
30
0.0
0
VERTEX
5
45a
100
AcDbEntity
8
0-4_2_3
6
CONTINUOUS
62
  7
100
AcDbVertex
100
AcDb2dVertex
10
1132.030000000000
20
668.950000000000
30
0.0
0
SEQEND
5
45b
100
AcDbEntity
8
0-4_2_3
0
LINE
5
45c
100
AcDbEntity
8
0-4_2_3
6
CONTINUOUS
62
3
100
AcDbLine
10
1279.710000000000
20
718.950000000000
30
0.0
11
1082.430000000000
21
718.950000000000
31
0.0
0
LINE
5
45d
100
AcDbEntity
8
0-4_2_3
6
CONTINUOUS
62
7
100
AcDbLine
10
1147.430000000000
20
716.650000000000
30
0.0
11
1132.430000000000
21
716.650000000000
31
0.0
0
LINE
5
45e
100
AcDbEntity
8
0-4_2_3
6
CONTINUOUS
62
7
100
AcDbLine
10
1147.430000000000
20
716.650000000000
30
0.0
11
1147.430000000000
21
544.180000000000
31
0.0
0
LINE
5
45f
100
AcDbEntity
8
0-4_2_3
6
DASHED
62
7
100
AcDbLine
10
1279.710000000000
20
744.950000000000
30
0.0
11
1151.990000000000
21
744.950000000000
31
0.0
0
LINE
5
460
100
AcDbEntity
8
0-4_2_3
6
CONTINUOUS
62
4
100
AcDbLine
10
1271.250000000000
20
718.950000000000
30
0.0
11
1279.710000000000
21
727.420000000000
31
0.0
0
LINE
5
461
100
AcDbEntity
8
0-4_2_3
6
CONTINUOUS
62
4
100
AcDbLine
10
1242.960000000000
20
718.950000000000
30
0.0
11
1267.960000000000
21
743.950000000000
31
0.0
0
LINE
5
462
100
AcDbEntity
8
0-4_2_3
6
CONTINUOUS
62
4
100
AcDbLine
10
1214.680000000000
20
718.950000000000
30
0.0
11
1239.680000000000
21
743.950000000000
31
0.0
0
LINE
5
463
100
AcDbEntity
8
0-4_2_3
6
CONTINUOUS
62
4
100
AcDbLine
10
1186.400000000000
20
718.950000000000
30
0.0
11
1211.390000000000
21
743.950000000000
31
0.0
0
LINE
5
464
100
AcDbEntity
8
0-4_2_3
6
CONTINUOUS
62
4
100
AcDbLine
10
1158.110000000000
20
718.950000000000
30
0.0
11
1183.110000000000
21
743.950000000000
31
0.0
0
LINE
5
465
100
AcDbEntity
8
0-4_2_3
6
CONTINUOUS
62
4
100
AcDbLine
10
1129.830000000000
20
718.950000000000
30
0.0
11
1154.830000000000
21
743.950000000000
31
0.0
0
LINE
5
466
100
AcDbEntity
8
0-4_2_3
6
CONTINUOUS
62
4
100
AcDbLine
10
1101.540000000000
20
718.950000000000
30
0.0
11
1126.540000000000
21
743.950000000000
31
0.0
0
LINE
5
467
100
AcDbEntity
8
0-4_2_3
6
CONTINUOUS
62
4
100
AcDbLine
10
1082.430000000000
20
728.130000000000
30
0.0
11
1098.260000000000
21
743.950000000000
31
0.0
0
LINE
5
468
100
AcDbEntity
8
0-4_2_3
6
CONTINUOUS
62
4
100
AcDbLine
10
1085.530000000000
20
743.950000000000
30
0.0
11
1110.530000000000
21
718.950000000000
31
0.0
0
LINE
5
469
100
AcDbEntity
8
0-4_2_3
6
CONTINUOUS
62
4
100
AcDbLine
10
1113.810000000000
20
743.950000000000
30
0.0
11
1138.810000000000
21
718.950000000000
31
0.0
0
LINE
5
46a
100
AcDbEntity
8
0-4_2_3
6
CONTINUOUS
62
4
100
AcDbLine
10
1142.100000000000
20
743.950000000000
30
0.0
11
1167.100000000000
21
718.950000000000
31
0.0
0
LINE
5
46b
100
AcDbEntity
8
0-4_2_3
6
CONTINUOUS
62
4
100
AcDbLine
10
1170.380000000000
20
743.950000000000
30
0.0
11
1195.380000000000
21
718.950000000000
31
0.0
0
LINE
5
46c
100
AcDbEntity
8
0-4_2_3
6
CONTINUOUS
62
4
100
AcDbLine
10
1198.660000000000
20
743.950000000000
30
0.0
11
1223.660000000000
21
718.950000000000
31
0.0
0
LINE
5
46d
100
AcDbEntity
8
0-4_2_3
6
CONTINUOUS
62
4
100
AcDbLine
10
1226.950000000000
20
743.950000000000
30
0.0
11
1251.950000000000
21
718.950000000000
31
0.0
0
LINE
5
46e
100
AcDbEntity
8
0-4_2_3
6
CONTINUOUS
62
4
100
AcDbLine
10
1255.230000000000
20
743.950000000000
30
0.0
11
1279.710000000000
21
719.470000000000
31
0.0
0
LINE
5
46f
100
AcDbEntity
8
0-4_2_3
6
CONTINUOUS
62
3
100
AcDbLine
10
1279.710000000000
20
743.950000000000
30
0.0
11
1082.430000000000
21
743.950000000000
31
0.0
0
LINE
5
470
100
AcDbEntity
8
0-4_2_3
6
CONTINUOUS
62
4
100
AcDbLine
10
1132.430000000000
20
550.440000000000
30
0.0
11
1147.430000000000
21
565.440000000000
31
0.0
0
LINE
5
471
100
AcDbEntity
8
0-4_2_3
6
CONTINUOUS
62
4
100
AcDbLine
10
1132.430000000000
20
553.270000000000
30
0.0
11
1147.430000000000
21
568.270000000000
31
0.0
0
LINE
5
472
100
AcDbEntity
8
0-4_2_3
6
CONTINUOUS
62
4
100
AcDbLine
10
1132.430000000000
20
578.720000000000
30
0.0
11
1147.430000000000
21
593.720000000000
31
0.0
0
LINE
5
473
100
AcDbEntity
8
0-4_2_3
6
CONTINUOUS
62
4
100
AcDbLine
10
1132.430000000000
20
581.550000000000
30
0.0
11
1147.430000000000
21
596.550000000000
31
0.0
0
LINE
5
474
100
AcDbEntity
8
0-4_2_3
6
CONTINUOUS
62
4
100
AcDbLine
10
1132.430000000000
20
607.010000000000
30
0.0
11
1147.430000000000
21
622.010000000000
31
0.0
0
LINE
5
475
100
AcDbEntity
8
0-4_2_3
6
CONTINUOUS
62
4
100
AcDbLine
10
1132.430000000000
20
609.840000000000
30
0.0
11
1147.430000000000
21
624.840000000000
31
0.0
0
LINE
5
476
100
AcDbEntity
8
0-4_2_3
6
CONTINUOUS
62
4
100
AcDbLine
10
1132.430000000000
20
635.290000000000
30
0.0
11
1147.430000000000
21
650.290000000000
31
0.0
0
LINE
5
477
100
AcDbEntity
8
0-4_2_3
6
CONTINUOUS
62
4
100
AcDbLine
10
1132.430000000000
20
638.120000000000
30
0.0
11
1147.430000000000
21
653.120000000000
31
0.0
0
LINE
5
478
100
AcDbEntity
8
0-4_2_3
6
CONTINUOUS
62
4
100
AcDbLine
10
1132.430000000000
20
663.580000000000
30
0.0
11
1147.430000000000
21
678.580000000000
31
0.0
0
LINE
5
479
100
AcDbEntity
8
0-4_2_3
6
CONTINUOUS
62
4
100
AcDbLine
10
1132.430000000000
20
666.410000000000
30
0.0
11
1147.430000000000
21
681.410000000000
31
0.0
0
LINE
5
47a
100
AcDbEntity
8
0-4_2_3
6
CONTINUOUS
62
4
100
AcDbLine
10
1132.430000000000
20
691.860000000000
30
0.0
11
1147.430000000000
21
706.860000000000
31
0.0
0
LINE
5
47b
100
AcDbEntity
8
0-4_2_3
6
CONTINUOUS
62
4
100
AcDbLine
10
1132.430000000000
20
694.690000000000
30
0.0
11
1147.430000000000
21
709.690000000000
31
0.0
0
LINE
5
47c
100
AcDbEntity
8
0-4_2_3
6
CONTINUOUS
62
3
100
AcDbLine
10
1207.430000000000
20
718.950000000000
30
0.0
11
1207.430000000000
21
618.950000000000
31
0.0
0
LINE
5
47d
100
AcDbEntity
8
0-4_2_3
6
CONTINUOUS
62
3
100
AcDbLine
10
1207.430000000000
20
698.950000000000
30
0.0
11
1279.710000000000
21
698.950000000000
31
0.0
0
LINE
5
47e
100
AcDbEntity
8
0-4_2_3
6
CONTINUOUS
62
3
100
AcDbLine
10
1207.430000000000
20
638.950000000000
30
0.0
11
1279.710000000000
21
638.950000000000
31
0.0
0
LINE
5
47f
100
AcDbEntity
8
0-4_2_3
6
CONTINUOUS
62
3
100
AcDbLine
10
1207.430000000000
20
618.950000000000
30
0.0
11
1279.710000000000
21
618.950000000000
31
0.0
0
LINE
5
480
100
AcDbEntity
8
0-4_2_3
6
CONTINUOUS
62
4
100
AcDbLine
10
1062.430000000000
20
774.780000000000
30
0.0
11
1062.430000000000
21
791.540000000000
31
0.0
0
LINE
5
481
100
AcDbEntity
8
0-4_2_3
6
CONTINUOUS
62
4
100
AcDbLine
10
1194.930000000000
20
774.780000000000
30
0.0
11
1194.930000000000
21
791.540000000000
31
0.0
0
LINE
5
482
100
AcDbEntity
8
0-4_2_3
6
CENTER2
62
4
100
AcDbLine
10
1194.930000000000
20
727.810000000000
30
0.0
11
1194.930000000000
21
774.780000000000
31
0.0
0
LINE
5
483
100
AcDbEntity
8
0-4_2_3
6
CONTINUOUS
62
7
100
AcDbLine
10
1212.050000000000
20
748.050000000000
30
0.0
11
1213.120000000000
21
752.050000000000
31
0.0
0
LINE
5
484
100
AcDbEntity
8
0-4_2_3
6
CONTINUOUS
62
7
100
AcDbLine
10
1212.050000000000
20
748.050000000000
30
0.0
11
1214.980000000000
21
750.980000000000
31
0.0
0
LINE
5
485
100
AcDbEntity
8
0-4_2_3
6
CONTINUOUS
62
7
100
AcDbLine
10
1212.050000000000
20
748.050000000000
30
0.0
11
1223.600000000000
21
768.050000000000
31
0.0
0
LINE
5
486
100
AcDbEntity
8
0-4_2_3
6
CONTINUOUS
62
4
100
AcDbLine
10
1062.430000000000
20
791.540000000000
30
0.0
11
1194.930000000000
21
791.540000000000
31
0.0
0
POLYLINE
5
487
100
AcDbEntity
8
0-2_2_1
6
CONTINUOUS
62
  3
100
AcDb2dPolyline
66
1
10
0.0
20
0.0
30
0.0
70
0
0
VERTEX
5
488
100
AcDbEntity
8
0-2_2_1
6
CONTINUOUS
62
  3
100
AcDbVertex
100
AcDb2dVertex
10
1213.430000000000
20
1141.030000000000
30
0.0
0
VERTEX
5
489
100
AcDbEntity
8
0-2_2_1
6
CONTINUOUS
62
  3
100
AcDbVertex
100
AcDb2dVertex
10
1168.920000000000
20
1132.120000000000
30
0.0
0
VERTEX
5
48a
100
AcDbEntity
8
0-2_2_1
6
CONTINUOUS
62
  3
100
AcDbVertex
100
AcDb2dVertex
10
1150.210000000000
20
1225.670000000000
30
0.0
0
SEQEND
5
48b
100
AcDbEntity
8
0-2_2_1
0
LINE
5
48c
100
AcDbEntity
8
0-2_2_1
6
CONTINUOUS
62
3
100
AcDbLine
10
1194.270000000000
20
1236.830000000000
30
0.0
11
1149.750000000000
21
1227.920000000000
31
0.0
0
LINE
5
48d
100
AcDbEntity
8
0-2_2_1
6
CONTINUOUS
62
3
100
AcDbLine
10
1150.210000000000
20
1225.670000000000
30
0.0
11
1194.720000000000
21
1234.570000000000
31
0.0
0
LINE
5
48e
100
AcDbEntity
8
0-2_2_1
6
CONTINUOUS
62
3
100
AcDbLine
10
1200.450000000000
20
1217.670000000000
30
0.0
11
1196.980000000000
21
1235.020000000000
31
0.0
0
POLYLINE
5
48f
100
AcDbEntity
8
0-2_2_1
6
CONTINUOUS
62
  3
100
AcDb2dPolyline
66
1
10
0.0
20
0.0
30
0.0
70
0
0
VERTEX
5
490
100
AcDbEntity
8
0-2_2_1
6
CONTINUOUS
62
  3
100
AcDbVertex
100
AcDb2dVertex
10
1194.720000000000
20
1234.570000000000
30
0.0
0
VERTEX
5
491
100
AcDbEntity
8
0-2_2_1
6
CONTINUOUS
62
  3
100
AcDbVertex
100
AcDb2dVertex
10
1198.200000000000
20
1217.220000000000
30
0.0
0
VERTEX
5
492
100
AcDbEntity
8
0-2_2_1
6
CONTINUOUS
62
  3
100
AcDbVertex
100
AcDb2dVertex
10
1200.450000000000
20
1217.670000000000
30
0.0
0
SEQEND
5
493
100
AcDbEntity
8
0-2_2_1
0
LINE
5
494
100
AcDbEntity
8
0-2_2_1
6
CONTINUOUS
62
3
100
AcDbLine
10
1209.960000000000
20
1158.380000000000
30
0.0
11
1213.430000000000
21
1141.030000000000
31
0.0
0
POLYLINE
5
495
100
AcDbEntity
8
0-2_2_1
6
CONTINUOUS
62
  3
100
AcDb2dPolyline
66
1
10
0.0
20
0.0
30
0.0
70
0
0
VERTEX
5
496
100
AcDbEntity
8
0-2_2_1
6
CONTINUOUS
62
  3
100
AcDbVertex
100
AcDb2dVertex
10
1215.690000000000
20
1141.480000000000
30
0.0
0
VERTEX
5
497
100
AcDbEntity
8
0-2_2_1
6
CONTINUOUS
62
  3
100
AcDbVertex
100
AcDb2dVertex
10
1212.220000000000
20
1158.830000000000
30
0.0
0
VERTEX
5
498
100
AcDbEntity
8
0-2_2_1
6
CONTINUOUS
62
  3
100
AcDbVertex
100
AcDb2dVertex
10
1209.960000000000
20
1158.380000000000
30
0.0
0
SEQEND
5
499
100
AcDbEntity
8
0-2_2_1
0
LINE
5
49a
100
AcDbEntity
8
0-2_2_1
6
CONTINUOUS
62
3
100
AcDbLine
10
1169.370000000000
20
1129.870000000000
30
0.0
11
1213.880000000000
21
1138.770000000000
31
0.0
0
LINE
5
49b
100
AcDbEntity
8
0-2_2_1
6
CONTINUOUS
62
3
100
AcDbLine
10
1073.960000000000
20
1238.260000000000
30
0.0
11
1078.860000000000
21
1213.750000000000
31
0.0
0
LINE
5
49c
100
AcDbEntity
8
0-2_2_1
6
CONTINUOUS
62
7
100
AcDbLine
10
1082.090000000000
20
1198.570000000000
30
0.0
11
1082.680000000000
21
1198.690000000000
31
0.0
0
POLYLINE
5
49d
100
AcDbEntity
8
0-2_2_1
6
CONTINUOUS
62
  7
100
AcDb2dPolyline
66
1
10
0.0
20
0.0
30
0.0
70
0
0
VERTEX
5
49e
100
AcDbEntity
8
0-2_2_1
6
CONTINUOUS
62
  7
100
AcDbVertex
100
AcDb2dVertex
10
1083.280000000000
20
1198.740000000000
30
0.0
0
VERTEX
5
49f
100
AcDbEntity
8
0-2_2_1
6
CONTINUOUS
62
  7
100
AcDbVertex
100
AcDb2dVertex
10
1081.600000000000
20
1207.160000000000
30
0.0
0
VERTEX
5
4a0
100
AcDbEntity
8
0-2_2_1
6
CONTINUOUS
62
  7
100
AcDbVertex
100
AcDb2dVertex
10
1082.190000000000
20
1207.270000000000
30
0.0
0
VERTEX
5
4a1
100
AcDbEntity
8
0-2_2_1
6
CONTINUOUS
62
  7
100
AcDbVertex
100
AcDb2dVertex
10
1083.860000000000
20
1198.930000000000
30
0.0
0
SEQEND
5
4a2
100
AcDbEntity
8
0-2_2_1
0
LINE
5
4a3
100
AcDbEntity
8
0-2_2_1
6
CONTINUOUS
62
7
100
AcDbLine
10
1121.500000000000
20
1249.600000000000
30
0.0
11
1121.620000000000
21
1249.000000000000
31
0.0
0
LINE
5
4a4
100
AcDbEntity
8
0-2_2_1
6
CONTINUOUS
62
7
100
AcDbLine
10
1067.540000000000
20
1234.630000000000
30
0.0
11
1057.590000000000
21
1232.640000000000
31
0.0
0
POLYLINE
5
4a5
100
AcDbEntity
8
0-2_2_1
6
CONTINUOUS
62
  7
100
AcDb2dPolyline
66
1
10
0.0
20
0.0
30
0.0
70
0
0
VERTEX
5
4a6
100
AcDbEntity
8
0-2_2_1
6
CONTINUOUS
62
  7
100
AcDbVertex
100
AcDb2dVertex
10
1067.540000000000
20
1234.630000000000
30
0.0
0
VERTEX
5
4a7
100
AcDbEntity
8
0-2_2_1
6
CONTINUOUS
62
  7
100
AcDbVertex
100
AcDb2dVertex
10
1067.660000000000
20
1234.040000000000
30
0.0
0
VERTEX
5
4a8
100
AcDbEntity
8
0-2_2_1
6
CONTINUOUS
62
  7
100
AcDbVertex
100
AcDb2dVertex
10
1057.710000000000
20
1232.050000000000
30
0.0
0
SEQEND
5
4a9
100
AcDbEntity
8
0-2_2_1
0
LINE
5
4aa
100
AcDbEntity
8
0-2_2_1
6
CONTINUOUS
62
7
100
AcDbLine
10
1136.810000000000
20
1250.830000000000
30
0.0
11
1061.920000000000
21
1236.500000000000
31
0.0
0
LINE
5
4ab
100
AcDbEntity
8
0-2_2_1
6
CONTINUOUS
62
7
100
AcDbLine
10
1061.800000000000
20
1237.090000000000
30
0.0
11
1136.700000000000
21
1251.420000000000
31
0.0
0
LINE
5
4ac
100
AcDbEntity
8
0-2_2_1
6
DASHED
62
7
100
AcDbLine
10
1137.610000000000
20
1253.430000000000
30
0.0
11
1141.960000000000
21
1252.880000000000
31
0.0
0
LINE
5
4ad
100
AcDbEntity
8
0-2_2_1
6
DASHED
62
7
100
AcDbLine
10
1120.960000000000
20
1250.100000000000
30
0.0
11
1119.310000000000
21
1249.160000000000
31
0.0
0
LINE
5
4ae
100
AcDbEntity
8
0-2_2_1
6
CONTINUOUS
62
7
100
AcDbLine
10
1121.500000000000
20
1249.600000000000
30
0.0
11
1136.470000000000
21
1252.590000000000
31
0.0
0
LINE
5
4af
100
AcDbEntity
8
0-2_2_1
6
CONTINUOUS
62
7
100
AcDbLine
10
1136.580000000000
20
1252.010000000000
30
0.0
11
1121.610000000000
21
1249.020000000000
31
0.0
0
LINE
5
4b0
100
AcDbEntity
8
0-2_2_1
6
DASHED
62
7
100
AcDbLine
10
1120.960000000000
20
1250.100000000000
30
0.0
11
1137.610000000000
21
1253.430000000000
31
0.0
0
LINE
5
4b1
100
AcDbEntity
8
0-2_2_1
6
CONTINUOUS
62
7
100
AcDbLine
10
1080.940000000000
20
1198.230000000000
30
0.0
11
1073.320000000000
21
1236.330000000000
31
0.0
0
LINE
5
4b2
100
AcDbEntity
8
0-2_2_1
6
CONTINUOUS
62
7
100
AcDbLine
10
1073.910000000000
20
1236.450000000000
30
0.0
11
1081.510000000000
21
1198.460000000000
31
0.0
0
LINE
5
4b3
100
AcDbEntity
8
0-2_2_1
6
CONTINUOUS
62
7
100
AcDbLine
10
1073.200000000000
20
1236.920000000000
30
0.0
11
1057.370000000000
21
1233.750000000000
31
0.0
0
LINE
5
4b4
100
AcDbEntity
8
0-2_2_1
6
CONTINUOUS
62
7
100
AcDbLine
10
1057.020000000000
20
1235.520000000000
30
0.0
11
1061.920000000000
21
1236.500000000000
31
0.0
0
LINE
5
4b5
100
AcDbEntity
8
0-2_2_1
6
CONTINUOUS
62
7
100
AcDbLine
10
1061.800000000000
20
1237.090000000000
30
0.0
11
1056.900000000000
21
1236.100000000000
31
0.0
0
LINE
5
4b6
100
AcDbEntity
8
0-2_2_1
6
CONTINUOUS
62
7
100
AcDbLine
10
1073.320000000000
20
1236.330000000000
30
0.0
11
1057.490000000000
21
1233.160000000000
31
0.0
0
LINE
5
4b7
100
AcDbEntity
8
0-2_2_1
6
CONTINUOUS
62
7
100
AcDbLine
10
1056.580000000000
20
1237.660000000000
30
0.0
11
1061.460000000000
21
1238.630000000000
31
0.0
0
LINE
5
4b8
100
AcDbEntity
8
0-2_2_1
6
CONTINUOUS
62
7
100
AcDbLine
10
1082.680000000000
20
1198.690000000000
30
0.0
11
1079.840000000000
21
1212.920000000000
31
0.0
0
LINE
5
4b9
100
AcDbEntity
8
0-2_2_1
6
CONTINUOUS
62
7
100
AcDbLine
10
1079.250000000000
20
1212.800000000000
30
0.0
11
1082.090000000000
21
1198.570000000000
31
0.0
0
LINE
5
4ba
100
AcDbEntity
8
0-2_2_1
6
CONTINUOUS
62
4
100
AcDbLine
10
1168.630000000000
20
1259.740000000000
30
0.0
11
1178.440000000000
21
1261.710000000000
31
0.0
0
LINE
5
4bb
100
AcDbEntity
8
0-2_2_1
6
CONTINUOUS
62
4
100
AcDbLine
10
1170.490000000000
20
1260.630000000000
30
0.0
11
1176.380000000000
21
1261.800000000000
31
0.0
0
LINE
5
4bc
100
AcDbEntity
8
0-2_2_1
6
CONTINUOUS
62
4
100
AcDbLine
10
1178.440000000000
20
1261.710000000000
30
0.0
11
1178.510000000000
21
1261.310000000000
31
0.0
0
LINE
5
4bd
100
AcDbEntity
8
0-2_2_1
6
CONTINUOUS
62
4
100
AcDbLine
10
1176.380000000000
20
1261.800000000000
30
0.0
11
1177.950000000000
21
1261.610000000000
31
0.0
0
LINE
5
4be
100
AcDbEntity
8
0-2_2_1
6
CONTINUOUS
62
4
100
AcDbLine
10
1178.020000000000
20
1250.530000000000
30
0.0
11
1173.150000000000
21
1250.380000000000
31
0.0
0
LINE
5
4bf
100
AcDbEntity
8
0-2_2_1
6
CONTINUOUS
62
4
100
AcDbLine
10
1178.330000000000
20
1248.970000000000
30
0.0
11
1173.470000000000
21
1248.810000000000
31
0.0
0
LINE
5
4c0
100
AcDbEntity
8
0-2_2_1
6
CONTINUOUS
62
4
100
AcDbLine
10
1178.650000000000
20
1247.400000000000
30
0.0
11
1173.780000000000
21
1247.240000000000
31
0.0
0
LINE
5
4c1
100
AcDbEntity
8
0-2_2_1
6
CONTINUOUS
62
4
100
AcDbLine
10
1177.700000000000
20
1252.100000000000
30
0.0
11
1172.840000000000
21
1251.950000000000
31
0.0
0
LINE
5
4c2
100
AcDbEntity
8
0-2_2_1
6
CONTINUOUS
62
4
100
AcDbLine
10
1168.630000000000
20
1259.740000000000
30
0.0
11
1168.710000000000
21
1259.350000000000
31
0.0
0
LINE
5
4c3
100
AcDbEntity
8
0-2_2_1
6
CONTINUOUS
62
4
100
AcDbLine
10
1170.490000000000
20
1260.630000000000
30
0.0
11
1169.120000000000
21
1259.840000000000
31
0.0
0
LINE
5
4c4
100
AcDbEntity
8
0-2_2_1
6
CONTINUOUS
62
4
100
AcDbLine
10
1179.270000000000
20
1244.260000000000
30
0.0
11
1174.410000000000
21
1244.100000000000
31
0.0
0
LINE
5
4c5
100
AcDbEntity
8
0-2_2_1
6
CONTINUOUS
62
4
100
AcDbLine
10
1178.960000000000
20
1245.830000000000
30
0.0
11
1174.100000000000
21
1245.670000000000
31
0.0
0
LINE
5
4c6
100
AcDbEntity
8
0-2_2_1
6
CONTINUOUS
62
4
100
AcDbLine
10
1179.590000000000
20
1242.690000000000
30
0.0
11
1174.720000000000
21
1242.530000000000
31
0.0
0
LINE
5
4c7
100
AcDbEntity
8
0-2_2_1
6
CONTINUOUS
62
4
100
AcDbLine
10
1179.900000000000
20
1241.120000000000
30
0.0
11
1175.040000000000
21
1240.960000000000
31
0.0
0
LINE
5
4c8
100
AcDbEntity
8
0-2_2_1
6
CONTINUOUS
62
4
100
AcDbLine
10
1181.460000000000
20
1221.110000000000
30
0.0
11
1179.180000000000
21
1222.290000000000
31
0.0
0
LINE
5
4c9
100
AcDbEntity
8
0-2_2_1
6
CONTINUOUS
62
4
100
AcDbLine
10
1183.100000000000
20
1223.070000000000
30
0.0
11
1181.460000000000
21
1221.110000000000
31
0.0
0
LINE
5
4ca
100
AcDbEntity
8
0-2_2_1
6
CONTINUOUS
62
4
100
AcDbLine
10
1168.710000000000
20
1259.350000000000
30
0.0
11
1178.510000000000
21
1261.310000000000
31
0.0
0
LINE
5
4cb
100
AcDbEntity
8
0-2_2_1
6
CONTINUOUS
62
4
100
AcDbLine
10
1177.080000000000
20
1255.240000000000
30
0.0
11
1172.210000000000
21
1255.080000000000
31
0.0
0
LINE
5
4cc
100
AcDbEntity
8
0-2_2_1
6
CONTINUOUS
62
4
100
AcDbLine
10
1177.390000000000
20
1253.670000000000
30
0.0
11
1172.530000000000
21
1253.520000000000
31
0.0
0
LINE
5
4cd
100
AcDbEntity
8
0-2_2_1
6
CONTINUOUS
62
4
100
AcDbLine
10
1176.760000000000
20
1256.810000000000
30
0.0
11
1171.900000000000
21
1256.650000000000
31
0.0
0
LINE
5
4ce
100
AcDbEntity
8
0-2_2_1
6
CONTINUOUS
62
4
100
AcDbLine
10
1180.220000000000
20
1239.550000000000
30
0.0
11
1175.350000000000
21
1239.400000000000
31
0.0
0
LINE
5
4cf
100
AcDbEntity
8
0-2_2_1
6
CONTINUOUS
62
4
100
AcDbLine
10
1180.530000000000
20
1237.980000000000
30
0.0
11
1175.670000000000
21
1237.830000000000
31
0.0
0
LINE
5
4d0
100
AcDbEntity
8
0-2_2_1
6
CONTINUOUS
62
4
100
AcDbLine
10
1180.840000000000
20
1236.410000000000
30
0.0
11
1175.980000000000
21
1236.260000000000
31
0.0
0
LINE
5
4d1
100
AcDbEntity
8
0-2_2_1
6
CONTINUOUS
62
4
100
AcDbLine
10
1181.160000000000
20
1234.850000000000
30
0.0
11
1176.290000000000
21
1234.690000000000
31
0.0
0
LINE
5
4d2
100
AcDbEntity
8
0-2_2_1
6
CONTINUOUS
62
4
100
AcDbLine
10
1181.470000000000
20
1233.280000000000
30
0.0
11
1176.610000000000
21
1233.120000000000
31
0.0
0
LINE
5
4d3
100
AcDbEntity
8
0-2_2_1
6
CONTINUOUS
62
7
100
AcDbLine
10
1056.700000000000
20
1237.070000000000
30
0.0
11
1061.600000000000
21
1238.050000000000
31
0.0
0
LINE
5
4d4
100
AcDbEntity
8
0-2_2_1
6
CONTINUOUS
62
4
100
AcDbLine
10
1181.780000000000
20
1231.710000000000
30
0.0
11
1176.920000000000
21
1231.550000000000
31
0.0
0
LINE
5
4d5
100
AcDbEntity
8
0-2_2_1
6
CONTINUOUS
62
4
100
AcDbLine
10
1182.100000000000
20
1230.140000000000
30
0.0
11
1177.230000000000
21
1229.980000000000
31
0.0
0
LINE
5
4d6
100
AcDbEntity
8
0-2_2_1
6
CONTINUOUS
62
4
100
AcDbLine
10
1182.410000000000
20
1228.570000000000
30
0.0
11
1177.550000000000
21
1228.410000000000
31
0.0
0
LINE
5
4d7
100
AcDbEntity
8
0-2_2_1
6
CONTINUOUS
62
4
100
AcDbLine
10
1182.730000000000
20
1227.000000000000
30
0.0
11
1177.860000000000
21
1226.850000000000
31
0.0
0
LINE
5
4d8
100
AcDbEntity
8
0-2_2_1
6
CONTINUOUS
62
4
100
AcDbLine
10
1183.100000000000
20
1223.070000000000
30
0.0
11
1175.570000000000
21
1260.730000000000
31
0.0
0
LINE
5
4d9
100
AcDbEntity
8
0-2_2_1
6
CONTINUOUS
62
4
100
AcDbLine
10
1179.180000000000
20
1222.290000000000
30
0.0
11
1171.650000000000
21
1259.940000000000
31
0.0
0
LINE
5
4da
100
AcDbEntity
8
0-2_2_1
6
CONTINUOUS
62
7
100
AcDbLine
10
1079.840000000000
20
1212.920000000000
30
0.0
11
1125.930000000000
21
1222.140000000000
31
0.0
0
LINE
5
4db
100
AcDbEntity
8
0-2_2_1
6
CONTINUOUS
62
7
100
AcDbLine
10
1125.810000000000
20
1222.730000000000
30
0.0
11
1079.720000000000
21
1213.510000000000
31
0.0
0
LINE
5
4dc
100
AcDbEntity
8
0-2_2_1
6
CONTINUOUS
62
7
100
AcDbLine
10
1135.540000000000
20
1174.090000000000
30
0.0
11
1125.930000000000
21
1222.140000000000
31
0.0
0
LINE
5
4dd
100
AcDbEntity
8
0-2_2_1
6
CONTINUOUS
62
7
100
AcDbLine
10
1126.510000000000
20
1222.260000000000
30
0.0
11
1136.120000000000
21
1174.210000000000
31
0.0
0
POLYLINE
5
4de
100
AcDbEntity
8
0-2_2_1
6
CONTINUOUS
62
  7
100
AcDb2dPolyline
66
1
10
0.0
20
0.0
30
0.0
70
0
0
VERTEX
5
4df
100
AcDbEntity
8
0-2_2_1
6
CONTINUOUS
62
  7
100
AcDbVertex
100
AcDb2dVertex
10
1136.710000000000
20
1174.330000000000
30
0.0
0
VERTEX
5
4e0
100
AcDbEntity
8
0-2_2_1
6
CONTINUOUS
62
  7
100
AcDbVertex
100
AcDb2dVertex
10
1134.750000000000
20
1184.130000000000
30
0.0
0
VERTEX
5
4e1
100
AcDbEntity
8
0-2_2_1
6
CONTINUOUS
62
  7
100
AcDbVertex
100
AcDb2dVertex
10
1135.340000000000
20
1184.250000000000
30
0.0
0
VERTEX
5
4e2
100
AcDbEntity
8
0-2_2_1
6
CONTINUOUS
62
  7
100
AcDbVertex
100
AcDb2dVertex
10
1137.300000000000
20
1174.440000000000
30
0.0
0
SEQEND
5
4e3
100
AcDbEntity
8
0-2_2_1
0
LINE
5
4e4
100
AcDbEntity
8
0-2_2_1
6
CONTINUOUS
62
3
100
AcDbLine
10
1272.310000000000
20
1252.430000000000
30
0.0
11
1078.860000000000
21
1213.750000000000
31
0.0
0
LINE
5
4e5
100
AcDbEntity
8
0-2_2_1
6
DASHED
62
7
100
AcDbLine
10
1267.210000000000
20
1277.930000000000
30
0.0
11
1141.960000000000
21
1252.880000000000
31
0.0
0
LINE
5
4e6
100
AcDbEntity
8
0-2_2_1
6
CONTINUOUS
62
4
100
AcDbLine
10
1264.010000000000
20
1250.770000000000
30
0.0
11
1270.650000000000
21
1260.740000000000
31
0.0
0
LINE
5
4e7
100
AcDbEntity
8
0-2_2_1
6
CONTINUOUS
62
4
100
AcDbLine
10
1236.270000000000
20
1245.230000000000
30
0.0
11
1255.880000000000
21
1274.650000000000
31
0.0
0
LINE
5
4e8
100
AcDbEntity
8
0-2_2_1
6
CONTINUOUS
62
4
100
AcDbLine
10
1208.540000000000
20
1239.680000000000
30
0.0
11
1228.150000000000
21
1269.100000000000
31
0.0
0
LINE
5
4e9
100
AcDbEntity
8
0-2_2_1
6
CONTINUOUS
62
4
100
AcDbLine
10
1180.800000000000
20
1234.130000000000
30
0.0
11
1200.410000000000
21
1263.550000000000
31
0.0
0
LINE
5
4ea
100
AcDbEntity
8
0-2_2_1
6
CONTINUOUS
62
4
100
AcDbLine
10
1153.070000000000
20
1228.590000000000
30
0.0
11
1172.680000000000
21
1258.000000000000
31
0.0
0
LINE
5
4eb
100
AcDbEntity
8
0-2_2_1
6
CONTINUOUS
62
4
100
AcDbLine
10
1125.330000000000
20
1223.040000000000
30
0.0
11
1144.940000000000
21
1252.460000000000
31
0.0
0
LINE
5
4ec
100
AcDbEntity
8
0-2_2_1
6
CONTINUOUS
62
4
100
AcDbLine
10
1097.600000000000
20
1217.490000000000
30
0.0
11
1117.210000000000
21
1246.910000000000
31
0.0
0
LINE
5
4ed
100
AcDbEntity
8
0-2_2_1
6
CONTINUOUS
62
4
100
AcDbLine
10
1077.060000000000
20
1222.740000000000
30
0.0
11
1089.470000000000
21
1241.360000000000
31
0.0
0
LINE
5
4ee
100
AcDbEntity
8
0-2_2_1
6
CONTINUOUS
62
4
100
AcDbLine
10
1076.990000000000
20
1238.870000000000
30
0.0
11
1106.410000000000
21
1219.250000000000
31
0.0
0
LINE
5
4ef
100
AcDbEntity
8
0-2_2_1
6
CONTINUOUS
62
4
100
AcDbLine
10
1104.720000000000
20
1244.410000000000
30
0.0
11
1134.140000000000
21
1224.800000000000
31
0.0
0
LINE
5
4f0
100
AcDbEntity
8
0-2_2_1
6
CONTINUOUS
62
4
100
AcDbLine
10
1132.460000000000
20
1249.960000000000
30
0.0
11
1161.880000000000
21
1230.350000000000
31
0.0
0
LINE
5
4f1
100
AcDbEntity
8
0-2_2_1
6
CONTINUOUS
62
4
100
AcDbLine
10
1160.190000000000
20
1255.510000000000
30
0.0
11
1189.610000000000
21
1235.900000000000
31
0.0
0
LINE
5
4f2
100
AcDbEntity
8
0-2_2_1
6
CONTINUOUS
62
4
100
AcDbLine
10
1187.930000000000
20
1261.050000000000
30
0.0
11
1217.350000000000
21
1241.440000000000
31
0.0
0
LINE
5
4f3
100
AcDbEntity
8
0-2_2_1
6
CONTINUOUS
62
4
100
AcDbLine
10
1215.660000000000
20
1266.600000000000
30
0.0
11
1245.080000000000
21
1246.990000000000
31
0.0
0
LINE
5
4f4
100
AcDbEntity
8
0-2_2_1
6
CONTINUOUS
62
4
100
AcDbLine
10
1243.400000000000
20
1272.150000000000
30
0.0
11
1272.210000000000
21
1252.940000000000
31
0.0
0
LINE
5
4f5
100
AcDbEntity
8
0-2_2_1
6
CONTINUOUS
62
3
100
AcDbLine
10
1267.410000000000
20
1276.950000000000
30
0.0
11
1073.960000000000
21
1238.260000000000
31
0.0
0
LINE
5
4f6
100
AcDbEntity
8
0-2_2_1
6
CONTINUOUS
62
7
100
AcDbLine
10
1266.680000000000
20
1280.580000000000
30
0.0
11
1121.820000000000
21
1251.610000000000
31
0.0
0
LINE
5
4f7
100
AcDbEntity
8
0-2_2_1
6
CONTINUOUS
62
7
100
AcDbLine
10
1266.800000000000
20
1279.990000000000
30
0.0
11
1121.940000000000
21
1251.020000000000
31
0.0
0
LINE
5
4f8
100
AcDbEntity
8
0-2_2_1
6
CONTINUOUS
62
4
100
AcDbLine
10
1035.210000000000
20
1330.030000000000
30
0.0
11
1154.890000000000
21
1353.960000000000
31
0.0
0
LINE
5
4f9
100
AcDbEntity
8
0-2_2_1
6
CONTINUOUS
62
3
100
AcDbLine
10
1176.920000000000
20
1080.390000000000
30
0.0
11
1157.310000000000
21
1076.460000000000
31
0.0
0
POLYLINE
5
4fa
100
AcDbEntity
8
0-2_2_1
6
CONTINUOUS
62
  7
100
AcDb2dPolyline
66
1
10
0.0
20
0.0
30
0.0
70
0
0
VERTEX
5
4fb
100
AcDbEntity
8
0-2_2_1
6
CONTINUOUS
62
  7
100
AcDbVertex
100
AcDb2dVertex
10
1297.510000000000
20
1126.430000000000
30
0.0
0
VERTEX
5
4fc
100
AcDbEntity
8
0-2_2_1
6
CONTINUOUS
62
  7
100
AcDbVertex
100
AcDb2dVertex
10
1173.680000000000
20
1101.660000000000
30
0.0
0
VERTEX
5
4fd
100
AcDbEntity
8
0-2_2_1
6
CONTINUOUS
62
  7
100
AcDbVertex
100
AcDb2dVertex
10
1174.960000000000
20
1095.290000000000
30
0.0
0
SEQEND
5
4fe
100
AcDbEntity
8
0-2_2_1
0
LINE
5
4ff
100
AcDbEntity
8
0-2_2_1
6
CONTINUOUS
62
7
100
AcDbLine
10
1298.780000000000
20
1120.060000000000
30
0.0
11
1174.960000000000
21
1095.290000000000
31
0.0
0
LINE
5
500
100
AcDbEntity
8
0-2_2_1
6
CONTINUOUS
62
3
100
AcDbLine
10
1147.950000000000
20
1225.220000000000
30
0.0
11
1166.660000000000
21
1131.670000000000
31
0.0
0
LINE
5
501
100
AcDbEntity
8
0-2_2_1
6
CONTINUOUS
62
3
100
AcDbLine
10
1147.950000000000
20
1225.220000000000
30
0.0
11
1128.340000000000
21
1221.300000000000
31
0.0
0
LINE
5
502
100
AcDbEntity
8
0-2_2_1
6
CONTINUOUS
62
4
100
AcDbLine
10
1156.960000000000
20
1078.190000000000
30
0.0
11
1173.960000000000
21
1095.190000000000
31
0.0
0
LINE
5
503
100
AcDbEntity
8
0-2_2_1
6
CONTINUOUS
62
4
100
AcDbLine
10
1154.600000000000
20
1089.980000000000
30
0.0
11
1171.600000000000
21
1106.980000000000
31
0.0
0
LINE
5
504
100
AcDbEntity
8
0-2_2_1
6
CONTINUOUS
62
4
100
AcDbLine
10
1152.250000000000
20
1101.760000000000
30
0.0
11
1169.240000000000
21
1118.760000000000
31
0.0
0
LINE
5
505
100
AcDbEntity
8
0-2_2_1
6
CONTINUOUS
62
4
100
AcDbLine
10
1149.890000000000
20
1113.550000000000
30
0.0
11
1166.880000000000
21
1130.550000000000
31
0.0
0
LINE
5
506
100
AcDbEntity
8
0-2_2_1
6
CONTINUOUS
62
4
100
AcDbLine
10
1147.530000000000
20
1125.330000000000
30
0.0
11
1164.530000000000
21
1142.330000000000
31
0.0
0
LINE
5
507
100
AcDbEntity
8
0-2_2_1
6
CONTINUOUS
62
4
100
AcDbLine
10
1145.170000000000
20
1137.120000000000
30
0.0
11
1162.170000000000
21
1154.120000000000
31
0.0
0
LINE
5
508
100
AcDbEntity
8
0-2_2_1
6
CONTINUOUS
62
4
100
AcDbLine
10
1142.820000000000
20
1148.900000000000
30
0.0
11
1159.810000000000
21
1165.900000000000
31
0.0
0
LINE
5
509
100
AcDbEntity
8
0-2_2_1
6
CONTINUOUS
62
4
100
AcDbLine
10
1140.460000000000
20
1160.690000000000
30
0.0
11
1157.460000000000
21
1177.690000000000
31
0.0
0
LINE
5
50a
100
AcDbEntity
8
0-2_2_1
6
CONTINUOUS
62
4
100
AcDbLine
10
1138.100000000000
20
1172.470000000000
30
0.0
11
1155.100000000000
21
1189.470000000000
31
0.0
0
LINE
5
50b
100
AcDbEntity
8
0-2_2_1
6
CONTINUOUS
62
4
100
AcDbLine
10
1135.750000000000
20
1184.260000000000
30
0.0
11
1152.740000000000
21
1201.260000000000
31
0.0
0
LINE
5
50c
100
AcDbEntity
8
0-2_2_1
6
CONTINUOUS
62
4
100
AcDbLine
10
1133.390000000000
20
1196.040000000000
30
0.0
11
1150.390000000000
21
1213.040000000000
31
0.0
0
LINE
5
50d
100
AcDbEntity
8
0-2_2_1
6
CONTINUOUS
62
4
100
AcDbLine
10
1131.030000000000
20
1207.830000000000
30
0.0
11
1148.030000000000
21
1224.830000000000
31
0.0
0
LINE
5
50e
100
AcDbEntity
8
0-2_2_1
6
CONTINUOUS
62
4
100
AcDbLine
10
1128.670000000000
20
1219.620000000000
30
0.0
11
1130.860000000000
21
1221.800000000000
31
0.0
0
LINE
5
50f
100
AcDbEntity
8
0-2_2_1
6
CONTINUOUS
62
3
100
AcDbLine
10
1128.340000000000
20
1221.300000000000
30
0.0
11
1157.310000000000
21
1076.460000000000
31
0.0
0
LINE
5
510
100
AcDbEntity
8
0-2_2_1
6
CONTINUOUS
62
3
100
AcDbLine
10
1166.660000000000
20
1131.670000000000
30
0.0
11
1176.920000000000
21
1080.390000000000
31
0.0
0
LINE
5
511
100
AcDbEntity
8
0-2_2_1
6
CONTINUOUS
62
4
100
AcDbLine
10
1172.390000000000
20
1079.480000000000
30
0.0
11
1176.310000000000
21
1083.400000000000
31
0.0
0
POLYLINE
5
512
100
AcDbEntity
8
0-6_2_5
6
CONTINUOUS
62
  3
100
AcDb2dPolyline
66
1
10
0.0
20
0.0
30
0.0
70
0
0
VERTEX
5
513
100
AcDbEntity
8
0-6_2_5
6
CONTINUOUS
62
  3
100
AcDbVertex
100
AcDb2dVertex
10
1695.550000000000
20
1057.330000000000
30
0.0
0
VERTEX
5
514
100
AcDbEntity
8
0-6_2_5
6
CONTINUOUS
62
  3
100
AcDbVertex
100
AcDb2dVertex
10
1651.030000000000
20
1048.430000000000
30
0.0
0
VERTEX
5
515
100
AcDbEntity
8
0-6_2_5
6
CONTINUOUS
62
  3
100
AcDbVertex
100
AcDb2dVertex
10
1632.320000000000
20
1141.980000000000
30
0.0
0
SEQEND
5
516
100
AcDbEntity
8
0-6_2_5
0
LINE
5
517
100
AcDbEntity
8
0-6_2_5
6
CONTINUOUS
62
3
100
AcDbLine
10
1676.390000000000
20
1153.130000000000
30
0.0
11
1631.870000000000
21
1144.230000000000
31
0.0
0
LINE
5
518
100
AcDbEntity
8
0-6_2_5
6
CONTINUOUS
62
3
100
AcDbLine
10
1632.320000000000
20
1141.980000000000
30
0.0
11
1676.840000000000
21
1150.880000000000
31
0.0
0
LINE
5
519
100
AcDbEntity
8
0-6_2_5
6
CONTINUOUS
62
3
100
AcDbLine
10
1682.570000000000
20
1133.970000000000
30
0.0
11
1679.100000000000
21
1151.330000000000
31
0.0
0
POLYLINE
5
51a
100
AcDbEntity
8
0-6_2_5
6
CONTINUOUS
62
  3
100
AcDb2dPolyline
66
1
10
0.0
20
0.0
30
0.0
70
0
0
VERTEX
5
51b
100
AcDbEntity
8
0-6_2_5
6
CONTINUOUS
62
  3
100
AcDbVertex
100
AcDb2dVertex
10
1676.840000000000
20
1150.880000000000
30
0.0
0
VERTEX
5
51c
100
AcDbEntity
8
0-6_2_5
6
CONTINUOUS
62
  3
100
AcDbVertex
100
AcDb2dVertex
10
1680.310000000000
20
1133.520000000000
30
0.0
0
VERTEX
5
51d
100
AcDbEntity
8
0-6_2_5
6
CONTINUOUS
62
  3
100
AcDbVertex
100
AcDb2dVertex
10
1682.570000000000
20
1133.970000000000
30
0.0
0
SEQEND
5
51e
100
AcDbEntity
8
0-6_2_5
0
LINE
5
51f
100
AcDbEntity
8
0-6_2_5
6
CONTINUOUS
62
3
100
AcDbLine
10
1692.080000000000
20
1074.690000000000
30
0.0
11
1695.550000000000
21
1057.330000000000
31
0.0
0
POLYLINE
5
520
100
AcDbEntity
8
0-6_2_5
6
CONTINUOUS
62
  3
100
AcDb2dPolyline
66
1
10
0.0
20
0.0
30
0.0
70
0
0
VERTEX
5
521
100
AcDbEntity
8
0-6_2_5
6
CONTINUOUS
62
  3
100
AcDbVertex
100
AcDb2dVertex
10
1697.800000000000
20
1057.780000000000
30
0.0
0
VERTEX
5
522
100
AcDbEntity
8
0-6_2_5
6
CONTINUOUS
62
  3
100
AcDbVertex
100
AcDb2dVertex
10
1694.330000000000
20
1075.140000000000
30
0.0
0
VERTEX
5
523
100
AcDbEntity
8
0-6_2_5
6
CONTINUOUS
62
  3
100
AcDbVertex
100
AcDb2dVertex
10
1692.080000000000
20
1074.690000000000
30
0.0
0
SEQEND
5
524
100
AcDbEntity
8
0-6_2_5
0
LINE
5
525
100
AcDbEntity
8
0-6_2_5
6
CONTINUOUS
62
3
100
AcDbLine
10
1651.480000000000
20
1046.170000000000
30
0.0
11
1696.000000000000
21
1055.080000000000
31
0.0
0
LINE
5
526
100
AcDbEntity
8
0-6_2_5
6
CONTINUOUS
62
4
100
AcDbLine
10
1643.830000000000
20
1174.670000000000
30
0.0
11
1653.640000000000
21
1176.630000000000
31
0.0
0
LINE
5
527
100
AcDbEntity
8
0-6_2_5
6
CONTINUOUS
62
4
100
AcDbLine
10
1645.700000000000
20
1175.550000000000
30
0.0
11
1651.580000000000
21
1176.730000000000
31
0.0
0
LINE
5
528
100
AcDbEntity
8
0-6_2_5
6
CONTINUOUS
62
4
100
AcDbLine
10
1653.640000000000
20
1176.630000000000
30
0.0
11
1653.720000000000
21
1176.240000000000
31
0.0
0
LINE
5
529
100
AcDbEntity
8
0-6_2_5
6
CONTINUOUS
62
4
100
AcDbLine
10
1651.580000000000
20
1176.730000000000
30
0.0
11
1653.150000000000
21
1176.530000000000
31
0.0
0
LINE
5
52a
100
AcDbEntity
8
0-6_2_5
6
CONTINUOUS
62
4
100
AcDbLine
10
1653.220000000000
20
1165.460000000000
30
0.0
11
1648.360000000000
21
1165.300000000000
31
0.0
0
LINE
5
52b
100
AcDbEntity
8
0-6_2_5
6
CONTINUOUS
62
4
100
AcDbLine
10
1653.540000000000
20
1163.890000000000
30
0.0
11
1648.670000000000
21
1163.730000000000
31
0.0
0
LINE
5
52c
100
AcDbEntity
8
0-6_2_5
6
CONTINUOUS
62
4
100
AcDbLine
10
1653.850000000000
20
1162.320000000000
30
0.0
11
1648.990000000000
21
1162.160000000000
31
0.0
0
LINE
5
52d
100
AcDbEntity
8
0-6_2_5
6
CONTINUOUS
62
4
100
AcDbLine
10
1652.910000000000
20
1167.030000000000
30
0.0
11
1648.040000000000
21
1166.870000000000
31
0.0
0
LINE
5
52e
100
AcDbEntity
8
0-6_2_5
6
CONTINUOUS
62
4
100
AcDbLine
10
1643.830000000000
20
1174.670000000000
30
0.0
11
1643.910000000000
21
1174.280000000000
31
0.0
0
LINE
5
52f
100
AcDbEntity
8
0-6_2_5
6
CONTINUOUS
62
4
100
AcDbLine
10
1645.700000000000
20
1175.550000000000
30
0.0
11
1644.320000000000
21
1174.770000000000
31
0.0
0
LINE
5
530
100
AcDbEntity
8
0-6_2_5
6
CONTINUOUS
62
4
100
AcDbLine
10
1654.480000000000
20
1159.180000000000
30
0.0
11
1649.610000000000
21
1159.030000000000
31
0.0
0
LINE
5
531
100
AcDbEntity
8
0-6_2_5
6
CONTINUOUS
62
4
100
AcDbLine
10
1654.160000000000
20
1160.750000000000
30
0.0
11
1649.300000000000
21
1160.600000000000
31
0.0
0
LINE
5
532
100
AcDbEntity
8
0-6_2_5
6
CONTINUOUS
62
4
100
AcDbLine
10
1654.790000000000
20
1157.610000000000
30
0.0
11
1649.930000000000
21
1157.460000000000
31
0.0
0
LINE
5
533
100
AcDbEntity
8
0-6_2_5
6
CONTINUOUS
62
4
100
AcDbLine
10
1655.100000000000
20
1156.040000000000
30
0.0
11
1650.240000000000
21
1155.890000000000
31
0.0
0
LINE
5
534
100
AcDbEntity
8
0-6_2_5
6
CONTINUOUS
62
4
100
AcDbLine
10
1656.660000000000
20
1136.030000000000
30
0.0
11
1654.380000000000
21
1137.210000000000
31
0.0
0
LINE
5
535
100
AcDbEntity
8
0-6_2_5
6
CONTINUOUS
62
4
100
AcDbLine
10
1658.310000000000
20
1137.990000000000
30
0.0
11
1656.660000000000
21
1136.030000000000
31
0.0
0
LINE
5
536
100
AcDbEntity
8
0-6_2_5
6
CONTINUOUS
62
4
100
AcDbLine
10
1643.910000000000
20
1174.280000000000
30
0.0
11
1653.720000000000
21
1176.240000000000
31
0.0
0
LINE
5
537
100
AcDbEntity
8
0-6_2_5
6
CONTINUOUS
62
4
100
AcDbLine
10
1652.280000000000
20
1170.170000000000
30
0.0
11
1647.420000000000
21
1170.010000000000
31
0.0
0
LINE
5
538
100
AcDbEntity
8
0-6_2_5
6
CONTINUOUS
62
4
100
AcDbLine
10
1652.590000000000
20
1168.600000000000
30
0.0
11
1647.730000000000
21
1168.440000000000
31
0.0
0
LINE
5
539
100
AcDbEntity
8
0-6_2_5
6
CONTINUOUS
62
4
100
AcDbLine
10
1651.970000000000
20
1171.730000000000
30
0.0
11
1647.100000000000
21
1171.580000000000
31
0.0
0
LINE
5
53a
100
AcDbEntity
8
0-6_2_5
6
CONTINUOUS
62
4
100
AcDbLine
10
1655.420000000000
20
1154.480000000000
30
0.0
11
1650.550000000000
21
1154.320000000000
31
0.0
0
LINE
5
53b
100
AcDbEntity
8
0-6_2_5
6
CONTINUOUS
62
4
100
AcDbLine
10
1655.730000000000
20
1152.910000000000
30
0.0
11
1650.870000000000
21
1152.750000000000
31
0.0
0
LINE
5
53c
100
AcDbEntity
8
0-6_2_5
6
CONTINUOUS
62
4
100
AcDbLine
10
1656.050000000000
20
1151.340000000000
30
0.0
11
1651.180000000000
21
1151.180000000000
31
0.0
0
LINE
5
53d
100
AcDbEntity
8
0-6_2_5
6
CONTINUOUS
62
4
100
AcDbLine
10
1656.360000000000
20
1149.770000000000
30
0.0
11
1651.500000000000
21
1149.610000000000
31
0.0
0
LINE
5
53e
100
AcDbEntity
8
0-6_2_5
6
CONTINUOUS
62
4
100
AcDbLine
10
1656.670000000000
20
1148.200000000000
30
0.0
11
1651.810000000000
21
1148.040000000000
31
0.0
0
LINE
5
53f
100
AcDbEntity
8
0-6_2_5
6
CONTINUOUS
62
4
100
AcDbLine
10
1656.990000000000
20
1146.630000000000
30
0.0
11
1652.120000000000
21
1146.480000000000
31
0.0
0
LINE
5
540
100
AcDbEntity
8
0-6_2_5
6
CONTINUOUS
62
4
100
AcDbLine
10
1657.300000000000
20
1145.060000000000
30
0.0
11
1652.440000000000
21
1144.910000000000
31
0.0
0
LINE
5
541
100
AcDbEntity
8
0-6_2_5
6
CONTINUOUS
62
4
100
AcDbLine
10
1657.610000000000
20
1143.490000000000
30
0.0
11
1652.750000000000
21
1143.340000000000
31
0.0
0
LINE
5
542
100
AcDbEntity
8
0-6_2_5
6
CONTINUOUS
62
4
100
AcDbLine
10
1657.930000000000
20
1141.930000000000
30
0.0
11
1653.060000000000
21
1141.770000000000
31
0.0
0
LINE
5
543
100
AcDbEntity
8
0-6_2_5
6
CENTER2
62
4
100
AcDbLine
10
1648.620000000000
20
1176.240000000000
30
0.0
11
1657.970000000000
21
1129.490000000000
31
0.0
0
LINE
5
544
100
AcDbEntity
8
0-6_2_5
6
CONTINUOUS
62
4
100
AcDbLine
10
1658.310000000000
20
1137.990000000000
30
0.0
11
1650.780000000000
21
1175.650000000000
31
0.0
0
LINE
5
545
100
AcDbEntity
8
0-6_2_5
6
CONTINUOUS
62
4
100
AcDbLine
10
1654.380000000000
20
1137.210000000000
30
0.0
11
1646.850000000000
21
1174.860000000000
31
0.0
0
LINE
5
546
100
AcDbEntity
8
0-6_2_5
6
CONTINUOUS
62
4
100
AcDbLine
10
1718.390000000000
20
1161.530000000000
30
0.0
11
1738.000000000000
21
1190.950000000000
31
0.0
0
LINE
5
547
100
AcDbEntity
8
0-6_2_5
6
CONTINUOUS
62
4
100
AcDbLine
10
1690.650000000000
20
1155.990000000000
30
0.0
11
1710.260000000000
21
1185.400000000000
31
0.0
0
LINE
5
548
100
AcDbEntity
8
0-6_2_5
6
CONTINUOUS
62
4
100
AcDbLine
10
1662.920000000000
20
1150.440000000000
30
0.0
11
1682.530000000000
21
1179.860000000000
31
0.0
0
LINE
5
549
100
AcDbEntity
8
0-6_2_5
6
CONTINUOUS
62
4
100
AcDbLine
10
1635.180000000000
20
1144.890000000000
30
0.0
11
1654.790000000000
21
1174.310000000000
31
0.0
0
LINE
5
54a
100
AcDbEntity
8
0-6_2_5
6
CONTINUOUS
62
4
100
AcDbLine
10
1607.450000000000
20
1139.350000000000
30
0.0
11
1627.060000000000
21
1168.760000000000
31
0.0
0
LINE
5
54b
100
AcDbEntity
8
0-6_2_5
6
CONTINUOUS
62
4
100
AcDbLine
10
1579.710000000000
20
1133.800000000000
30
0.0
11
1599.320000000000
21
1163.220000000000
31
0.0
0
LINE
5
54c
100
AcDbEntity
8
0-6_2_5
6
CONTINUOUS
62
4
100
AcDbLine
10
1559.170000000000
20
1139.050000000000
30
0.0
11
1571.590000000000
21
1157.670000000000
31
0.0
0
LINE
5
54d
100
AcDbEntity
8
0-6_2_5
6
CONTINUOUS
62
4
100
AcDbLine
10
1559.110000000000
20
1155.170000000000
30
0.0
11
1588.520000000000
21
1135.560000000000
31
0.0
0
LINE
5
54e
100
AcDbEntity
8
0-6_2_5
6
CONTINUOUS
62
4
100
AcDbLine
10
1586.840000000000
20
1160.720000000000
30
0.0
11
1616.260000000000
21
1141.110000000000
31
0.0
0
LINE
5
54f
100
AcDbEntity
8
0-6_2_5
6
CONTINUOUS
62
4
100
AcDbLine
10
1614.580000000000
20
1166.270000000000
30
0.0
11
1643.990000000000
21
1146.660000000000
31
0.0
0
LINE
5
550
100
AcDbEntity
8
0-6_2_5
6
CONTINUOUS
62
4
100
AcDbLine
10
1642.310000000000
20
1171.810000000000
30
0.0
11
1671.730000000000
21
1152.200000000000
31
0.0
0
LINE
5
551
100
AcDbEntity
8
0-6_2_5
6
CONTINUOUS
62
4
100
AcDbLine
10
1670.050000000000
20
1177.360000000000
30
0.0
11
1699.460000000000
21
1157.750000000000
31
0.0
0
LINE
5
552
100
AcDbEntity
8
0-6_2_5
6
CONTINUOUS
62
4
100
AcDbLine
10
1697.780000000000
20
1182.910000000000
30
0.0
11
1727.200000000000
21
1163.300000000000
31
0.0
0
LINE
5
553
100
AcDbEntity
8
0-6_2_5
6
CONTINUOUS
62
3
100
AcDbLine
10
1630.070000000000
20
1141.520000000000
30
0.0
11
1648.780000000000
21
1047.980000000000
31
0.0
0
LINE
5
554
100
AcDbEntity
8
0-6_2_5
6
CONTINUOUS
62
7
100
AcDbLine
10
1636.890000000000
20
1196.430000000000
30
0.0
11
1637.010000000000
21
1195.840000000000
31
0.0
0
LINE
5
555
100
AcDbEntity
8
0-6_2_5
6
CONTINUOUS
62
7
100
AcDbLine
10
1636.890000000000
20
1196.430000000000
30
0.0
11
1622.180000000000
21
1193.490000000000
31
0.0
0
LINE
5
556
100
AcDbEntity
8
0-6_2_5
6
CONTINUOUS
62
7
100
AcDbLine
10
1637.010000000000
20
1195.840000000000
30
0.0
11
1622.300000000000
21
1192.900000000000
31
0.0
0
LINE
5
557
100
AcDbEntity
8
0-6_2_5
6
CONTINUOUS
62
7
100
AcDbLine
10
1641.680000000000
20
1198.000000000000
30
0.0
11
1622.070000000000
21
1194.080000000000
31
0.0
0
LINE
5
558
100
AcDbEntity
8
0-6_2_5
6
CONTINUOUS
62
7
100
AcDbLine
10
1641.560000000000
20
1198.590000000000
30
0.0
11
1621.950000000000
21
1194.660000000000
31
0.0
0
LINE
5
559
100
AcDbEntity
8
0-6_2_5
6
CONTINUOUS
62
7
100
AcDbLine
10
1666.080000000000
20
1203.490000000000
30
0.0
11
1666.190000000000
21
1202.900000000000
31
0.0
0
LINE
5
55a
100
AcDbEntity
8
0-6_2_5
6
CONTINUOUS
62
7
100
AcDbLine
10
1671.100000000000
20
1203.880000000000
30
0.0
11
1666.190000000000
21
1202.900000000000
31
0.0
0
LINE
5
55b
100
AcDbEntity
8
0-6_2_5
6
CONTINUOUS
62
7
100
AcDbLine
10
1670.980000000000
20
1204.470000000000
30
0.0
11
1666.080000000000
21
1203.490000000000
31
0.0
0
LINE
5
55c
100
AcDbEntity
8
0-6_2_5
6
CONTINUOUS
62
7
100
AcDbLine
10
1651.680000000000
20
1199.390000000000
30
0.0
11
1671.210000000000
21
1203.290000000000
31
0.0
0
LINE
5
55d
100
AcDbEntity
8
0-6_2_5
6
CONTINUOUS
62
7
100
AcDbLine
10
1641.960000000000
20
1199.280000000000
30
0.0
11
1621.830000000000
21
1195.250000000000
31
0.0
0
LINE
5
55e
100
AcDbEntity
8
0-6_2_5
6
CONTINUOUS
62
7
100
AcDbLine
10
1651.640000000000
20
1198.790000000000
30
0.0
11
1642.110000000000
21
1199.290000000000
31
0.0
0
LINE
5
55f
100
AcDbEntity
8
0-6_2_5
6
CONTINUOUS
62
7
100
AcDbLine
10
1651.790000000000
20
1198.800000000000
30
0.0
11
1671.330000000000
21
1202.710000000000
31
0.0
0
LINE
5
560
100
AcDbEntity
8
0-6_2_5
6
CONTINUOUS
62
7
100
AcDbLine
10
1641.840000000000
20
1199.870000000000
30
0.0
11
1621.710000000000
21
1195.840000000000
31
0.0
0
LINE
5
561
100
AcDbEntity
8
0-6_2_5
6
CONTINUOUS
62
7
100
AcDbLine
10
1641.990000000000
20
1199.880000000000
30
0.0
11
1651.530000000000
21
1199.380000000000
31
0.0
0
LINE
5
562
100
AcDbEntity
8
0-6_2_5
6
CONTINUOUS
62
3
100
AcDbLine
10
1786.980000000000
20
1175.250000000000
30
0.0
11
1560.970000000000
21
1130.050000000000
31
0.0
0
LINE
5
563
100
AcDbEntity
8
0-6_2_5
6
CONTINUOUS
62
4
100
AcDbLine
10
1746.120000000000
20
1167.080000000000
30
0.0
11
1765.730000000000
21
1196.500000000000
31
0.0
0
LINE
5
564
100
AcDbEntity
8
0-6_2_5
6
CONTINUOUS
62
4
100
AcDbLine
10
1725.520000000000
20
1188.450000000000
30
0.0
11
1754.930000000000
21
1168.840000000000
31
0.0
0
LINE
5
565
100
AcDbEntity
8
0-6_2_5
6
CONTINUOUS
62
4
100
AcDbLine
10
1753.250000000000
20
1194.000000000000
30
0.0
11
1782.670000000000
21
1174.390000000000
31
0.0
0
LINE
5
566
100
AcDbEntity
8
0-6_2_5
6
CONTINUOUS
62
3
100
AcDbLine
10
1782.080000000000
20
1199.770000000000
30
0.0
11
1556.070000000000
21
1154.570000000000
31
0.0
0
LINE
5
567
100
AcDbEntity
8
0-6_2_5
6
CONTINUOUS
62
3
100
AcDbLine
10
1786.980000000000
20
1175.250000000000
30
0.0
11
1782.530000000000
21
1197.510000000000
31
0.0
0
LINE
5
568
100
AcDbEntity
8
0-6_2_5
6
CONTINUOUS
62
7
100
AcDbLine
10
1782.530000000000
20
1197.510000000000
30
0.0
11
1782.080000000000
21
1199.770000000000
31
0.0
0
LINE
5
569
100
AcDbEntity
8
0-6_2_5
6
CONTINUOUS
62
4
100
AcDbLine
10
1773.860000000000
20
1172.630000000000
30
0.0
11
1784.360000000000
21
1188.380000000000
31
0.0
0
LINE
5
56a
100
AcDbEntity
8
0-6_2_5
6
CONTINUOUS
62
4
100
AcDbLine
10
1660.020000000000
20
1189.330000000000
30
0.0
11
1657.770000000000
21
1200.600000000000
31
0.0
0
LINE
5
56b
100
AcDbEntity
8
0-6_2_5
6
CONTINUOUS
62
4
100
AcDbLine
10
1660.220000000000
20
1201.090000000000
30
0.0
11
1662.470000000000
21
1189.820000000000
31
0.0
0
LINE
5
56c
100
AcDbEntity
8
0-6_2_5
6
CONTINUOUS
62
4
100
AcDbLine
10
1654.010000000000
20
1200.260000000000
30
0.0
11
1663.820000000000
21
1202.220000000000
31
0.0
0
LINE
5
56d
100
AcDbEntity
8
0-6_2_5
6
CONTINUOUS
62
4
100
AcDbLine
10
1655.870000000000
20
1201.140000000000
30
0.0
11
1661.760000000000
21
1202.320000000000
31
0.0
0
LINE
5
56e
100
AcDbEntity
8
0-6_2_5
6
CONTINUOUS
62
4
100
AcDbLine
10
1663.820000000000
20
1202.220000000000
30
0.0
11
1663.900000000000
21
1201.830000000000
31
0.0
0
LINE
5
56f
100
AcDbEntity
8
0-6_2_5
6
CONTINUOUS
62
4
100
AcDbLine
10
1661.760000000000
20
1202.320000000000
30
0.0
11
1663.330000000000
21
1202.120000000000
31
0.0
0
LINE
5
570
100
AcDbEntity
8
0-6_2_5
6
CONTINUOUS
62
4
100
AcDbLine
10
1661.130000000000
20
1197.790000000000
30
0.0
11
1658.090000000000
21
1197.690000000000
31
0.0
0
LINE
5
571
100
AcDbEntity
8
0-6_2_5
6
CONTINUOUS
62
4
100
AcDbLine
10
1661.330000000000
20
1196.810000000000
30
0.0
11
1658.290000000000
21
1196.710000000000
31
0.0
0
LINE
5
572
100
AcDbEntity
8
0-6_2_5
6
CONTINUOUS
62
4
100
AcDbLine
10
1661.530000000000
20
1195.830000000000
30
0.0
11
1658.490000000000
21
1195.730000000000
31
0.0
0
LINE
5
573
100
AcDbEntity
8
0-6_2_5
6
CONTINUOUS
62
4
100
AcDbLine
10
1660.940000000000
20
1198.770000000000
30
0.0
11
1657.900000000000
21
1198.670000000000
31
0.0
0
LINE
5
574
100
AcDbEntity
8
0-6_2_5
6
CONTINUOUS
62
4
100
AcDbLine
10
1654.010000000000
20
1200.260000000000
30
0.0
11
1654.090000000000
21
1199.870000000000
31
0.0
0
LINE
5
575
100
AcDbEntity
8
0-6_2_5
6
CONTINUOUS
62
4
100
AcDbLine
10
1655.870000000000
20
1201.140000000000
30
0.0
11
1654.500000000000
21
1200.360000000000
31
0.0
0
LINE
5
576
100
AcDbEntity
8
0-6_2_5
6
CONTINUOUS
62
4
100
AcDbLine
10
1661.920000000000
20
1193.870000000000
30
0.0
11
1658.880000000000
21
1193.770000000000
31
0.0
0
LINE
5
577
100
AcDbEntity
8
0-6_2_5
6
CONTINUOUS
62
4
100
AcDbLine
10
1661.720000000000
20
1194.850000000000
30
0.0
11
1658.680000000000
21
1194.750000000000
31
0.0
0
LINE
5
578
100
AcDbEntity
8
0-6_2_5
6
CONTINUOUS
62
4
100
AcDbLine
10
1662.120000000000
20
1192.890000000000
30
0.0
11
1659.080000000000
21
1192.790000000000
31
0.0
0
LINE
5
579
100
AcDbEntity
8
0-6_2_5
6
CONTINUOUS
62
4
100
AcDbLine
10
1662.310000000000
20
1191.910000000000
30
0.0
11
1659.270000000000
21
1191.810000000000
31
0.0
0
LINE
5
57a
100
AcDbEntity
8
0-6_2_5
6
CONTINUOUS
62
4
100
AcDbLine
10
1661.440000000000
20
1188.590000000000
30
0.0
11
1660.020000000000
21
1189.330000000000
31
0.0
0
LINE
5
57b
100
AcDbEntity
8
0-6_2_5
6
CONTINUOUS
62
4
100
AcDbLine
10
1662.470000000000
20
1189.820000000000
30
0.0
11
1661.440000000000
21
1188.590000000000
31
0.0
0
LINE
5
57c
100
AcDbEntity
8
0-6_2_5
6
CONTINUOUS
62
4
100
AcDbLine
10
1654.090000000000
20
1199.870000000000
30
0.0
11
1663.900000000000
21
1201.830000000000
31
0.0
0
LINE
5
57d
100
AcDbEntity
8
0-6_2_5
6
DASHED
62
7
100
AcDbLine
10
1781.960000000000
20
1200.760000000000
30
0.0
11
1555.880000000000
21
1155.550000000000
31
0.0
0
LINE
5
57e
100
AcDbEntity
8
0-6_2_5
6
CONTINUOUS
62
7
100
AcDbLine
10
1778.580000000000
20
1223.540000000000
30
0.0
11
1551.360000000000
21
1178.100000000000
31
0.0
0
LINE
5
57f
100
AcDbEntity
8
0-6_2_5
6
CONTINUOUS
62
7
100
AcDbLine
10
1641.680000000000
20
1201.060000000000
30
0.0
11
1621.480000000000
21
1197.020000000000
31
0.0
0
LINE
5
580
100
AcDbEntity
8
0-6_2_5
6
CONTINUOUS
62
7
100
AcDbLine
10
1641.800000000000
20
1200.470000000000
30
0.0
11
1621.600000000000
21
1196.430000000000
31
0.0
0
LINE
5
581
100
AcDbEntity
8
0-6_2_5
6
CONTINUOUS
62
7
100
AcDbLine
10
1782.730000000000
20
1226.050000000000
30
0.0
11
1641.690000000000
21
1201.060000000000
31
0.0
0
LINE
5
582
100
AcDbEntity
8
0-6_2_5
6
CONTINUOUS
62
4
100
AcDbLine
10
1597.490000000000
20
1321.070000000000
30
0.0
11
1762.270000000000
21
1354.030000000000
31
0.0
0
LINE
5
583
100
AcDbEntity
8
0-6_2_5
6
CONTINUOUS
62
7
100
AcDbLine
10
1641.800000000000
20
1200.470000000000
30
0.0
11
1782.840000000000
21
1225.460000000000
31
0.0
0
LINE
5
584
100
AcDbEntity
8
0-6_2_5
6
CONTINUOUS
62
3
100
AcDbLine
10
1789.280000000000
20
1278.210000000000
30
0.0
11
1789.280000000000
21
1323.610000000000
31
0.0
0
LINE
5
585
100
AcDbEntity
8
0-6_2_5
6
CONTINUOUS
62
3
100
AcDbLine
10
1884.680000000000
20
1325.910000000000
30
0.0
11
1789.280000000000
21
1325.910000000000
31
0.0
0
LINE
5
586
100
AcDbEntity
8
0-6_2_5
6
CONTINUOUS
62
3
100
AcDbLine
10
1789.280000000000
20
1323.610000000000
30
0.0
11
1884.680000000000
21
1323.610000000000
31
0.0
0
LINE
5
587
100
AcDbEntity
8
0-6_2_5
6
CONTINUOUS
62
3
100
AcDbLine
10
1886.980000000000
20
1278.210000000000
30
0.0
11
1886.980000000000
21
1323.610000000000
31
0.0
0
LINE
5
588
100
AcDbEntity
8
0-6_2_5
6
CONTINUOUS
62
3
100
AcDbLine
10
1884.680000000000
20
1323.610000000000
30
0.0
11
1884.680000000000
21
1278.210000000000
31
0.0
0
LINE
5
589
100
AcDbEntity
8
0-6_2_5
6
CONTINUOUS
62
3
100
AcDbLine
10
1866.980000000000
20
1275.910000000000
30
0.0
11
1884.680000000000
21
1275.910000000000
31
0.0
0
POLYLINE
5
58a
100
AcDbEntity
8
0-6_2_5
6
CONTINUOUS
62
  3
100
AcDb2dPolyline
66
1
10
0.0
20
0.0
30
0.0
70
0
0
VERTEX
5
58b
100
AcDbEntity
8
0-6_2_5
6
CONTINUOUS
62
  3
100
AcDbVertex
100
AcDb2dVertex
10
1884.680000000000
20
1278.210000000000
30
0.0
0
VERTEX
5
58c
100
AcDbEntity
8
0-6_2_5
6
CONTINUOUS
62
  3
100
AcDbVertex
100
AcDb2dVertex
10
1866.980000000000
20
1278.210000000000
30
0.0
0
VERTEX
5
58d
100
AcDbEntity
8
0-6_2_5
6
CONTINUOUS
62
  3
100
AcDbVertex
100
AcDb2dVertex
10
1866.980000000000
20
1275.910000000000
30
0.0
0
SEQEND
5
58e
100
AcDbEntity
8
0-6_2_5
0
LINE
5
58f
100
AcDbEntity
8
0-6_2_5
6
CONTINUOUS
62
3
100
AcDbLine
10
1806.980000000000
20
1278.210000000000
30
0.0
11
1789.280000000000
21
1278.210000000000
31
0.0
0
POLYLINE
5
590
100
AcDbEntity
8
0-6_2_5
6
CONTINUOUS
62
  3
100
AcDb2dPolyline
66
1
10
0.0
20
0.0
30
0.0
70
0
0
VERTEX
5
591
100
AcDbEntity
8
0-6_2_5
6
CONTINUOUS
62
  3
100
AcDbVertex
100
AcDb2dVertex
10
1789.280000000000
20
1275.910000000000
30
0.0
0
VERTEX
5
592
100
AcDbEntity
8
0-6_2_5
6
CONTINUOUS
62
  3
100
AcDbVertex
100
AcDb2dVertex
10
1806.980000000000
20
1275.910000000000
30
0.0
0
VERTEX
5
593
100
AcDbEntity
8
0-6_2_5
6
CONTINUOUS
62
  3
100
AcDbVertex
100
AcDb2dVertex
10
1806.980000000000
20
1278.210000000000
30
0.0
0
SEQEND
5
594
100
AcDbEntity
8
0-6_2_5
0
LINE
5
595
100
AcDbEntity
8
0-6_2_5
6
CONTINUOUS
62
3
100
AcDbLine
10
1786.980000000000
20
1323.610000000000
30
0.0
11
1786.980000000000
21
1278.210000000000
31
0.0
0
LINE
5
596
100
AcDbEntity
8
0-6_2_5
6
DASHED
62
7
100
AcDbLine
10
1785.980000000000
20
1205.670000000000
30
0.0
11
1785.980000000000
21
1323.610000000000
31
0.0
0
LINE
5
597
100
AcDbEntity
8
0-6_2_5
6
CONTINUOUS
62
7
100
AcDbLine
10
1784.980000000000
20
1228.020000000000
30
0.0
11
1784.980000000000
21
1323.610000000000
31
0.0
0
LINE
5
598
100
AcDbEntity
8
0-6_2_5
6
CONTINUOUS
62
7
100
AcDbLine
10
1784.380000000000
20
1228.020000000000
30
0.0
11
1784.380000000000
21
1323.610000000000
31
0.0
0
LINE
5
599
100
AcDbEntity
8
0-6_2_5
6
CONTINUOUS
62
7
100
AcDbLine
10
1783.180000000000
20
1319.490000000000
30
0.0
11
1783.180000000000
21
1323.610000000000
31
0.0
0
LINE
5
59a
100
AcDbEntity
8
0-6_2_5
6
CONTINUOUS
62
7
100
AcDbLine
10
1783.780000000000
20
1319.490000000000
30
0.0
11
1783.180000000000
21
1319.490000000000
31
0.0
0
LINE
5
59b
100
AcDbEntity
8
0-6_2_5
6
CONTINUOUS
62
7
100
AcDbLine
10
1783.780000000000
20
1319.490000000000
30
0.0
11
1783.780000000000
21
1323.610000000000
31
0.0
0
LINE
5
59c
100
AcDbEntity
8
0-6_2_5
6
CONTINUOUS
62
3
100
AcDbLine
10
1786.980000000000
20
1323.610000000000
30
0.0
11
1786.980000000000
21
1366.450000000000
31
0.0
0
LINE
5
59d
100
AcDbEntity
8
0-6_2_5
6
CONTINUOUS
62
7
100
AcDbLine
10
1766.980000000000
20
1230.910000000000
30
0.0
11
1766.980000000000
21
1366.450000000000
31
0.0
0
POLYLINE
5
59e
100
AcDbEntity
8
0-6_2_5
6
CONTINUOUS
62
  7
100
AcDb2dPolyline
66
1
10
0.0
20
0.0
30
0.0
70
0
0
VERTEX
5
59f
100
AcDbEntity
8
0-6_2_5
6
CONTINUOUS
62
  7
100
AcDbVertex
100
AcDb2dVertex
10
1766.980000000000
20
1230.910000000000
30
0.0
0
VERTEX
5
5a0
100
AcDbEntity
8
0-6_2_5
6
CONTINUOUS
62
  7
100
AcDbVertex
100
AcDb2dVertex
10
1781.980000000000
20
1230.910000000000
30
0.0
0
VERTEX
5
5a1
100
AcDbEntity
8
0-6_2_5
6
CONTINUOUS
62
  7
100
AcDbVertex
100
AcDb2dVertex
10
1781.980000000000
20
1366.450000000000
30
0.0
0
SEQEND
5
5a2
100
AcDbEntity
8
0-6_2_5
0
LINE
5
5a3
100
AcDbEntity
8
0-6_2_5
6
DASHED
62
7
100
AcDbLine
10
1784.980000000000
20
1328.160000000000
30
0.0
11
1784.980000000000
21
1366.450000000000
31
0.0
0
POLYLINE
5
5a4
100
AcDbEntity
8
0-6_2_5
6
DASHED
62
  7
100
AcDb2dPolyline
66
1
10
0.0
20
0.0
30
0.0
70
0
0
VERTEX
5
5a5
100
AcDbEntity
8
0-6_2_5
6
DASHED
62
  7
100
AcDbVertex
100
AcDb2dVertex
10
1784.980000000000
20
1328.160000000000
30
0.0
0
VERTEX
5
5a6
100
AcDbEntity
8
0-6_2_5
6
DASHED
62
  7
100
AcDbVertex
100
AcDb2dVertex
10
1782.580000000000
20
1324.460000000000
30
0.0
0
VERTEX
5
5a7
100
AcDbEntity
8
0-6_2_5
6
DASHED
62
  7
100
AcDbVertex
100
AcDb2dVertex
10
1782.580000000000
20
1319.050000000000
30
0.0
0
VERTEX
5
5a8
100
AcDbEntity
8
0-6_2_5
6
DASHED
62
  7
100
AcDbVertex
100
AcDb2dVertex
10
1783.180000000000
20
1317.080000000000
30
0.0
0
VERTEX
5
5a9
100
AcDbEntity
8
0-6_2_5
6
DASHED
62
  7
100
AcDbVertex
100
AcDb2dVertex
10
1783.180000000000
20
1243.910000000000
30
0.0
0
SEQEND
5
5aa
100
AcDbEntity
8
0-6_2_5
0
LINE
5
5ab
100
AcDbEntity
8
0-6_2_5
6
CONTINUOUS
62
4
100
AcDbLine
10
1783.220000000000
20
1235.760000000000
30
0.0
11
1762.270000000000
21
1354.030000000000
31
0.0
0
LINE
5
5ac
100
AcDbEntity
8
0-6_2_5
6
CONTINUOUS
62
4
100
AcDbLine
10
1617.800000000000
20
1206.450000000000
30
0.0
11
1597.490000000000
21
1321.070000000000
31
0.0
0
LINE
5
5ad
100
AcDbEntity
8
0-6_2_5
6
CONTINUOUS
62
4
100
AcDbLine
10
1776.240000000000
20
1230.910000000000
30
0.0
11
1781.980000000000
21
1236.650000000000
31
0.0
0
LINE
5
5ae
100
AcDbEntity
8
0-6_2_5
6
CONTINUOUS
62
4
100
AcDbLine
10
1773.410000000000
20
1230.910000000000
30
0.0
11
1781.980000000000
21
1239.480000000000
31
0.0
0
LINE
5
5af
100
AcDbEntity
8
0-6_2_5
6
CONTINUOUS
62
4
100
AcDbLine
10
1766.980000000000
20
1249.930000000000
30
0.0
11
1781.980000000000
21
1264.930000000000
31
0.0
0
LINE
5
5b0
100
AcDbEntity
8
0-6_2_5
6
CONTINUOUS
62
4
100
AcDbLine
10
1766.980000000000
20
1252.760000000000
30
0.0
11
1781.980000000000
21
1267.760000000000
31
0.0
0
LINE
5
5b1
100
AcDbEntity
8
0-6_2_5
6
CONTINUOUS
62
4
100
AcDbLine
10
1766.980000000000
20
1278.210000000000
30
0.0
11
1781.980000000000
21
1293.220000000000
31
0.0
0
LINE
5
5b2
100
AcDbEntity
8
0-6_2_5
6
CONTINUOUS
62
4
100
AcDbLine
10
1766.980000000000
20
1281.040000000000
30
0.0
11
1781.980000000000
21
1296.040000000000
31
0.0
0
LINE
5
5b3
100
AcDbEntity
8
0-6_2_5
6
CONTINUOUS
62
4
100
AcDbLine
10
1766.980000000000
20
1306.500000000000
30
0.0
11
1781.980000000000
21
1321.500000000000
31
0.0
0
LINE
5
5b4
100
AcDbEntity
8
0-6_2_5
6
CONTINUOUS
62
4
100
AcDbLine
10
1766.980000000000
20
1309.330000000000
30
0.0
11
1781.980000000000
21
1324.330000000000
31
0.0
0
LINE
5
5b5
100
AcDbEntity
8
0-6_2_5
6
CONTINUOUS
62
4
100
AcDbLine
10
1766.980000000000
20
1334.780000000000
30
0.0
11
1781.980000000000
21
1349.780000000000
31
0.0
0
LINE
5
5b6
100
AcDbEntity
8
0-6_2_5
6
CONTINUOUS
62
4
100
AcDbLine
10
1766.980000000000
20
1337.610000000000
30
0.0
11
1781.980000000000
21
1352.610000000000
31
0.0
0
LINE
5
5b7
100
AcDbEntity
8
0-6_2_5
6
CONTINUOUS
62
4
100
AcDbLine
10
1766.980000000000
20
1363.070000000000
30
0.0
11
1770.370000000000
21
1366.450000000000
31
0.0
0
LINE
5
5b8
100
AcDbEntity
8
0-6_2_5
6
CONTINUOUS
62
4
100
AcDbLine
10
1766.980000000000
20
1365.900000000000
30
0.0
11
1767.540000000000
21
1366.450000000000
31
0.0
0
LINE
5
5b9
100
AcDbEntity
8
0-6_2_5
6
CONTINUOUS
62
4
100
AcDbLine
10
1835.070000000000
20
1325.910000000000
30
0.0
11
1835.070000000000
21
1225.910000000000
31
0.0
0
LINE
5
5ba
100
AcDbEntity
8
0-6_2_5
6
CONTINUOUS
62
4
100
AcDbLine
10
1793.130000000000
20
1225.910000000000
30
0.0
11
1835.070000000000
21
1225.910000000000
31
0.0
0
POLYLINE
5
5bb
100
AcDbEntity
8
0-1_2_0
6
CONTINUOUS
62
  3
100
AcDb2dPolyline
66
1
10
0.0
20
0.0
30
0.0
70
0
0
VERTEX
5
5bc
100
AcDbEntity
8
0-1_2_0
6
CONTINUOUS
62
  3
100
AcDbVertex
100
AcDb2dVertex
10
599.580000000000
20
617.630000000000
30
0.0
0
VERTEX
5
5bd
100
AcDbEntity
8
0-1_2_0
6
CONTINUOUS
62
  3
100
AcDbVertex
100
AcDb2dVertex
10
555.060000000000
20
608.720000000000
30
0.0
0
VERTEX
5
5be
100
AcDbEntity
8
0-1_2_0
6
CONTINUOUS
62
  3
100
AcDbVertex
100
AcDb2dVertex
10
536.350000000000
20
702.270000000000
30
0.0
0
SEQEND
5
5bf
100
AcDbEntity
8
0-1_2_0
0
LINE
5
5c0
100
AcDbEntity
8
0-1_2_0
6
CONTINUOUS
62
3
100
AcDbLine
10
580.420000000000
20
713.430000000000
30
0.0
11
535.900000000000
21
704.530000000000
31
0.0
0
LINE
5
5c1
100
AcDbEntity
8
0-1_2_0
6
CONTINUOUS
62
3
100
AcDbLine
10
536.350000000000
20
702.270000000000
30
0.0
11
580.870000000000
21
711.170000000000
31
0.0
0
LINE
5
5c2
100
AcDbEntity
8
0-1_2_0
6
CONTINUOUS
62
3
100
AcDbLine
10
586.590000000000
20
694.270000000000
30
0.0
11
583.120000000000
21
711.620000000000
31
0.0
0
POLYLINE
5
5c3
100
AcDbEntity
8
0-1_2_0
6
CONTINUOUS
62
  3
100
AcDb2dPolyline
66
1
10
0.0
20
0.0
30
0.0
70
0
0
VERTEX
5
5c4
100
AcDbEntity
8
0-1_2_0
6
CONTINUOUS
62
  3
100
AcDbVertex
100
AcDb2dVertex
10
580.870000000000
20
711.170000000000
30
0.0
0
VERTEX
5
5c5
100
AcDbEntity
8
0-1_2_0
6
CONTINUOUS
62
  3
100
AcDbVertex
100
AcDb2dVertex
10
584.340000000000
20
693.820000000000
30
0.0
0
VERTEX
5
5c6
100
AcDbEntity
8
0-1_2_0
6
CONTINUOUS
62
  3
100
AcDbVertex
100
AcDb2dVertex
10
586.590000000000
20
694.270000000000
30
0.0
0
SEQEND
5
5c7
100
AcDbEntity
8
0-1_2_0
0
LINE
5
5c8
100
AcDbEntity
8
0-1_2_0
6
CONTINUOUS
62
3
100
AcDbLine
10
596.110000000000
20
634.980000000000
30
0.0
11
599.580000000000
21
617.630000000000
31
0.0
0
POLYLINE
5
5c9
100
AcDbEntity
8
0-1_2_0
6
CONTINUOUS
62
  3
100
AcDb2dPolyline
66
1
10
0.0
20
0.0
30
0.0
70
0
0
VERTEX
5
5ca
100
AcDbEntity
8
0-1_2_0
6
CONTINUOUS
62
  3
100
AcDbVertex
100
AcDb2dVertex
10
601.830000000000
20
618.080000000000
30
0.0
0
VERTEX
5
5cb
100
AcDbEntity
8
0-1_2_0
6
CONTINUOUS
62
  3
100
AcDbVertex
100
AcDb2dVertex
10
598.360000000000
20
635.430000000000
30
0.0
0
VERTEX
5
5cc
100
AcDbEntity
8
0-1_2_0
6
CONTINUOUS
62
  3
100
AcDbVertex
100
AcDb2dVertex
10
596.110000000000
20
634.980000000000
30
0.0
0
SEQEND
5
5cd
100
AcDbEntity
8
0-1_2_0
0
LINE
5
5ce
100
AcDbEntity
8
0-1_2_0
6
CONTINUOUS
62
3
100
AcDbLine
10
555.510000000000
20
606.470000000000
30
0.0
11
600.030000000000
21
615.370000000000
31
0.0
0
LINE
5
5cf
100
AcDbEntity
8
0-1_2_0
6
CONTINUOUS
62
4
100
AcDbLine
10
547.860000000000
20
734.960000000000
30
0.0
11
557.670000000000
21
736.920000000000
31
0.0
0
LINE
5
5d0
100
AcDbEntity
8
0-1_2_0
6
CONTINUOUS
62
4
100
AcDbLine
10
549.720000000000
20
735.840000000000
30
0.0
11
555.610000000000
21
737.020000000000
31
0.0
0
LINE
5
5d1
100
AcDbEntity
8
0-1_2_0
6
CONTINUOUS
62
4
100
AcDbLine
10
557.670000000000
20
736.920000000000
30
0.0
11
557.750000000000
21
736.530000000000
31
0.0
0
LINE
5
5d2
100
AcDbEntity
8
0-1_2_0
6
CONTINUOUS
62
4
100
AcDbLine
10
555.610000000000
20
737.020000000000
30
0.0
11
557.180000000000
21
736.830000000000
31
0.0
0
LINE
5
5d3
100
AcDbEntity
8
0-1_2_0
6
CONTINUOUS
62
4
100
AcDbLine
10
557.250000000000
20
725.750000000000
30
0.0
11
552.390000000000
21
725.600000000000
31
0.0
0
LINE
5
5d4
100
AcDbEntity
8
0-1_2_0
6
CONTINUOUS
62
4
100
AcDbLine
10
557.560000000000
20
724.180000000000
30
0.0
11
552.700000000000
21
724.030000000000
31
0.0
0
LINE
5
5d5
100
AcDbEntity
8
0-1_2_0
6
CONTINUOUS
62
4
100
AcDbLine
10
557.880000000000
20
722.610000000000
30
0.0
11
553.010000000000
21
722.460000000000
31
0.0
0
LINE
5
5d6
100
AcDbEntity
8
0-1_2_0
6
CONTINUOUS
62
4
100
AcDbLine
10
556.940000000000
20
727.320000000000
30
0.0
11
552.070000000000
21
727.170000000000
31
0.0
0
LINE
5
5d7
100
AcDbEntity
8
0-1_2_0
6
CONTINUOUS
62
4
100
AcDbLine
10
547.860000000000
20
734.960000000000
30
0.0
11
547.940000000000
21
734.570000000000
31
0.0
0
LINE
5
5d8
100
AcDbEntity
8
0-1_2_0
6
CONTINUOUS
62
4
100
AcDbLine
10
549.720000000000
20
735.840000000000
30
0.0
11
548.350000000000
21
735.060000000000
31
0.0
0
LINE
5
5d9
100
AcDbEntity
8
0-1_2_0
6
CONTINUOUS
62
4
100
AcDbLine
10
558.510000000000
20
719.480000000000
30
0.0
11
553.640000000000
21
719.320000000000
31
0.0
0
LINE
5
5da
100
AcDbEntity
8
0-1_2_0
6
CONTINUOUS
62
4
100
AcDbLine
10
558.190000000000
20
721.050000000000
30
0.0
11
553.330000000000
21
720.890000000000
31
0.0
0
LINE
5
5db
100
AcDbEntity
8
0-1_2_0
6
CONTINUOUS
62
4
100
AcDbLine
10
558.820000000000
20
717.910000000000
30
0.0
11
553.950000000000
21
717.750000000000
31
0.0
0
LINE
5
5dc
100
AcDbEntity
8
0-1_2_0
6
CONTINUOUS
62
4
100
AcDbLine
10
559.130000000000
20
716.340000000000
30
0.0
11
554.270000000000
21
716.180000000000
31
0.0
0
LINE
5
5dd
100
AcDbEntity
8
0-1_2_0
6
CONTINUOUS
62
4
100
AcDbLine
10
560.690000000000
20
696.330000000000
30
0.0
11
558.410000000000
21
697.500000000000
31
0.0
0
LINE
5
5de
100
AcDbEntity
8
0-1_2_0
6
CONTINUOUS
62
4
100
AcDbLine
10
562.340000000000
20
698.290000000000
30
0.0
11
560.690000000000
21
696.330000000000
31
0.0
0
LINE
5
5df
100
AcDbEntity
8
0-1_2_0
6
CONTINUOUS
62
4
100
AcDbLine
10
547.940000000000
20
734.570000000000
30
0.0
11
557.750000000000
21
736.530000000000
31
0.0
0
LINE
5
5e0
100
AcDbEntity
8
0-1_2_0
6
CONTINUOUS
62
4
100
AcDbLine
10
556.310000000000
20
730.460000000000
30
0.0
11
551.440000000000
21
730.300000000000
31
0.0
0
LINE
5
5e1
100
AcDbEntity
8
0-1_2_0
6
CONTINUOUS
62
4
100
AcDbLine
10
556.620000000000
20
728.890000000000
30
0.0
11
551.760000000000
21
728.730000000000
31
0.0
0
LINE
5
5e2
100
AcDbEntity
8
0-1_2_0
6
CONTINUOUS
62
4
100
AcDbLine
10
555.990000000000
20
732.030000000000
30
0.0
11
551.130000000000
21
731.870000000000
31
0.0
0
LINE
5
5e3
100
AcDbEntity
8
0-1_2_0
6
CONTINUOUS
62
4
100
AcDbLine
10
559.450000000000
20
714.770000000000
30
0.0
11
554.580000000000
21
714.610000000000
31
0.0
0
LINE
5
5e4
100
AcDbEntity
8
0-1_2_0
6
CONTINUOUS
62
4
100
AcDbLine
10
559.760000000000
20
713.200000000000
30
0.0
11
554.900000000000
21
713.040000000000
31
0.0
0
LINE
5
5e5
100
AcDbEntity
8
0-1_2_0
6
CONTINUOUS
62
4
100
AcDbLine
10
560.070000000000
20
711.630000000000
30
0.0
11
555.210000000000
21
711.480000000000
31
0.0
0
LINE
5
5e6
100
AcDbEntity
8
0-1_2_0
6
CONTINUOUS
62
4
100
AcDbLine
10
560.390000000000
20
710.060000000000
30
0.0
11
555.520000000000
21
709.910000000000
31
0.0
0
LINE
5
5e7
100
AcDbEntity
8
0-1_2_0
6
CONTINUOUS
62
4
100
AcDbLine
10
560.700000000000
20
708.500000000000
30
0.0
11
555.840000000000
21
708.340000000000
31
0.0
0
LINE
5
5e8
100
AcDbEntity
8
0-1_2_0
6
CONTINUOUS
62
4
100
AcDbLine
10
561.020000000000
20
706.930000000000
30
0.0
11
556.150000000000
21
706.770000000000
31
0.0
0
LINE
5
5e9
100
AcDbEntity
8
0-1_2_0
6
CONTINUOUS
62
4
100
AcDbLine
10
561.330000000000
20
705.360000000000
30
0.0
11
556.460000000000
21
705.200000000000
31
0.0
0
LINE
5
5ea
100
AcDbEntity
8
0-1_2_0
6
CONTINUOUS
62
4
100
AcDbLine
10
561.640000000000
20
703.790000000000
30
0.0
11
556.780000000000
21
703.630000000000
31
0.0
0
LINE
5
5eb
100
AcDbEntity
8
0-1_2_0
6
CONTINUOUS
62
4
100
AcDbLine
10
561.960000000000
20
702.220000000000
30
0.0
11
557.090000000000
21
702.060000000000
31
0.0
0
LINE
5
5ec
100
AcDbEntity
8
0-1_2_0
6
CENTER2
62
4
100
AcDbLine
10
552.650000000000
20
736.530000000000
30
0.0
11
562.000000000000
21
689.790000000000
31
0.0
0
LINE
5
5ed
100
AcDbEntity
8
0-1_2_0
6
CONTINUOUS
62
4
100
AcDbLine
10
562.340000000000
20
698.290000000000
30
0.0
11
554.800000000000
21
735.940000000000
31
0.0
0
LINE
5
5ee
100
AcDbEntity
8
0-1_2_0
6
CONTINUOUS
62
4
100
AcDbLine
10
558.410000000000
20
697.500000000000
30
0.0
11
550.880000000000
21
735.160000000000
31
0.0
0
LINE
5
5ef
100
AcDbEntity
8
0-1_2_0
6
CONTINUOUS
62
4
100
AcDbLine
10
622.420000000000
20
721.830000000000
30
0.0
11
642.030000000000
21
751.250000000000
31
0.0
0
LINE
5
5f0
100
AcDbEntity
8
0-1_2_0
6
CONTINUOUS
62
4
100
AcDbLine
10
594.680000000000
20
716.280000000000
30
0.0
11
614.290000000000
21
745.700000000000
31
0.0
0
LINE
5
5f1
100
AcDbEntity
8
0-1_2_0
6
CONTINUOUS
62
4
100
AcDbLine
10
566.950000000000
20
710.730000000000
30
0.0
11
586.560000000000
21
740.150000000000
31
0.0
0
LINE
5
5f2
100
AcDbEntity
8
0-1_2_0
6
CONTINUOUS
62
4
100
AcDbLine
10
539.210000000000
20
705.190000000000
30
0.0
11
558.820000000000
21
734.600000000000
31
0.0
0
LINE
5
5f3
100
AcDbEntity
8
0-1_2_0
6
CONTINUOUS
62
4
100
AcDbLine
10
511.480000000000
20
699.640000000000
30
0.0
11
531.090000000000
21
729.060000000000
31
0.0
0
LINE
5
5f4
100
AcDbEntity
8
0-1_2_0
6
CONTINUOUS
62
4
100
AcDbLine
10
483.740000000000
20
694.090000000000
30
0.0
11
503.350000000000
21
723.510000000000
31
0.0
0
LINE
5
5f5
100
AcDbEntity
8
0-1_2_0
6
CONTINUOUS
62
4
100
AcDbLine
10
463.200000000000
20
699.340000000000
30
0.0
11
475.620000000000
21
717.960000000000
31
0.0
0
LINE
5
5f6
100
AcDbEntity
8
0-1_2_0
6
CONTINUOUS
62
4
100
AcDbLine
10
463.130000000000
20
715.470000000000
30
0.0
11
492.550000000000
21
695.860000000000
31
0.0
0
LINE
5
5f7
100
AcDbEntity
8
0-1_2_0
6
CONTINUOUS
62
4
100
AcDbLine
10
490.870000000000
20
721.010000000000
30
0.0
11
520.290000000000
21
701.400000000000
31
0.0
0
LINE
5
5f8
100
AcDbEntity
8
0-1_2_0
6
CONTINUOUS
62
4
100
AcDbLine
10
518.600000000000
20
726.560000000000
30
0.0
11
548.020000000000
21
706.950000000000
31
0.0
0
LINE
5
5f9
100
AcDbEntity
8
0-1_2_0
6
CONTINUOUS
62
4
100
AcDbLine
10
546.340000000000
20
732.110000000000
30
0.0
11
575.760000000000
21
712.500000000000
31
0.0
0
LINE
5
5fa
100
AcDbEntity
8
0-1_2_0
6
CONTINUOUS
62
4
100
AcDbLine
10
574.070000000000
20
737.660000000000
30
0.0
11
603.490000000000
21
718.040000000000
31
0.0
0
LINE
5
5fb
100
AcDbEntity
8
0-1_2_0
6
CONTINUOUS
62
4
100
AcDbLine
10
601.810000000000
20
743.200000000000
30
0.0
11
631.230000000000
21
723.590000000000
31
0.0
0
LINE
5
5fc
100
AcDbEntity
8
0-1_2_0
6
CONTINUOUS
62
3
100
AcDbLine
10
534.090000000000
20
701.820000000000
30
0.0
11
552.800000000000
21
608.270000000000
31
0.0
0
LINE
5
5fd
100
AcDbEntity
8
0-1_2_0
6
CONTINUOUS
62
7
100
AcDbLine
10
523.270000000000
20
753.190000000000
30
0.0
11
523.390000000000
21
752.610000000000
31
0.0
0
LINE
5
5fe
100
AcDbEntity
8
0-1_2_0
6
CONTINUOUS
62
7
100
AcDbLine
10
523.270000000000
20
753.190000000000
30
0.0
11
508.560000000000
21
750.250000000000
31
0.0
0
LINE
5
5ff
100
AcDbEntity
8
0-1_2_0
6
CONTINUOUS
62
7
100
AcDbLine
10
523.390000000000
20
752.610000000000
30
0.0
11
508.680000000000
21
749.660000000000
31
0.0
0
LINE
5
600
100
AcDbEntity
8
0-1_2_0
6
CONTINUOUS
62
7
100
AcDbLine
10
528.060000000000
20
754.760000000000
30
0.0
11
508.440000000000
21
750.840000000000
31
0.0
0
LINE
5
601
100
AcDbEntity
8
0-1_2_0
6
CONTINUOUS
62
7
100
AcDbLine
10
527.940000000000
20
755.350000000000
30
0.0
11
508.330000000000
21
751.430000000000
31
0.0
0
LINE
5
602
100
AcDbEntity
8
0-1_2_0
6
CONTINUOUS
62
7
100
AcDbLine
10
552.450000000000
20
760.250000000000
30
0.0
11
552.570000000000
21
759.670000000000
31
0.0
0
LINE
5
603
100
AcDbEntity
8
0-1_2_0
6
CONTINUOUS
62
7
100
AcDbLine
10
557.470000000000
20
760.650000000000
30
0.0
11
552.570000000000
21
759.670000000000
31
0.0
0
LINE
5
604
100
AcDbEntity
8
0-1_2_0
6
CONTINUOUS
62
7
100
AcDbLine
10
557.360000000000
20
761.230000000000
30
0.0
11
552.450000000000
21
760.250000000000
31
0.0
0
LINE
5
605
100
AcDbEntity
8
0-1_2_0
6
CONTINUOUS
62
7
100
AcDbLine
10
538.050000000000
20
756.150000000000
30
0.0
11
557.590000000000
21
760.060000000000
31
0.0
0
LINE
5
606
100
AcDbEntity
8
0-1_2_0
6
CONTINUOUS
62
7
100
AcDbLine
10
528.340000000000
20
756.040000000000
30
0.0
11
508.210000000000
21
752.020000000000
31
0.0
0
LINE
5
607
100
AcDbEntity
8
0-1_2_0
6
CONTINUOUS
62
7
100
AcDbLine
10
538.020000000000
20
755.550000000000
30
0.0
11
528.480000000000
21
756.050000000000
31
0.0
0
LINE
5
608
100
AcDbEntity
8
0-1_2_0
6
CONTINUOUS
62
7
100
AcDbLine
10
538.170000000000
20
755.560000000000
30
0.0
11
557.710000000000
21
759.470000000000
31
0.0
0
LINE
5
609
100
AcDbEntity
8
0-1_2_0
6
CONTINUOUS
62
7
100
AcDbLine
10
528.220000000000
20
756.630000000000
30
0.0
11
508.090000000000
21
752.610000000000
31
0.0
0
LINE
5
60a
100
AcDbEntity
8
0-1_2_0
6
CONTINUOUS
62
7
100
AcDbLine
10
528.370000000000
20
756.640000000000
30
0.0
11
537.900000000000
21
756.140000000000
31
0.0
0
POLYLINE
5
60b
100
AcDbEntity
8
0-1_2_0
6
CONTINUOUS
62
  7
100
AcDb2dPolyline
66
1
10
0.0
20
0.0
30
0.0
70
0
0
VERTEX
5
60c
100
AcDbEntity
8
0-1_2_0
6
CONTINUOUS
62
  7
100
AcDbVertex
100
AcDb2dVertex
10
533.270000000000
20
737.620000000000
30
0.0
0
VERTEX
5
60d
100
AcDbEntity
8
0-1_2_0
6
CONTINUOUS
62
  7
100
AcDbVertex
100
AcDb2dVertex
10
535.050000000000
20
746.220000000000
30
0.0
0
VERTEX
5
60e
100
AcDbEntity
8
0-1_2_0
6
CONTINUOUS
62
  7
100
AcDbVertex
100
AcDb2dVertex
10
535.640000000000
20
746.100000000000
30
0.0
0
SEQEND
5
60f
100
AcDbEntity
8
0-1_2_0
0
LINE
5
610
100
AcDbEntity
8
0-1_2_0
6
CONTINUOUS
62
7
100
AcDbLine
10
533.860000000000
20
737.490000000000
30
0.0
11
535.640000000000
21
746.100000000000
31
0.0
0
LINE
5
611
100
AcDbEntity
8
0-1_2_0
6
CONTINUOUS
62
4
100
AcDbLine
10
546.400000000000
20
746.090000000000
30
0.0
11
544.150000000000
21
757.370000000000
31
0.0
0
LINE
5
612
100
AcDbEntity
8
0-1_2_0
6
CONTINUOUS
62
4
100
AcDbLine
10
546.600000000000
20
757.860000000000
30
0.0
11
548.850000000000
21
746.580000000000
31
0.0
0
LINE
5
613
100
AcDbEntity
8
0-1_2_0
6
CONTINUOUS
62
4
100
AcDbLine
10
540.390000000000
20
757.030000000000
30
0.0
11
550.200000000000
21
758.990000000000
31
0.0
0
LINE
5
614
100
AcDbEntity
8
0-1_2_0
6
CONTINUOUS
62
4
100
AcDbLine
10
542.250000000000
20
757.910000000000
30
0.0
11
548.140000000000
21
759.080000000000
31
0.0
0
LINE
5
615
100
AcDbEntity
8
0-1_2_0
6
CONTINUOUS
62
4
100
AcDbLine
10
550.200000000000
20
758.990000000000
30
0.0
11
550.270000000000
21
758.590000000000
31
0.0
0
LINE
5
616
100
AcDbEntity
8
0-1_2_0
6
CONTINUOUS
62
4
100
AcDbLine
10
548.140000000000
20
759.080000000000
30
0.0
11
549.710000000000
21
758.890000000000
31
0.0
0
LINE
5
617
100
AcDbEntity
8
0-1_2_0
6
CONTINUOUS
62
4
100
AcDbLine
10
547.510000000000
20
754.550000000000
30
0.0
11
544.470000000000
21
754.460000000000
31
0.0
0
LINE
5
618
100
AcDbEntity
8
0-1_2_0
6
CONTINUOUS
62
4
100
AcDbLine
10
547.710000000000
20
753.570000000000
30
0.0
11
544.670000000000
21
753.480000000000
31
0.0
0
LINE
5
619
100
AcDbEntity
8
0-1_2_0
6
CONTINUOUS
62
4
100
AcDbLine
10
547.900000000000
20
752.590000000000
30
0.0
11
544.860000000000
21
752.500000000000
31
0.0
0
LINE
5
61a
100
AcDbEntity
8
0-1_2_0
6
CONTINUOUS
62
4
100
AcDbLine
10
547.320000000000
20
755.540000000000
30
0.0
11
544.280000000000
21
755.440000000000
31
0.0
0
LINE
5
61b
100
AcDbEntity
8
0-1_2_0
6
CONTINUOUS
62
4
100
AcDbLine
10
540.390000000000
20
757.030000000000
30
0.0
11
540.470000000000
21
756.630000000000
31
0.0
0
LINE
5
61c
100
AcDbEntity
8
0-1_2_0
6
CONTINUOUS
62
4
100
AcDbLine
10
542.250000000000
20
757.910000000000
30
0.0
11
540.880000000000
21
757.120000000000
31
0.0
0
LINE
5
61d
100
AcDbEntity
8
0-1_2_0
6
CONTINUOUS
62
4
100
AcDbLine
10
548.300000000000
20
750.630000000000
30
0.0
11
545.260000000000
21
750.530000000000
31
0.0
0
LINE
5
61e
100
AcDbEntity
8
0-1_2_0
6
CONTINUOUS
62
4
100
AcDbLine
10
548.100000000000
20
751.610000000000
30
0.0
11
545.060000000000
21
751.510000000000
31
0.0
0
LINE
5
61f
100
AcDbEntity
8
0-1_2_0
6
CONTINUOUS
62
4
100
AcDbLine
10
548.490000000000
20
749.650000000000
30
0.0
11
545.450000000000
21
749.550000000000
31
0.0
0
LINE
5
620
100
AcDbEntity
8
0-1_2_0
6
CONTINUOUS
62
4
100
AcDbLine
10
548.690000000000
20
748.670000000000
30
0.0
11
545.650000000000
21
748.570000000000
31
0.0
0
LINE
5
621
100
AcDbEntity
8
0-1_2_0
6
CONTINUOUS
62
4
100
AcDbLine
10
547.820000000000
20
745.360000000000
30
0.0
11
546.400000000000
21
746.090000000000
31
0.0
0
LINE
5
622
100
AcDbEntity
8
0-1_2_0
6
CONTINUOUS
62
4
100
AcDbLine
10
548.850000000000
20
746.580000000000
30
0.0
11
547.820000000000
21
745.360000000000
31
0.0
0
LINE
5
623
100
AcDbEntity
8
0-1_2_0
6
CONTINUOUS
62
4
100
AcDbLine
10
540.470000000000
20
756.630000000000
30
0.0
11
550.270000000000
21
758.590000000000
31
0.0
0
LINE
5
624
100
AcDbEntity
8
0-1_2_0
6
DOT
62
7
100
AcDbLine
10
629.300000000000
20
772.600000000000
30
0.0
11
629.180000000000
21
773.190000000000
31
0.0
0
LINE
5
625
100
AcDbEntity
8
0-1_2_0
6
DOT
62
7
100
AcDbLine
10
647.540000000000
20
776.250000000000
30
0.0
11
629.300000000000
21
772.600000000000
31
0.0
0
LINE
5
626
100
AcDbEntity
8
0-1_2_0
6
CONTINUOUS
62
7
100
AcDbLine
10
528.060000000000
20
757.820000000000
30
0.0
11
507.860000000000
21
753.780000000000
31
0.0
0
LINE
5
627
100
AcDbEntity
8
0-1_2_0
6
CONTINUOUS
62
7
100
AcDbLine
10
528.170000000000
20
757.230000000000
30
0.0
11
507.970000000000
21
753.190000000000
31
0.0
0
LINE
5
628
100
AcDbEntity
8
0-1_2_0
6
CONTINUOUS
62
7
100
AcDbLine
10
647.820000000000
20
776.880000000000
30
0.0
11
455.390000000000
21
738.390000000000
31
0.0
0
LINE
5
629
100
AcDbEntity
8
0-1_2_0
6
CONTINUOUS
62
4
100
AcDbLine
10
650.150000000000
20
727.380000000000
30
0.0
11
655.000000000000
21
734.650000000000
31
0.0
0
LINE
5
62a
100
AcDbEntity
8
0-1_2_0
6
CONTINUOUS
62
4
100
AcDbLine
10
629.540000000000
20
748.750000000000
30
0.0
11
655.670000000000
21
731.330000000000
31
0.0
0
LINE
5
62b
100
AcDbEntity
8
0-1_2_0
6
CONTINUOUS
62
3
100
AcDbLine
10
656.220000000000
20
728.590000000000
30
0.0
11
465.000000000000
21
690.350000000000
31
0.0
0
LINE
5
62c
100
AcDbEntity
8
0-1_2_0
6
CONTINUOUS
62
3
100
AcDbLine
10
651.310000000000
20
753.100000000000
30
0.0
11
460.100000000000
21
714.860000000000
31
0.0
0
LINE
5
62d
100
AcDbEntity
8
0-1_2_0
6
CONTINUOUS
62
3
100
AcDbLine
10
656.220000000000
20
728.590000000000
30
0.0
11
651.310000000000
21
753.100000000000
31
0.0
0
POLYLINE
5
62e
100
AcDbEntity
8
0-1_2_0
6
CONTINUOUS
62
  3
100
AcDb2dPolyline
66
1
10
0.0
20
0.0
30
0.0
70
0
0
VERTEX
5
62f
100
AcDbEntity
8
0-1_2_0
6
CONTINUOUS
62
  3
100
AcDbVertex
100
AcDb2dVertex
10
712.850000000000
20
617.630000000000
30
0.0
0
VERTEX
5
630
100
AcDbEntity
8
0-1_2_0
6
CONTINUOUS
62
  3
100
AcDbVertex
100
AcDb2dVertex
10
757.370000000000
20
608.720000000000
30
0.0
0
VERTEX
5
631
100
AcDbEntity
8
0-1_2_0
6
CONTINUOUS
62
  3
100
AcDbVertex
100
AcDb2dVertex
10
776.080000000000
20
702.270000000000
30
0.0
0
SEQEND
5
632
100
AcDbEntity
8
0-1_2_0
0
LINE
5
633
100
AcDbEntity
8
0-1_2_0
6
CONTINUOUS
62
3
100
AcDbLine
10
732.020000000000
20
713.430000000000
30
0.0
11
776.530000000000
21
704.530000000000
31
0.0
0
LINE
5
634
100
AcDbEntity
8
0-1_2_0
6
CONTINUOUS
62
3
100
AcDbLine
10
776.080000000000
20
702.270000000000
30
0.0
11
731.560000000000
21
711.170000000000
31
0.0
0
LINE
5
635
100
AcDbEntity
8
0-1_2_0
6
CONTINUOUS
62
3
100
AcDbLine
10
725.840000000000
20
694.270000000000
30
0.0
11
729.310000000000
21
711.620000000000
31
0.0
0
POLYLINE
5
636
100
AcDbEntity
8
0-1_2_0
6
CONTINUOUS
62
  3
100
AcDb2dPolyline
66
1
10
0.0
20
0.0
30
0.0
70
0
0
VERTEX
5
637
100
AcDbEntity
8
0-1_2_0
6
CONTINUOUS
62
  3
100
AcDbVertex
100
AcDb2dVertex
10
731.560000000000
20
711.170000000000
30
0.0
0
VERTEX
5
638
100
AcDbEntity
8
0-1_2_0
6
CONTINUOUS
62
  3
100
AcDbVertex
100
AcDb2dVertex
10
728.090000000000
20
693.820000000000
30
0.0
0
VERTEX
5
639
100
AcDbEntity
8
0-1_2_0
6
CONTINUOUS
62
  3
100
AcDbVertex
100
AcDb2dVertex
10
725.840000000000
20
694.270000000000
30
0.0
0
SEQEND
5
63a
100
AcDbEntity
8
0-1_2_0
0
LINE
5
63b
100
AcDbEntity
8
0-1_2_0
6
CONTINUOUS
62
3
100
AcDbLine
10
716.330000000000
20
634.980000000000
30
0.0
11
712.850000000000
21
617.630000000000
31
0.0
0
POLYLINE
5
63c
100
AcDbEntity
8
0-1_2_0
6
CONTINUOUS
62
  3
100
AcDb2dPolyline
66
1
10
0.0
20
0.0
30
0.0
70
0
0
VERTEX
5
63d
100
AcDbEntity
8
0-1_2_0
6
CONTINUOUS
62
  3
100
AcDbVertex
100
AcDb2dVertex
10
710.600000000000
20
618.080000000000
30
0.0
0
VERTEX
5
63e
100
AcDbEntity
8
0-1_2_0
6
CONTINUOUS
62
  3
100
AcDbVertex
100
AcDb2dVertex
10
714.070000000000
20
635.430000000000
30
0.0
0
VERTEX
5
63f
100
AcDbEntity
8
0-1_2_0
6
CONTINUOUS
62
  3
100
AcDbVertex
100
AcDb2dVertex
10
716.330000000000
20
634.980000000000
30
0.0
0
SEQEND
5
640
100
AcDbEntity
8
0-1_2_0
0
LINE
5
641
100
AcDbEntity
8
0-1_2_0
6
CONTINUOUS
62
3
100
AcDbLine
10
756.920000000000
20
606.470000000000
30
0.0
11
712.400000000000
21
615.370000000000
31
0.0
0
LINE
5
642
100
AcDbEntity
8
0-1_2_0
6
CONTINUOUS
62
4
100
AcDbLine
10
764.570000000000
20
734.960000000000
30
0.0
11
754.760000000000
21
736.920000000000
31
0.0
0
LINE
5
643
100
AcDbEntity
8
0-1_2_0
6
CONTINUOUS
62
4
100
AcDbLine
10
762.710000000000
20
735.840000000000
30
0.0
11
756.820000000000
21
737.020000000000
31
0.0
0
LINE
5
644
100
AcDbEntity
8
0-1_2_0
6
CONTINUOUS
62
4
100
AcDbLine
10
754.760000000000
20
736.920000000000
30
0.0
11
754.690000000000
21
736.530000000000
31
0.0
0
LINE
5
645
100
AcDbEntity
8
0-1_2_0
6
CONTINUOUS
62
4
100
AcDbLine
10
756.820000000000
20
737.020000000000
30
0.0
11
755.250000000000
21
736.830000000000
31
0.0
0
LINE
5
646
100
AcDbEntity
8
0-1_2_0
6
CONTINUOUS
62
4
100
AcDbLine
10
755.180000000000
20
725.750000000000
30
0.0
11
760.050000000000
21
725.600000000000
31
0.0
0
LINE
5
647
100
AcDbEntity
8
0-1_2_0
6
CONTINUOUS
62
4
100
AcDbLine
10
754.870000000000
20
724.180000000000
30
0.0
11
759.730000000000
21
724.030000000000
31
0.0
0
LINE
5
648
100
AcDbEntity
8
0-1_2_0
6
CONTINUOUS
62
4
100
AcDbLine
10
754.550000000000
20
722.610000000000
30
0.0
11
759.420000000000
21
722.460000000000
31
0.0
0
LINE
5
649
100
AcDbEntity
8
0-1_2_0
6
CONTINUOUS
62
4
100
AcDbLine
10
755.500000000000
20
727.320000000000
30
0.0
11
760.360000000000
21
727.170000000000
31
0.0
0
LINE
5
64a
100
AcDbEntity
8
0-1_2_0
6
CONTINUOUS
62
4
100
AcDbLine
10
764.570000000000
20
734.960000000000
30
0.0
11
764.490000000000
21
734.570000000000
31
0.0
0
LINE
5
64b
100
AcDbEntity
8
0-1_2_0
6
CONTINUOUS
62
4
100
AcDbLine
10
762.710000000000
20
735.840000000000
30
0.0
11
764.080000000000
21
735.060000000000
31
0.0
0
LINE
5
64c
100
AcDbEntity
8
0-1_2_0
6
CONTINUOUS
62
4
100
AcDbLine
10
753.930000000000
20
719.480000000000
30
0.0
11
758.790000000000
21
719.320000000000
31
0.0
0
LINE
5
64d
100
AcDbEntity
8
0-1_2_0
6
CONTINUOUS
62
4
100
AcDbLine
10
754.240000000000
20
721.050000000000
30
0.0
11
759.110000000000
21
720.890000000000
31
0.0
0
LINE
5
64e
100
AcDbEntity
8
0-1_2_0
6
CONTINUOUS
62
4
100
AcDbLine
10
753.610000000000
20
717.910000000000
30
0.0
11
758.480000000000
21
717.750000000000
31
0.0
0
LINE
5
64f
100
AcDbEntity
8
0-1_2_0
6
CONTINUOUS
62
4
100
AcDbLine
10
753.300000000000
20
716.340000000000
30
0.0
11
758.160000000000
21
716.180000000000
31
0.0
0
LINE
5
650
100
AcDbEntity
8
0-1_2_0
6
CONTINUOUS
62
4
100
AcDbLine
10
751.740000000000
20
696.330000000000
30
0.0
11
754.020000000000
21
697.500000000000
31
0.0
0
LINE
5
651
100
AcDbEntity
8
0-1_2_0
6
CONTINUOUS
62
4
100
AcDbLine
10
750.100000000000
20
698.290000000000
30
0.0
11
751.740000000000
21
696.330000000000
31
0.0
0
LINE
5
652
100
AcDbEntity
8
0-1_2_0
6
CONTINUOUS
62
4
100
AcDbLine
10
764.490000000000
20
734.570000000000
30
0.0
11
754.690000000000
21
736.530000000000
31
0.0
0
LINE
5
653
100
AcDbEntity
8
0-1_2_0
6
CONTINUOUS
62
4
100
AcDbLine
10
756.120000000000
20
730.460000000000
30
0.0
11
760.990000000000
21
730.300000000000
31
0.0
0
LINE
5
654
100
AcDbEntity
8
0-1_2_0
6
CONTINUOUS
62
4
100
AcDbLine
10
755.810000000000
20
728.890000000000
30
0.0
11
760.670000000000
21
728.730000000000
31
0.0
0
LINE
5
655
100
AcDbEntity
8
0-1_2_0
6
CONTINUOUS
62
4
100
AcDbLine
10
756.440000000000
20
732.030000000000
30
0.0
11
761.300000000000
21
731.870000000000
31
0.0
0
LINE
5
656
100
AcDbEntity
8
0-1_2_0
6
CONTINUOUS
62
4
100
AcDbLine
10
752.990000000000
20
714.770000000000
30
0.0
11
757.850000000000
21
714.610000000000
31
0.0
0
LINE
5
657
100
AcDbEntity
8
0-1_2_0
6
CONTINUOUS
62
4
100
AcDbLine
10
752.670000000000
20
713.200000000000
30
0.0
11
757.540000000000
21
713.040000000000
31
0.0
0
LINE
5
658
100
AcDbEntity
8
0-1_2_0
6
CONTINUOUS
62
4
100
AcDbLine
10
752.360000000000
20
711.630000000000
30
0.0
11
757.220000000000
21
711.480000000000
31
0.0
0
LINE
5
659
100
AcDbEntity
8
0-1_2_0
6
CONTINUOUS
62
4
100
AcDbLine
10
752.040000000000
20
710.060000000000
30
0.0
11
756.910000000000
21
709.910000000000
31
0.0
0
LINE
5
65a
100
AcDbEntity
8
0-1_2_0
6
CONTINUOUS
62
4
100
AcDbLine
10
751.730000000000
20
708.500000000000
30
0.0
11
756.590000000000
21
708.340000000000
31
0.0
0
LINE
5
65b
100
AcDbEntity
8
0-1_2_0
6
CONTINUOUS
62
4
100
AcDbLine
10
751.420000000000
20
706.930000000000
30
0.0
11
756.280000000000
21
706.770000000000
31
0.0
0
LINE
5
65c
100
AcDbEntity
8
0-1_2_0
6
CONTINUOUS
62
4
100
AcDbLine
10
751.100000000000
20
705.360000000000
30
0.0
11
755.970000000000
21
705.200000000000
31
0.0
0
LINE
5
65d
100
AcDbEntity
8
0-1_2_0
6
CONTINUOUS
62
4
100
AcDbLine
10
750.790000000000
20
703.790000000000
30
0.0
11
755.650000000000
21
703.630000000000
31
0.0
0
LINE
5
65e
100
AcDbEntity
8
0-1_2_0
6
CONTINUOUS
62
4
100
AcDbLine
10
750.480000000000
20
702.220000000000
30
0.0
11
755.340000000000
21
702.060000000000
31
0.0
0
LINE
5
65f
100
AcDbEntity
8
0-1_2_0
6
CENTER2
62
4
100
AcDbLine
10
759.790000000000
20
736.530000000000
30
0.0
11
750.440000000000
21
689.790000000000
31
0.0
0
LINE
5
660
100
AcDbEntity
8
0-1_2_0
6
CONTINUOUS
62
4
100
AcDbLine
10
750.100000000000
20
698.290000000000
30
0.0
11
757.630000000000
21
735.940000000000
31
0.0
0
LINE
5
661
100
AcDbEntity
8
0-1_2_0
6
CONTINUOUS
62
4
100
AcDbLine
10
754.020000000000
20
697.500000000000
30
0.0
11
761.550000000000
21
735.160000000000
31
0.0
0
LINE
5
662
100
AcDbEntity
8
0-1_2_0
6
CONTINUOUS
62
4
100
AcDbLine
10
690.020000000000
20
721.830000000000
30
0.0
11
670.410000000000
21
751.250000000000
31
0.0
0
LINE
5
663
100
AcDbEntity
8
0-1_2_0
6
CONTINUOUS
62
4
100
AcDbLine
10
717.750000000000
20
716.280000000000
30
0.0
11
698.140000000000
21
745.700000000000
31
0.0
0
LINE
5
664
100
AcDbEntity
8
0-1_2_0
6
CONTINUOUS
62
4
100
AcDbLine
10
745.490000000000
20
710.730000000000
30
0.0
11
725.880000000000
21
740.150000000000
31
0.0
0
LINE
5
665
100
AcDbEntity
8
0-1_2_0
6
CONTINUOUS
62
4
100
AcDbLine
10
773.220000000000
20
705.190000000000
30
0.0
11
753.610000000000
21
734.600000000000
31
0.0
0
LINE
5
666
100
AcDbEntity
8
0-1_2_0
6
CONTINUOUS
62
4
100
AcDbLine
10
800.960000000000
20
699.640000000000
30
0.0
11
781.350000000000
21
729.060000000000
31
0.0
0
LINE
5
667
100
AcDbEntity
8
0-1_2_0
6
CONTINUOUS
62
4
100
AcDbLine
10
828.690000000000
20
694.090000000000
30
0.0
11
809.080000000000
21
723.510000000000
31
0.0
0
LINE
5
668
100
AcDbEntity
8
0-1_2_0
6
CONTINUOUS
62
4
100
AcDbLine
10
849.230000000000
20
699.340000000000
30
0.0
11
836.810000000000
21
717.960000000000
31
0.0
0
LINE
5
669
100
AcDbEntity
8
0-1_2_0
6
CONTINUOUS
62
4
100
AcDbLine
10
849.300000000000
20
715.470000000000
30
0.0
11
819.880000000000
21
695.860000000000
31
0.0
0
LINE
5
66a
100
AcDbEntity
8
0-1_2_0
6
CONTINUOUS
62
4
100
AcDbLine
10
821.560000000000
20
721.010000000000
30
0.0
11
792.150000000000
21
701.400000000000
31
0.0
0
LINE
5
66b
100
AcDbEntity
8
0-1_2_0
6
CONTINUOUS
62
4
100
AcDbLine
10
793.830000000000
20
726.560000000000
30
0.0
11
764.410000000000
21
706.950000000000
31
0.0
0
LINE
5
66c
100
AcDbEntity
8
0-1_2_0
6
CONTINUOUS
62
4
100
AcDbLine
10
766.090000000000
20
732.110000000000
30
0.0
11
736.680000000000
21
712.500000000000
31
0.0
0
LINE
5
66d
100
AcDbEntity
8
0-1_2_0
6
CONTINUOUS
62
4
100
AcDbLine
10
738.360000000000
20
737.660000000000
30
0.0
11
708.940000000000
21
718.040000000000
31
0.0
0
LINE
5
66e
100
AcDbEntity
8
0-1_2_0
6
CONTINUOUS
62
4
100
AcDbLine
10
710.620000000000
20
743.200000000000
30
0.0
11
681.210000000000
21
723.590000000000
31
0.0
0
LINE
5
66f
100
AcDbEntity
8
0-1_2_0
6
CONTINUOUS
62
3
100
AcDbLine
10
778.340000000000
20
701.820000000000
30
0.0
11
759.630000000000
21
608.270000000000
31
0.0
0
LINE
5
670
100
AcDbEntity
8
0-1_2_0
6
CONTINUOUS
62
7
100
AcDbLine
10
789.160000000000
20
753.190000000000
30
0.0
11
789.040000000000
21
752.610000000000
31
0.0
0
LINE
5
671
100
AcDbEntity
8
0-1_2_0
6
CONTINUOUS
62
7
100
AcDbLine
10
789.160000000000
20
753.190000000000
30
0.0
11
803.870000000000
21
750.250000000000
31
0.0
0
LINE
5
672
100
AcDbEntity
8
0-1_2_0
6
CONTINUOUS
62
7
100
AcDbLine
10
789.040000000000
20
752.610000000000
30
0.0
11
803.750000000000
21
749.660000000000
31
0.0
0
LINE
5
673
100
AcDbEntity
8
0-1_2_0
6
CONTINUOUS
62
7
100
AcDbLine
10
784.380000000000
20
754.760000000000
30
0.0
11
803.990000000000
21
750.840000000000
31
0.0
0
LINE
5
674
100
AcDbEntity
8
0-1_2_0
6
CONTINUOUS
62
7
100
AcDbLine
10
784.490000000000
20
755.350000000000
30
0.0
11
804.110000000000
21
751.430000000000
31
0.0
0
LINE
5
675
100
AcDbEntity
8
0-1_2_0
6
CONTINUOUS
62
7
100
AcDbLine
10
759.980000000000
20
760.250000000000
30
0.0
11
759.860000000000
21
759.670000000000
31
0.0
0
LINE
5
676
100
AcDbEntity
8
0-1_2_0
6
CONTINUOUS
62
7
100
AcDbLine
10
754.960000000000
20
760.650000000000
30
0.0
11
759.860000000000
21
759.670000000000
31
0.0
0
LINE
5
677
100
AcDbEntity
8
0-1_2_0
6
CONTINUOUS
62
7
100
AcDbLine
10
755.080000000000
20
761.230000000000
30
0.0
11
759.980000000000
21
760.250000000000
31
0.0
0
LINE
5
678
100
AcDbEntity
8
0-1_2_0
6
CONTINUOUS
62
7
100
AcDbLine
10
774.380000000000
20
756.150000000000
30
0.0
11
754.840000000000
21
760.060000000000
31
0.0
0
LINE
5
679
100
AcDbEntity
8
0-1_2_0
6
CONTINUOUS
62
7
100
AcDbLine
10
784.100000000000
20
756.040000000000
30
0.0
11
804.220000000000
21
752.020000000000
31
0.0
0
LINE
5
67a
100
AcDbEntity
8
0-1_2_0
6
CONTINUOUS
62
7
100
AcDbLine
10
774.410000000000
20
755.550000000000
30
0.0
11
783.950000000000
21
756.050000000000
31
0.0
0
LINE
5
67b
100
AcDbEntity
8
0-1_2_0
6
CONTINUOUS
62
7
100
AcDbLine
10
774.260000000000
20
755.560000000000
30
0.0
11
754.720000000000
21
759.470000000000
31
0.0
0
LINE
5
67c
100
AcDbEntity
8
0-1_2_0
6
CONTINUOUS
62
7
100
AcDbLine
10
784.210000000000
20
756.630000000000
30
0.0
11
804.340000000000
21
752.610000000000
31
0.0
0
LINE
5
67d
100
AcDbEntity
8
0-1_2_0
6
CONTINUOUS
62
7
100
AcDbLine
10
784.070000000000
20
756.640000000000
30
0.0
11
774.530000000000
21
756.140000000000
31
0.0
0
LINE
5
67e
100
AcDbEntity
8
0-1_2_0
6
CONTINUOUS
62
4
100
AcDbLine
10
766.030000000000
20
746.090000000000
30
0.0
11
768.290000000000
21
757.370000000000
31
0.0
0
LINE
5
67f
100
AcDbEntity
8
0-1_2_0
6
CONTINUOUS
62
4
100
AcDbLine
10
765.840000000000
20
757.860000000000
30
0.0
11
763.580000000000
21
746.580000000000
31
0.0
0
LINE
5
680
100
AcDbEntity
8
0-1_2_0
6
CONTINUOUS
62
4
100
AcDbLine
10
772.040000000000
20
757.030000000000
30
0.0
11
762.240000000000
21
758.990000000000
31
0.0
0
LINE
5
681
100
AcDbEntity
8
0-1_2_0
6
CONTINUOUS
62
4
100
AcDbLine
10
770.180000000000
20
757.910000000000
30
0.0
11
764.300000000000
21
759.080000000000
31
0.0
0
LINE
5
682
100
AcDbEntity
8
0-1_2_0
6
CONTINUOUS
62
4
100
AcDbLine
10
762.240000000000
20
758.990000000000
30
0.0
11
762.160000000000
21
758.590000000000
31
0.0
0
LINE
5
683
100
AcDbEntity
8
0-1_2_0
6
CONTINUOUS
62
4
100
AcDbLine
10
764.300000000000
20
759.080000000000
30
0.0
11
762.730000000000
21
758.890000000000
31
0.0
0
LINE
5
684
100
AcDbEntity
8
0-1_2_0
6
CONTINUOUS
62
4
100
AcDbLine
10
764.920000000000
20
754.550000000000
30
0.0
11
767.960000000000
21
754.460000000000
31
0.0
0
LINE
5
685
100
AcDbEntity
8
0-1_2_0
6
CONTINUOUS
62
4
100
AcDbLine
10
764.720000000000
20
753.570000000000
30
0.0
11
767.760000000000
21
753.480000000000
31
0.0
0
LINE
5
686
100
AcDbEntity
8
0-1_2_0
6
CONTINUOUS
62
4
100
AcDbLine
10
764.530000000000
20
752.590000000000
30
0.0
11
767.570000000000
21
752.500000000000
31
0.0
0
LINE
5
687
100
AcDbEntity
8
0-1_2_0
6
CONTINUOUS
62
4
100
AcDbLine
10
765.120000000000
20
755.540000000000
30
0.0
11
768.160000000000
21
755.440000000000
31
0.0
0
LINE
5
688
100
AcDbEntity
8
0-1_2_0
6
CONTINUOUS
62
4
100
AcDbLine
10
772.040000000000
20
757.030000000000
30
0.0
11
771.960000000000
21
756.630000000000
31
0.0
0
LINE
5
689
100
AcDbEntity
8
0-1_2_0
6
CONTINUOUS
62
4
100
AcDbLine
10
770.180000000000
20
757.910000000000
30
0.0
11
771.550000000000
21
757.120000000000
31
0.0
0
LINE
5
68a
100
AcDbEntity
8
0-1_2_0
6
CONTINUOUS
62
4
100
AcDbLine
10
764.140000000000
20
750.630000000000
30
0.0
11
767.180000000000
21
750.530000000000
31
0.0
0
LINE
5
68b
100
AcDbEntity
8
0-1_2_0
6
CONTINUOUS
62
4
100
AcDbLine
10
764.330000000000
20
751.610000000000
30
0.0
11
767.370000000000
21
751.510000000000
31
0.0
0
LINE
5
68c
100
AcDbEntity
8
0-1_2_0
6
CONTINUOUS
62
4
100
AcDbLine
10
763.940000000000
20
749.650000000000
30
0.0
11
766.980000000000
21
749.550000000000
31
0.0
0
LINE
5
68d
100
AcDbEntity
8
0-1_2_0
6
CONTINUOUS
62
4
100
AcDbLine
10
763.740000000000
20
748.670000000000
30
0.0
11
766.780000000000
21
748.570000000000
31
0.0
0
LINE
5
68e
100
AcDbEntity
8
0-1_2_0
6
CONTINUOUS
62
4
100
AcDbLine
10
764.610000000000
20
745.360000000000
30
0.0
11
766.030000000000
21
746.090000000000
31
0.0
0
LINE
5
68f
100
AcDbEntity
8
0-1_2_0
6
CONTINUOUS
62
4
100
AcDbLine
10
763.580000000000
20
746.580000000000
30
0.0
11
764.610000000000
21
745.360000000000
31
0.0
0
LINE
5
690
100
AcDbEntity
8
0-1_2_0
6
CONTINUOUS
62
4
100
AcDbLine
10
771.960000000000
20
756.630000000000
30
0.0
11
762.160000000000
21
758.590000000000
31
0.0
0
LINE
5
691
100
AcDbEntity
8
0-1_2_0
6
CONTINUOUS
62
7
100
AcDbLine
10
661.260000000000
20
760.110000000000
30
0.0
11
664.610000000000
21
776.880000000000
31
0.0
0
LINE
5
692
100
AcDbEntity
8
0-1_2_0
6
CONTINUOUS
62
7
100
AcDbLine
10
784.380000000000
20
757.820000000000
30
0.0
11
804.580000000000
21
753.780000000000
31
0.0
0
LINE
5
693
100
AcDbEntity
8
0-1_2_0
6
CONTINUOUS
62
7
100
AcDbLine
10
784.260000000000
20
757.230000000000
30
0.0
11
804.460000000000
21
753.190000000000
31
0.0
0
LINE
5
694
100
AcDbEntity
8
0-1_2_0
6
CONTINUOUS
62
7
100
AcDbLine
10
664.610000000000
20
776.880000000000
30
0.0
11
857.040000000000
21
738.390000000000
31
0.0
0
LINE
5
695
100
AcDbEntity
8
0-1_2_0
6
CONTINUOUS
62
4
100
AcDbLine
10
662.280000000000
20
727.380000000000
30
0.0
11
657.430000000000
21
734.650000000000
31
0.0
0
LINE
5
696
100
AcDbEntity
8
0-1_2_0
6
CONTINUOUS
62
4
100
AcDbLine
10
682.890000000000
20
748.750000000000
30
0.0
11
656.770000000000
21
731.330000000000
31
0.0
0
LINE
5
697
100
AcDbEntity
8
0-1_2_0
6
CONTINUOUS
62
3
100
AcDbLine
10
656.220000000000
20
728.590000000000
30
0.0
11
847.430000000000
21
690.350000000000
31
0.0
0
LINE
5
698
100
AcDbEntity
8
0-1_2_0
6
CONTINUOUS
62
3
100
AcDbLine
10
661.120000000000
20
753.100000000000
30
0.0
11
852.330000000000
21
714.860000000000
31
0.0
0
LINE
5
699
100
AcDbEntity
8
0-1_2_0
6
CONTINUOUS
62
3
100
AcDbLine
10
656.220000000000
20
728.590000000000
30
0.0
11
661.120000000000
21
753.100000000000
31
0.0
0
LINE
5
69a
100
AcDbEntity
8
0-1_2_0
6
CONTINUOUS
62
7
100
AcDbLine
10
655.860000000000
20
780.260000000000
30
0.0
11
528.170000000000
21
757.230000000000
31
0.0
0
LINE
5
69b
100
AcDbEntity
8
0-1_2_0
6
CONTINUOUS
62
7
100
AcDbLine
10
656.570000000000
20
780.260000000000
30
0.0
11
784.260000000000
21
757.230000000000
31
0.0
0
LINE
5
69c
100
AcDbEntity
8
0-1_2_0
6
CONTINUOUS
62
7
100
AcDbLine
10
655.860000000000
20
780.870000000000
30
0.0
11
528.070000000000
21
757.820000000000
31
0.0
0
LINE
5
69d
100
AcDbEntity
8
0-1_2_0
6
CONTINUOUS
62
7
100
AcDbLine
10
656.570000000000
20
780.870000000000
30
0.0
11
784.360000000000
21
757.820000000000
31
0.0
0
LINE
5
69e
100
AcDbEntity
8
0-1_2_0
6
DASHED
62
7
100
AcDbLine
10
655.240000000000
20
754.910000000000
30
0.0
11
459.900000000000
21
715.840000000000
31
0.0
0
LINE
5
69f
100
AcDbEntity
8
0-1_2_0
6
DASHED
62
7
100
AcDbLine
10
657.200000000000
20
754.910000000000
30
0.0
11
852.530000000000
21
715.840000000000
31
0.0
0
POLYLINE
5
6a0
100
AcDbEntity
8
0-1_2_0
6
CONTINUOUS
62
  4
100
AcDb2dPolyline
66
1
10
0.0
20
0.0
30
0.0
70
0
0
VERTEX
5
6a1
100
AcDbEntity
8
0-1_2_0
6
CONTINUOUS
62
  4
100
AcDbVertex
100
AcDb2dVertex
10
499.770000000000
20
788.110000000000
30
0.0
0
VERTEX
5
6a2
100
AcDbEntity
8
0-1_2_0
6
CONTINUOUS
62
  4
100
AcDbVertex
100
AcDb2dVertex
10
491.710000000000
20
828.420000000000
30
0.0
0
VERTEX
5
6a3
100
AcDbEntity
8
0-1_2_0
6
CONTINUOUS
62
  4
100
AcDbVertex
100
AcDb2dVertex
10
640.760000000000
20
858.230000000000
30
0.0
0
SEQEND
5
6a4
100
AcDbEntity
8
0-1_2_0
0
LINE
5
6a5
100
AcDbEntity
8
0-1_2_0
6
CONTINUOUS
62
4
100
AcDbLine
10
648.820000000000
20
817.920000000000
30
0.0
11
640.760000000000
21
858.230000000000
31
0.0
0
LINE
5
6a6
100
AcDbEntity
8
0-8_2_7
6
CONTINUOUS
62
4
100
AcDbLine
10
1691.260000000000
20
671.610000000000
30
0.0
11
1716.260000000000
21
696.610000000000
31
0.0
0
LINE
5
6a7
100
AcDbEntity
8
0-8_2_7
6
CONTINUOUS
62
4
100
AcDbLine
10
1662.980000000000
20
671.610000000000
30
0.0
11
1687.980000000000
21
696.610000000000
31
0.0
0
LINE
5
6a8
100
AcDbEntity
8
0-8_2_7
6
CONTINUOUS
62
4
100
AcDbLine
10
1634.700000000000
20
671.610000000000
30
0.0
11
1659.700000000000
21
696.610000000000
31
0.0
0
LINE
5
6a9
100
AcDbEntity
8
0-8_2_7
6
CONTINUOUS
62
4
100
AcDbLine
10
1606.410000000000
20
671.610000000000
30
0.0
11
1631.410000000000
21
696.610000000000
31
0.0
0
LINE
5
6aa
100
AcDbEntity
8
0-8_2_7
6
CONTINUOUS
62
4
100
AcDbLine
10
1578.130000000000
20
671.610000000000
30
0.0
11
1603.130000000000
21
696.610000000000
31
0.0
0
LINE
5
6ab
100
AcDbEntity
8
0-8_2_7
6
CONTINUOUS
62
4
100
AcDbLine
10
1549.840000000000
20
671.610000000000
30
0.0
11
1574.840000000000
21
696.610000000000
31
0.0
0
LINE
5
6ac
100
AcDbEntity
8
0-8_2_7
6
CONTINUOUS
62
4
100
AcDbLine
10
1530.730000000000
20
680.790000000000
30
0.0
11
1546.560000000000
21
696.610000000000
31
0.0
0
LINE
5
6ad
100
AcDbEntity
8
0-8_2_7
6
CONTINUOUS
62
4
100
AcDbLine
10
1533.830000000000
20
696.610000000000
30
0.0
11
1558.830000000000
21
671.610000000000
31
0.0
0
LINE
5
6ae
100
AcDbEntity
8
0-8_2_7
6
CONTINUOUS
62
4
100
AcDbLine
10
1562.110000000000
20
696.610000000000
30
0.0
11
1587.110000000000
21
671.610000000000
31
0.0
0
LINE
5
6af
100
AcDbEntity
8
0-8_2_7
6
CONTINUOUS
62
4
100
AcDbLine
10
1590.400000000000
20
696.610000000000
30
0.0
11
1615.400000000000
21
671.610000000000
31
0.0
0
LINE
5
6b0
100
AcDbEntity
8
0-8_2_7
6
CONTINUOUS
62
4
100
AcDbLine
10
1618.680000000000
20
696.610000000000
30
0.0
11
1643.680000000000
21
671.610000000000
31
0.0
0
LINE
5
6b1
100
AcDbEntity
8
0-8_2_7
6
CONTINUOUS
62
4
100
AcDbLine
10
1646.960000000000
20
696.610000000000
30
0.0
11
1671.960000000000
21
671.610000000000
31
0.0
0
LINE
5
6b2
100
AcDbEntity
8
0-8_2_7
6
CONTINUOUS
62
4
100
AcDbLine
10
1675.250000000000
20
696.610000000000
30
0.0
11
1700.250000000000
21
671.610000000000
31
0.0
0
LINE
5
6b3
100
AcDbEntity
8
0-8_2_7
6
CONTINUOUS
62
3
100
AcDbLine
10
1805.350000000000
20
698.610000000000
30
0.0
11
1745.350000000000
21
698.610000000000
31
0.0
0
LINE
5
6b4
100
AcDbEntity
8
0-8_2_7
6
CONTINUOUS
62
3
100
AcDbLine
10
1745.350000000000
20
722.610000000000
30
0.0
11
1745.350000000000
21
698.610000000000
31
0.0
0
LINE
5
6b5
100
AcDbEntity
8
0-8_2_7
6
CONTINUOUS
62
3
100
AcDbLine
10
1805.350000000000
20
722.610000000000
30
0.0
11
1745.350000000000
21
722.610000000000
31
0.0
0
LINE
5
6b6
100
AcDbEntity
8
0-8_2_7
6
CONTINUOUS
62
3
100
AcDbLine
10
1805.350000000000
20
722.610000000000
30
0.0
11
1805.350000000000
21
698.610000000000
31
0.0
0
LINE
5
6b7
100
AcDbEntity
8
0-8_2_7
6
CONTINUOUS
62
3
100
AcDbLine
10
1809.650000000000
20
778.910000000000
30
0.0
11
1809.650000000000
21
824.310000000000
31
0.0
0
LINE
5
6b8
100
AcDbEntity
8
0-8_2_7
6
CONTINUOUS
62
3
100
AcDbLine
10
1905.050000000000
20
826.610000000000
30
0.0
11
1809.650000000000
21
826.610000000000
31
0.0
0
LINE
5
6b9
100
AcDbEntity
8
0-8_2_7
6
CONTINUOUS
62
3
100
AcDbLine
10
1809.650000000000
20
824.310000000000
30
0.0
11
1905.050000000000
21
824.310000000000
31
0.0
0
LINE
5
6ba
100
AcDbEntity
8
0-8_2_7
6
CONTINUOUS
62
3
100
AcDbLine
10
1907.350000000000
20
778.910000000000
30
0.0
11
1907.350000000000
21
824.310000000000
31
0.0
0
LINE
5
6bb
100
AcDbEntity
8
0-8_2_7
6
CONTINUOUS
62
3
100
AcDbLine
10
1905.050000000000
20
824.310000000000
30
0.0
11
1905.050000000000
21
778.910000000000
31
0.0
0
LINE
5
6bc
100
AcDbEntity
8
0-8_2_7
6
CONTINUOUS
62
3
100
AcDbLine
10
1887.350000000000
20
776.610000000000
30
0.0
11
1905.050000000000
21
776.610000000000
31
0.0
0
POLYLINE
5
6bd
100
AcDbEntity
8
0-8_2_7
6
CONTINUOUS
62
  3
100
AcDb2dPolyline
66
1
10
0.0
20
0.0
30
0.0
70
0
0
VERTEX
5
6be
100
AcDbEntity
8
0-8_2_7
6
CONTINUOUS
62
  3
100
AcDbVertex
100
AcDb2dVertex
10
1905.050000000000
20
778.910000000000
30
0.0
0
VERTEX
5
6bf
100
AcDbEntity
8
0-8_2_7
6
CONTINUOUS
62
  3
100
AcDbVertex
100
AcDb2dVertex
10
1887.350000000000
20
778.910000000000
30
0.0
0
VERTEX
5
6c0
100
AcDbEntity
8
0-8_2_7
6
CONTINUOUS
62
  3
100
AcDbVertex
100
AcDb2dVertex
10
1887.350000000000
20
776.610000000000
30
0.0
0
SEQEND
5
6c1
100
AcDbEntity
8
0-8_2_7
0
LINE
5
6c2
100
AcDbEntity
8
0-8_2_7
6
CONTINUOUS
62
3
100
AcDbLine
10
1827.350000000000
20
778.910000000000
30
0.0
11
1809.650000000000
21
778.910000000000
31
0.0
0
POLYLINE
5
6c3
100
AcDbEntity
8
0-8_2_7
6
CONTINUOUS
62
  3
100
AcDb2dPolyline
66
1
10
0.0
20
0.0
30
0.0
70
0
0
VERTEX
5
6c4
100
AcDbEntity
8
0-8_2_7
6
CONTINUOUS
62
  3
100
AcDbVertex
100
AcDb2dVertex
10
1809.650000000000
20
776.610000000000
30
0.0
0
VERTEX
5
6c5
100
AcDbEntity
8
0-8_2_7
6
CONTINUOUS
62
  3
100
AcDbVertex
100
AcDb2dVertex
10
1827.350000000000
20
776.610000000000
30
0.0
0
VERTEX
5
6c6
100
AcDbEntity
8
0-8_2_7
6
CONTINUOUS
62
  3
100
AcDbVertex
100
AcDb2dVertex
10
1827.350000000000
20
778.910000000000
30
0.0
0
SEQEND
5
6c7
100
AcDbEntity
8
0-8_2_7
0
LINE
5
6c8
100
AcDbEntity
8
0-8_2_7
6
CONTINUOUS
62
3
100
AcDbLine
10
1807.350000000000
20
824.310000000000
30
0.0
11
1807.350000000000
21
778.910000000000
31
0.0
0
LINE
5
6c9
100
AcDbEntity
8
0-8_2_7
6
CONTINUOUS
62
7
100
AcDbLine
10
1803.550000000000
20
820.190000000000
30
0.0
11
1803.550000000000
21
824.310000000000
31
0.0
0
LINE
5
6ca
100
AcDbEntity
8
0-8_2_7
6
CONTINUOUS
62
7
100
AcDbLine
10
1804.150000000000
20
820.190000000000
30
0.0
11
1803.550000000000
21
820.190000000000
31
0.0
0
LINE
5
6cb
100
AcDbEntity
8
0-8_2_7
6
CONTINUOUS
62
7
100
AcDbLine
10
1804.150000000000
20
820.190000000000
30
0.0
11
1804.150000000000
21
824.310000000000
31
0.0
0
LINE
5
6cc
100
AcDbEntity
8
0-8_2_7
6
CONTINUOUS
62
7
100
AcDbLine
10
1787.350000000000
20
731.610000000000
30
0.0
11
1787.350000000000
21
867.160000000000
31
0.0
0
POLYLINE
5
6cd
100
AcDbEntity
8
0-8_2_7
6
CONTINUOUS
62
  7
100
AcDb2dPolyline
66
1
10
0.0
20
0.0
30
0.0
70
0
0
VERTEX
5
6ce
100
AcDbEntity
8
0-8_2_7
6
CONTINUOUS
62
  7
100
AcDbVertex
100
AcDb2dVertex
10
1787.350000000000
20
731.610000000000
30
0.0
0
VERTEX
5
6cf
100
AcDbEntity
8
0-8_2_7
6
CONTINUOUS
62
  7
100
AcDbVertex
100
AcDb2dVertex
10
1802.350000000000
20
731.610000000000
30
0.0
0
VERTEX
5
6d0
100
AcDbEntity
8
0-8_2_7
6
CONTINUOUS
62
  7
100
AcDbVertex
100
AcDb2dVertex
10
1802.350000000000
20
867.160000000000
30
0.0
0
SEQEND
5
6d1
100
AcDbEntity
8
0-8_2_7
0
LINE
5
6d2
100
AcDbEntity
8
0-8_2_7
6
DASHED
62
7
100
AcDbLine
10
1805.350000000000
20
828.870000000000
30
0.0
11
1805.350000000000
21
867.160000000000
31
0.0
0
POLYLINE
5
6d3
100
AcDbEntity
8
0-8_2_7
6
DASHED
62
  7
100
AcDb2dPolyline
66
1
10
0.0
20
0.0
30
0.0
70
0
0
VERTEX
5
6d4
100
AcDbEntity
8
0-8_2_7
6
DASHED
62
  7
100
AcDbVertex
100
AcDb2dVertex
10
1805.350000000000
20
828.870000000000
30
0.0
0
VERTEX
5
6d5
100
AcDbEntity
8
0-8_2_7
6
DASHED
62
  7
100
AcDbVertex
100
AcDb2dVertex
10
1802.950000000000
20
825.170000000000
30
0.0
0
VERTEX
5
6d6
100
AcDbEntity
8
0-8_2_7
6
DASHED
62
  7
100
AcDbVertex
100
AcDb2dVertex
10
1802.950000000000
20
819.750000000000
30
0.0
0
VERTEX
5
6d7
100
AcDbEntity
8
0-8_2_7
6
DASHED
62
  7
100
AcDbVertex
100
AcDb2dVertex
10
1803.550000000000
20
817.790000000000
30
0.0
0
VERTEX
5
6d8
100
AcDbEntity
8
0-8_2_7
6
DASHED
62
  7
100
AcDbVertex
100
AcDb2dVertex
10
1803.550000000000
20
744.620000000000
30
0.0
0
SEQEND
5
6d9
100
AcDbEntity
8
0-8_2_7
0
LINE
5
6da
100
AcDbEntity
8
0-8_2_7
6
CONTINUOUS
62
4
100
AcDbLine
10
1796.610000000000
20
731.610000000000
30
0.0
11
1802.350000000000
21
737.350000000000
31
0.0
0
LINE
5
6db
100
AcDbEntity
8
0-8_2_7
6
CONTINUOUS
62
4
100
AcDbLine
10
1793.780000000000
20
731.610000000000
30
0.0
11
1802.350000000000
21
740.180000000000
31
0.0
0
LINE
5
6dc
100
AcDbEntity
8
0-8_2_7
6
CONTINUOUS
62
4
100
AcDbLine
10
1787.350000000000
20
750.640000000000
30
0.0
11
1802.350000000000
21
765.640000000000
31
0.0
0
LINE
5
6dd
100
AcDbEntity
8
0-8_2_7
6
CONTINUOUS
62
4
100
AcDbLine
10
1787.350000000000
20
753.470000000000
30
0.0
11
1802.350000000000
21
768.470000000000
31
0.0
0
LINE
5
6de
100
AcDbEntity
8
0-8_2_7
6
CONTINUOUS
62
4
100
AcDbLine
10
1787.350000000000
20
778.920000000000
30
0.0
11
1802.350000000000
21
793.920000000000
31
0.0
0
LINE
5
6df
100
AcDbEntity
8
0-8_2_7
6
CONTINUOUS
62
4
100
AcDbLine
10
1787.350000000000
20
781.750000000000
30
0.0
11
1802.350000000000
21
796.750000000000
31
0.0
0
LINE
5
6e0
100
AcDbEntity
8
0-8_2_7
6
CONTINUOUS
62
4
100
AcDbLine
10
1787.350000000000
20
807.210000000000
30
0.0
11
1802.350000000000
21
822.210000000000
31
0.0
0
LINE
5
6e1
100
AcDbEntity
8
0-8_2_7
6
CONTINUOUS
62
4
100
AcDbLine
10
1787.350000000000
20
810.030000000000
30
0.0
11
1802.350000000000
21
825.030000000000
31
0.0
0
LINE
5
6e2
100
AcDbEntity
8
0-8_2_7
6
CONTINUOUS
62
4
100
AcDbLine
10
1787.350000000000
20
835.490000000000
30
0.0
11
1802.350000000000
21
850.490000000000
31
0.0
0
LINE
5
6e3
100
AcDbEntity
8
0-8_2_7
6
CONTINUOUS
62
4
100
AcDbLine
10
1787.350000000000
20
838.320000000000
30
0.0
11
1802.350000000000
21
853.320000000000
31
0.0
0
LINE
5
6e4
100
AcDbEntity
8
0-8_2_7
6
CONTINUOUS
62
4
100
AcDbLine
10
1787.350000000000
20
863.770000000000
30
0.0
11
1790.740000000000
21
867.160000000000
31
0.0
0
LINE
5
6e5
100
AcDbEntity
8
0-8_2_7
6
CONTINUOUS
62
4
100
AcDbLine
10
1787.350000000000
20
866.600000000000
30
0.0
11
1787.910000000000
21
867.160000000000
31
0.0
0
LINE
5
6e6
100
AcDbEntity
8
0-8_2_7
6
CONTINUOUS
62
4
100
AcDbLine
10
1813.500000000000
20
696.610000000000
30
0.0
11
1855.440000000000
21
696.610000000000
31
0.0
0
LINE
5
6e7
100
AcDbEntity
8
0-8_2_7
6
DASHED
62
7
100
AcDbLine
10
1742.350000000000
20
697.610000000000
30
0.0
11
1530.730000000000
21
697.610000000000
31
0.0
0
LINE
5
6e8
100
AcDbEntity
8
0-8_2_7
6
DASHED
62
7
100
AcDbLine
10
1744.350000000000
20
699.610000000000
30
0.0
11
1744.350000000000
21
721.610000000000
31
0.0
0
LINE
5
6e9
100
AcDbEntity
8
0-8_2_7
6
DASHED
62
7
100
AcDbLine
10
1804.350000000000
20
697.610000000000
30
0.0
11
1742.350000000000
21
697.610000000000
31
0.0
0
LINE
5
6ea
100
AcDbEntity
8
0-8_2_7
6
DASHED
62
7
100
AcDbLine
10
1806.350000000000
20
725.610000000000
30
0.0
11
1806.350000000000
21
824.310000000000
31
0.0
0
LINE
5
6eb
100
AcDbEntity
8
0-8_2_7
6
DASHED
62
7
100
AcDbLine
10
1806.350000000000
20
725.610000000000
30
0.0
11
1806.350000000000
21
699.610000000000
31
0.0
0
LINE
5
6ec
100
AcDbEntity
8
0-8_2_7
6
DASHED
62
7
100
AcDbLine
10
1804.350000000000
20
723.610000000000
30
0.0
11
1746.350000000000
21
723.610000000000
31
0.0
0
LINE
5
6ed
100
AcDbEntity
8
0-8_2_7
6
CONTINUOUS
62
7
100
AcDbLine
10
1740.350000000000
20
722.810000000000
30
0.0
11
1740.350000000000
21
722.210000000000
31
0.0
0
LINE
5
6ee
100
AcDbEntity
8
0-8_2_7
6
CONTINUOUS
62
7
100
AcDbLine
10
1802.750000000000
20
725.210000000000
30
0.0
11
1726.850000000000
21
725.210000000000
31
0.0
0
LINE
5
6ef
100
AcDbEntity
8
0-8_2_7
6
CONTINUOUS
62
7
100
AcDbLine
10
1740.350000000000
20
722.810000000000
30
0.0
11
1726.850000000000
21
722.810000000000
31
0.0
0
LINE
5
6f0
100
AcDbEntity
8
0-8_2_7
6
CONTINUOUS
62
7
100
AcDbLine
10
1740.350000000000
20
722.210000000000
30
0.0
11
1726.850000000000
21
722.210000000000
31
0.0
0
LINE
5
6f1
100
AcDbEntity
8
0-8_2_7
6
CONTINUOUS
62
7
100
AcDbLine
10
1726.850000000000
20
724.010000000000
30
0.0
11
1726.850000000000
21
723.410000000000
31
0.0
0
LINE
5
6f2
100
AcDbEntity
8
0-8_2_7
6
CONTINUOUS
62
7
100
AcDbLine
10
1804.750000000000
20
727.210000000000
30
0.0
11
1804.750000000000
21
824.310000000000
31
0.0
0
LINE
5
6f3
100
AcDbEntity
8
0-8_2_7
6
CONTINUOUS
62
4
100
AcDbLine
10
1855.440000000000
20
826.610000000000
30
0.0
11
1855.440000000000
21
696.610000000000
31
0.0
0
LINE
5
6f4
100
AcDbEntity
8
0-8_2_7
6
CONTINUOUS
62
3
100
AcDbLine
10
1807.350000000000
20
696.610000000000
30
0.0
11
1530.730000000000
21
696.610000000000
31
0.0
0
POLYLINE
5
6f5
100
AcDbEntity
8
0-8_2_7
6
CONTINUOUS
62
  3
100
AcDb2dPolyline
66
1
10
0.0
20
0.0
30
0.0
70
0
0
VERTEX
5
6f6
100
AcDbEntity
8
0-8_2_7
6
CONTINUOUS
62
  3
100
AcDbVertex
100
AcDb2dVertex
10
1807.350000000000
20
696.610000000000
30
0.0
0
VERTEX
5
6f7
100
AcDbEntity
8
0-8_2_7
6
CONTINUOUS
62
  3
100
AcDbVertex
100
AcDb2dVertex
10
1807.350000000000
20
671.610000000000
30
0.0
0
VERTEX
5
6f8
100
AcDbEntity
8
0-8_2_7
6
CONTINUOUS
62
  3
100
AcDbVertex
100
AcDb2dVertex
10
1530.730000000000
20
671.610000000000
30
0.0
0
SEQEND
5
6f9
100
AcDbEntity
8
0-8_2_7
0
LINE
5
6fa
100
AcDbEntity
8
0-8_2_7
6
CONTINUOUS
62
4
100
AcDbLine
10
1719.550000000000
20
671.610000000000
30
0.0
11
1744.550000000000
21
696.610000000000
31
0.0
0
LINE
5
6fb
100
AcDbEntity
8
0-8_2_7
6
CONTINUOUS
62
4
100
AcDbLine
10
1703.530000000000
20
696.610000000000
30
0.0
11
1728.530000000000
21
671.610000000000
31
0.0
0
LINE
5
6fc
100
AcDbEntity
8
0-8_2_7
6
CONTINUOUS
62
4
100
AcDbLine
10
1747.830000000000
20
671.610000000000
30
0.0
11
1772.830000000000
21
696.610000000000
31
0.0
0
LINE
5
6fd
100
AcDbEntity
8
0-8_2_7
6
CONTINUOUS
62
4
100
AcDbLine
10
1776.120000000000
20
671.610000000000
30
0.0
11
1801.120000000000
21
696.610000000000
31
0.0
0
LINE
5
6fe
100
AcDbEntity
8
0-8_2_7
6
CONTINUOUS
62
4
100
AcDbLine
10
1731.820000000000
20
696.610000000000
30
0.0
11
1756.820000000000
21
671.610000000000
31
0.0
0
LINE
5
6ff
100
AcDbEntity
8
0-8_2_7
6
CONTINUOUS
62
4
100
AcDbLine
10
1760.100000000000
20
696.610000000000
30
0.0
11
1785.100000000000
21
671.610000000000
31
0.0
0
LINE
5
700
100
AcDbEntity
8
0-8_2_7
6
CONTINUOUS
62
4
100
AcDbLine
10
1788.390000000000
20
696.610000000000
30
0.0
11
1807.350000000000
21
677.650000000000
31
0.0
0
LINE
5
701
100
AcDbEntity
8
0-8_2_7
6
CONTINUOUS
62
4
100
AcDbLine
10
1804.400000000000
20
671.610000000000
30
0.0
11
1807.350000000000
21
674.560000000000
31
0.0
0
LINE
5
702
100
AcDbEntity
8
0-8_2_7
6
CONTINUOUS
62
7
100
AcDbLine
10
1740.750000000000
20
723.410000000000
30
0.0
11
1726.850000000000
21
723.410000000000
31
0.0
0
LINE
5
703
100
AcDbEntity
8
0-8_2_7
6
CONTINUOUS
62
7
100
AcDbLine
10
1740.750000000000
20
724.010000000000
30
0.0
11
1726.850000000000
21
724.010000000000
31
0.0
0
LINE
5
704
100
AcDbEntity
8
0-8_2_7
6
CONTINUOUS
62
4
100
AcDbLine
10
1745.350000000000
20
698.610000000000
30
0.0
11
1805.350000000000
21
722.610000000000
31
0.0
0
POLYLINE
5
705
100
AcDbEntity
8
0-8_2_7
6
CONTINUOUS
62
  3
100
AcDb2dPolyline
66
1
10
0.0
20
0.0
30
0.0
70
0
0
VERTEX
5
706
100
AcDbEntity
8
0-8_2_7
6
CONTINUOUS
62
  3
100
AcDbVertex
100
AcDb2dVertex
10
1759.650000000000
20
573.910000000000
30
0.0
0
VERTEX
5
707
100
AcDbEntity
8
0-8_2_7
6
CONTINUOUS
62
  3
100
AcDbVertex
100
AcDb2dVertex
10
1805.050000000000
20
573.910000000000
30
0.0
0
VERTEX
5
708
100
AcDbEntity
8
0-8_2_7
6
CONTINUOUS
62
  3
100
AcDbVertex
100
AcDb2dVertex
10
1805.050000000000
20
669.310000000000
30
0.0
0
VERTEX
5
709
100
AcDbEntity
8
0-8_2_7
6
CONTINUOUS
62
  3
100
AcDbVertex
100
AcDb2dVertex
10
1759.650000000000
20
669.310000000000
30
0.0
0
SEQEND
5
70a
100
AcDbEntity
8
0-8_2_7
0
LINE
5
70b
100
AcDbEntity
8
0-8_2_7
6
CONTINUOUS
62
3
100
AcDbLine
10
1757.350000000000
20
651.610000000000
30
0.0
11
1757.350000000000
21
669.310000000000
31
0.0
0
POLYLINE
5
70c
100
AcDbEntity
8
0-8_2_7
6
CONTINUOUS
62
  3
100
AcDb2dPolyline
66
1
10
0.0
20
0.0
30
0.0
70
0
0
VERTEX
5
70d
100
AcDbEntity
8
0-8_2_7
6
CONTINUOUS
62
  3
100
AcDbVertex
100
AcDb2dVertex
10
1759.650000000000
20
669.310000000000
30
0.0
0
VERTEX
5
70e
100
AcDbEntity
8
0-8_2_7
6
CONTINUOUS
62
  3
100
AcDbVertex
100
AcDb2dVertex
10
1759.650000000000
20
651.610000000000
30
0.0
0
VERTEX
5
70f
100
AcDbEntity
8
0-8_2_7
6
CONTINUOUS
62
  3
100
AcDbVertex
100
AcDb2dVertex
10
1757.350000000000
20
651.610000000000
30
0.0
0
SEQEND
5
710
100
AcDbEntity
8
0-8_2_7
0
LINE
5
711
100
AcDbEntity
8
0-8_2_7
6
CONTINUOUS
62
3
100
AcDbLine
10
1759.650000000000
20
591.610000000000
30
0.0
11
1759.650000000000
21
573.910000000000
31
0.0
0
POLYLINE
5
712
100
AcDbEntity
8
0-8_2_7
6
CONTINUOUS
62
  3
100
AcDb2dPolyline
66
1
10
0.0
20
0.0
30
0.0
70
0
0
VERTEX
5
713
100
AcDbEntity
8
0-8_2_7
6
CONTINUOUS
62
  3
100
AcDbVertex
100
AcDb2dVertex
10
1757.350000000000
20
573.910000000000
30
0.0
0
VERTEX
5
714
100
AcDbEntity
8
0-8_2_7
6
CONTINUOUS
62
  3
100
AcDbVertex
100
AcDb2dVertex
10
1757.350000000000
20
591.610000000000
30
0.0
0
VERTEX
5
715
100
AcDbEntity
8
0-8_2_7
6
CONTINUOUS
62
  3
100
AcDbVertex
100
AcDb2dVertex
10
1759.650000000000
20
591.610000000000
30
0.0
0
SEQEND
5
716
100
AcDbEntity
8
0-8_2_7
0
LINE
5
717
100
AcDbEntity
8
0-8_2_7
6
CONTINUOUS
62
3
100
AcDbLine
10
1805.050000000000
20
571.610000000000
30
0.0
11
1759.650000000000
21
571.610000000000
31
0.0
0
LINE
5
718
100
AcDbEntity
8
0-8_2_7
6
CONTINUOUS
62
3
100
AcDbLine
10
1759.650000000000
20
671.610000000000
30
0.0
11
1807.350000000000
21
671.610000000000
31
0.0
0
LINE
5
719
100
AcDbEntity
8
0-8_2_7
6
CONTINUOUS
62
3
100
AcDbLine
10
1752.350000000000
20
571.610000000000
30
0.0
11
1752.350000000000
21
671.610000000000
31
0.0
0
LINE
5
71a
100
AcDbEntity
8
0-8_2_7
6
CONTINUOUS
62
3
100
AcDbLine
10
1807.350000000000
20
824.310000000000
30
0.0
11
1807.350000000000
21
867.160000000000
31
0.0
0
LINE
5
71b
100
AcDbEntity
8
0-8_2_7
6
CONTINUOUS
62
3
100
AcDbLine
10
1530.730000000000
20
651.610000000000
30
0.0
11
1752.350000000000
21
651.610000000000
31
0.0
0
LINE
5
71c
100
AcDbEntity
8
0-8_2_7
6
CONTINUOUS
62
3
100
AcDbLine
10
1530.730000000000
20
591.610000000000
30
0.0
11
1752.350000000000
21
591.610000000000
31
0.0
0
LINE
5
71d
100
AcDbEntity
8
0-8_2_7
6
CONTINUOUS
62
3
100
AcDbLine
10
1530.730000000000
20
571.610000000000
30
0.0
11
1752.350000000000
21
571.610000000000
31
0.0
0
LINE
5
71e
100
AcDbEntity
8
0-4_2_3
6
CONTINUOUS
62
4
100
AcDbLine
10
1279.710000000000
20
791.540000000000
30
0.0
11
1194.930000000000
21
791.540000000000
31
0.0
0
LINE
5
71f
100
AcDbEntity
8
0-4_2_3
6
CONTINUOUS
62
4
100
AcDbLine
10
1279.710000000000
20
791.540000000000
30
0.0
11
1273.920000000000
21
789.990000000000
31
0.0
0
LINE
5
720
100
AcDbEntity
8
0-4_2_3
6
CONTINUOUS
62
4
100
AcDbLine
10
1279.710000000000
20
791.540000000000
30
0.0
11
1273.920000000000
21
793.090000000000
31
0.0
0
LINE
5
721
100
AcDbEntity
8
0-6_2_5
6
CONTINUOUS
62
7
100
AcDbLine
10
1643.350000000000
20
1189.770000000000
30
0.0
11
1641.510000000000
21
1193.480000000000
31
0.0
0
LINE
5
722
100
AcDbEntity
8
0-6_2_5
6
CONTINUOUS
62
7
100
AcDbLine
10
1643.350000000000
20
1189.770000000000
30
0.0
11
1639.900000000000
21
1192.070000000000
31
0.0
0
LINE
5
723
100
AcDbEntity
8
0-6_2_5
6
CONTINUOUS
62
7
100
AcDbLine
10
1643.350000000000
20
1189.770000000000
30
0.0
11
1604.580000000000
21
1233.890000000000
31
0.0
0
LINE
5
724
100
AcDbEntity
8
0-6_2_5
6
CONTINUOUS
62
7
100
AcDbLine
10
1716.580000000000
20
1214.330000000000
30
0.0
11
1714.740000000000
21
1218.040000000000
31
0.0
0
LINE
5
725
100
AcDbEntity
8
0-6_2_5
6
CONTINUOUS
62
7
100
AcDbLine
10
1716.580000000000
20
1214.330000000000
30
0.0
11
1713.130000000000
21
1216.630000000000
31
0.0
0
LINE
5
726
100
AcDbEntity
8
0-6_2_5
6
CONTINUOUS
62
7
100
AcDbLine
10
1766.980000000000
20
1252.760000000000
30
0.0
11
1765.150000000000
21
1256.470000000000
31
0.0
0
LINE
5
727
100
AcDbEntity
8
0-6_2_5
6
CONTINUOUS
62
7
100
AcDbLine
10
1766.980000000000
20
1252.760000000000
30
0.0
11
1763.540000000000
21
1255.060000000000
31
0.0
0
LINE
5
728
100
AcDbEntity
8
0-6_2_5
6
CONTINUOUS
62
7
100
AcDbLine
10
1766.980000000000
20
1252.760000000000
30
0.0
11
1728.210000000000
21
1296.870000000000
31
0.0
0
LINE
5
729
100
AcDbEntity
8
0-2_2_1
6
CONTINUOUS
62
7
100
AcDbLine
10
1221.450000000000
20
1251.360000000000
30
0.0
11
1222.520000000000
21
1247.360000000000
31
0.0
0
LINE
5
72a
100
AcDbEntity
8
0-2_2_1
6
CONTINUOUS
62
7
100
AcDbLine
10
1221.450000000000
20
1251.360000000000
30
0.0
11
1224.380000000000
21
1248.430000000000
31
0.0
0
LINE
5
72b
100
AcDbEntity
8
0-2_2_1
6
CONTINUOUS
62
7
100
AcDbLine
10
1221.450000000000
20
1251.360000000000
30
0.0
11
1233.000000000000
21
1231.360000000000
31
0.0
0
LINE
5
72c
100
AcDbEntity
8
0-2_2_1
6
CONTINUOUS
62
7
100
AcDbLine
10
1076.740000000000
20
1219.520000000000
30
0.0
11
1075.670000000000
21
1215.520000000000
31
0.0
0
LINE
5
72d
100
AcDbEntity
8
0-2_2_1
6
CONTINUOUS
62
7
100
AcDbLine
10
1076.740000000000
20
1219.520000000000
30
0.0
11
1073.810000000000
21
1216.590000000000
31
0.0
0
LINE
5
72e
100
AcDbEntity
8
0-2_2_1
6
CONTINUOUS
62
7
100
AcDbLine
10
1147.530000000000
20
1125.330000000000
30
0.0
11
1146.460000000000
21
1121.330000000000
31
0.0
0
LINE
5
72f
100
AcDbEntity
8
0-2_2_1
6
CONTINUOUS
62
7
100
AcDbLine
10
1147.530000000000
20
1125.330000000000
30
0.0
11
1144.600000000000
21
1122.410000000000
31
0.0
0
LINE
5
730
100
AcDbEntity
8
0-2_2_1
6
CONTINUOUS
62
7
100
AcDbLine
10
1266.730000000000
20
1114.240000000000
30
0.0
11
1265.660000000000
21
1110.240000000000
31
0.0
0
LINE
5
731
100
AcDbEntity
8
0-2_2_1
6
CONTINUOUS
62
7
100
AcDbLine
10
1266.730000000000
20
1114.240000000000
30
0.0
11
1263.800000000000
21
1111.310000000000
31
0.0
0
LINE
5
732
100
AcDbEntity
8
0-2_2_1
6
CONTINUOUS
62
7
100
AcDbLine
10
1266.730000000000
20
1114.240000000000
30
0.0
11
1255.180000000000
21
1094.240000000000
31
0.0
0
LINE
5
733
100
AcDbEntity
8
0-2_2_1
6
CONTINUOUS
62
4
100
AcDbLine
10
1167.980000000000
20
1288.500000000000
30
0.0
11
1154.890000000000
21
1353.960000000000
31
0.0
0
LINE
5
734
100
AcDbEntity
8
0-2_2_1
6
CONTINUOUS
62
4
100
AcDbLine
10
1048.300000000000
20
1264.570000000000
30
0.0
11
1035.210000000000
21
1330.030000000000
31
0.0
0
LINE
5
735
100
AcDbEntity
8
0-4_2_3
6
CONTINUOUS
62
7
100
AcDbLine
10
1260.100000000000
20
728.750000000000
30
0.0
11
1261.170000000000
21
724.750000000000
31
0.0
0
LINE
5
736
100
AcDbEntity
8
0-4_2_3
6
CONTINUOUS
62
7
100
AcDbLine
10
1260.100000000000
20
728.750000000000
30
0.0
11
1263.030000000000
21
725.820000000000
31
0.0
0
LINE
5
737
100
AcDbEntity
8
0-4_2_3
6
CONTINUOUS
62
7
100
AcDbLine
10
1260.100000000000
20
728.750000000000
30
0.0
11
1271.650000000000
21
708.750000000000
31
0.0
0
LINE
5
738
100
AcDbEntity
8
0-4_2_3
6
CONTINUOUS
62
7
100
AcDbLine
10
1081.430000000000
20
720.440000000000
30
0.0
11
1080.350000000000
21
716.440000000000
31
0.0
0
LINE
5
739
100
AcDbEntity
8
0-4_2_3
6
CONTINUOUS
62
7
100
AcDbLine
10
1081.430000000000
20
720.440000000000
30
0.0
11
1078.500000000000
21
717.520000000000
31
0.0
0
LINE
5
73a
100
AcDbEntity
8
0-4_2_3
6
CONTINUOUS
62
7
100
AcDbLine
10
1132.430000000000
20
638.120000000000
30
0.0
11
1131.360000000000
21
634.120000000000
31
0.0
0
LINE
5
73b
100
AcDbEntity
8
0-4_2_3
6
CONTINUOUS
62
7
100
AcDbLine
10
1132.430000000000
20
638.120000000000
30
0.0
11
1129.510000000000
21
635.190000000000
31
0.0
0
LINE
5
73c
100
AcDbEntity
8
0-8_2_7
6
CONTINUOUS
62
7
100
AcDbLine
10
1787.350000000000
20
781.750000000000
30
0.0
11
1785.520000000000
21
785.460000000000
31
0.0
0
LINE
5
73d
100
AcDbEntity
8
0-8_2_7
6
CONTINUOUS
62
7
100
AcDbLine
10
1787.350000000000
20
781.750000000000
30
0.0
11
1783.910000000000
21
784.050000000000
31
0.0
0
LINE
5
73e
100
AcDbEntity
8
0-8_2_7
6
CONTINUOUS
62
7
100
AcDbLine
10
1787.350000000000
20
781.750000000000
30
0.0
11
1748.580000000000
21
825.860000000000
31
0.0
0
LINE
5
73f
100
AcDbEntity
8
0-8_2_7
6
CONTINUOUS
62
7
100
AcDbLine
10
1764.880000000000
20
725.160000000000
30
0.0
11
1763.050000000000
21
728.870000000000
31
0.0
0
LINE
5
740
100
AcDbEntity
8
0-8_2_7
6
CONTINUOUS
62
7
100
AcDbLine
10
1764.880000000000
20
725.160000000000
30
0.0
11
1761.440000000000
21
727.460000000000
31
0.0
0
LINE
5
741
100
AcDbEntity
8
0-8_2_7
6
CONTINUOUS
62
7
100
AcDbLine
10
1764.880000000000
20
725.160000000000
30
0.0
11
1726.110000000000
21
769.270000000000
31
0.0
0
LINE
5
742
100
AcDbEntity
8
0-2_2_1
6
CONTINUOUS
62
7
100
AcDbLine
10
1222.610000000000
20
1268.940000000000
30
0.0
11
1222.870000000000
21
1273.070000000000
31
0.0
0
LINE
5
743
100
AcDbEntity
8
0-2_2_1
6
CONTINUOUS
62
7
100
AcDbLine
10
1222.610000000000
20
1268.940000000000
30
0.0
11
1224.900000000000
21
1272.390000000000
31
0.0
0
LINE
5
744
100
AcDbEntity
8
0-2_2_1
6
CONTINUOUS
62
7
100
AcDbLine
10
1222.610000000000
20
1268.940000000000
30
0.0
11
1238.100000000000
21
1314.720000000000
31
0.0
0
LINE
5
745
100
AcDbEntity
8
0-1_2_0
6
CONTINUOUS
62
7
100
AcDbLine
10
681.870000000000
20
749.780000000000
30
0.0
11
682.140000000000
21
753.910000000000
31
0.0
0
LINE
5
746
100
AcDbEntity
8
0-1_2_0
6
CONTINUOUS
62
7
100
AcDbLine
10
681.870000000000
20
749.780000000000
30
0.0
11
684.170000000000
21
753.230000000000
31
0.0
0
LINE
5
747
100
AcDbEntity
8
0-1_2_0
6
CONTINUOUS
62
7
100
AcDbLine
10
681.870000000000
20
749.780000000000
30
0.0
11
697.360000000000
21
795.560000000000
31
0.0
0
LINE
5
748
100
AcDbEntity
8
0-6_2_5
6
CONTINUOUS
62
7
100
AcDbLine
10
1782.400000000000
20
1204.380000000000
30
0.0
11
1780.570000000000
21
1208.090000000000
31
0.0
0
LINE
5
749
100
AcDbEntity
8
0-6_2_5
6
CONTINUOUS
62
7
100
AcDbLine
10
1782.400000000000
20
1204.380000000000
30
0.0
11
1778.960000000000
21
1206.670000000000
31
0.0
0
LINE
5
74a
100
AcDbEntity
8
0-6_2_5
6
CONTINUOUS
62
7
100
AcDbLine
10
1782.400000000000
20
1204.380000000000
30
0.0
11
1743.630000000000
21
1248.490000000000
31
0.0
0
LINE
5
74b
100
AcDbEntity
8
0-6_2_5
6
CONTINUOUS
62
7
100
AcDbLine
10
1587.700000000000
20
1172.470000000000
30
0.0
11
1585.860000000000
21
1176.180000000000
31
0.0
0
LINE
5
74c
100
AcDbEntity
8
0-6_2_5
6
CONTINUOUS
62
7
100
AcDbLine
10
1587.700000000000
20
1172.470000000000
30
0.0
11
1584.250000000000
21
1174.760000000000
31
0.0
0
LINE
5
74d
100
AcDbEntity
8
0-6_2_5
6
CONTINUOUS
62
7
100
AcDbLine
10
1731.100000000000
20
1169.180000000000
30
0.0
11
1732.170000000000
21
1165.180000000000
31
0.0
0
LINE
5
74e
100
AcDbEntity
8
0-6_2_5
6
CONTINUOUS
62
7
100
AcDbLine
10
1731.100000000000
20
1169.180000000000
30
0.0
11
1734.030000000000
21
1166.260000000000
31
0.0
0
LINE
5
74f
100
AcDbEntity
8
0-6_2_5
6
CONTINUOUS
62
7
100
AcDbLine
10
1731.100000000000
20
1169.180000000000
30
0.0
11
1742.650000000000
21
1149.180000000000
31
0.0
0
LINE
5
750
100
AcDbEntity
8
0-6_2_5
6
CONTINUOUS
62
7
100
AcDbLine
10
1685.060000000000
20
1181.530000000000
30
0.0
11
1686.130000000000
21
1177.530000000000
31
0.0
0
LINE
5
751
100
AcDbEntity
8
0-6_2_5
6
CONTINUOUS
62
7
100
AcDbLine
10
1685.060000000000
20
1181.530000000000
30
0.0
11
1687.990000000000
21
1178.600000000000
31
0.0
0
LINE
5
752
100
AcDbEntity
8
0-6_2_5
6
CONTINUOUS
62
7
100
AcDbLine
10
1685.060000000000
20
1181.530000000000
30
0.0
11
1717.280000000000
21
1125.710000000000
31
0.0
0
LINE
5
753
100
AcDbEntity
8
0-2_2_1
6
CONTINUOUS
62
7
100
AcDbLine
10
1082.920000000000
20
1255.160000000000
30
0.0
11
1083.190000000000
21
1259.290000000000
31
0.0
0
LINE
5
754
100
AcDbEntity
8
0-2_2_1
6
CONTINUOUS
62
7
100
AcDbLine
10
1082.920000000000
20
1255.160000000000
30
0.0
11
1085.220000000000
21
1258.600000000000
31
0.0
0
LINE
5
755
100
AcDbEntity
8
0-2_2_1
6
CONTINUOUS
62
7
100
AcDbLine
10
1082.920000000000
20
1255.160000000000
30
0.0
11
1095.840000000000
21
1293.350000000000
31
0.0
0
LINE
5
756
100
AcDbEntity
8
0-8_2_7
6
CONTINUOUS
62
7
100
AcDbLine
10
1614.980000000000
20
700.710000000000
30
0.0
11
1613.150000000000
21
704.420000000000
31
0.0
0
LINE
5
757
100
AcDbEntity
8
0-8_2_7
6
CONTINUOUS
62
7
100
AcDbLine
10
1614.980000000000
20
700.710000000000
30
0.0
11
1611.540000000000
21
703.010000000000
31
0.0
0
LINE
5
758
100
AcDbEntity
8
0-8_2_7
6
CONTINUOUS
62
7
100
AcDbLine
10
1614.980000000000
20
700.710000000000
30
0.0
11
1576.210000000000
21
744.830000000000
31
0.0
0
LINE
5
759
100
AcDbEntity
8
0-8_2_7
6
CONTINUOUS
62
7
100
AcDbLine
10
1575.860000000000
20
697.620000000000
30
0.0
11
1576.930000000000
21
693.620000000000
31
0.0
0
LINE
5
75a
100
AcDbEntity
8
0-8_2_7
6
CONTINUOUS
62
7
100
AcDbLine
10
1575.860000000000
20
697.620000000000
30
0.0
11
1578.790000000000
21
694.690000000000
31
0.0
0
LINE
5
75b
100
AcDbEntity
8
0-8_2_7
6
CONTINUOUS
62
7
100
AcDbLine
10
1575.860000000000
20
697.620000000000
30
0.0
11
1608.080000000000
21
641.810000000000
31
0.0
0
LINE
5
75c
100
AcDbEntity
8
0-8_2_7
6
CONTINUOUS
62
7
100
AcDbLine
10
1686.100000000000
20
681.060000000000
30
0.0
11
1687.170000000000
21
677.060000000000
31
0.0
0
LINE
5
75d
100
AcDbEntity
8
0-8_2_7
6
CONTINUOUS
62
7
100
AcDbLine
10
1686.100000000000
20
681.060000000000
30
0.0
11
1689.020000000000
21
678.130000000000
31
0.0
0
LINE
5
75e
100
AcDbEntity
8
0-8_2_7
6
CONTINUOUS
62
7
100
AcDbLine
10
1686.100000000000
20
681.060000000000
30
0.0
11
1697.640000000000
21
661.060000000000
31
0.0
0
LINE
5
75f
100
AcDbEntity
8
0-4_2_3
6
CONTINUOUS
62
7
100
AcDbLine
10
1222.800000000000
20
744.990000000000
30
0.0
11
1223.880000000000
21
740.980000000000
31
0.0
0
LINE
5
760
100
AcDbEntity
8
0-4_2_3
6
CONTINUOUS
62
7
100
AcDbLine
10
1222.800000000000
20
744.990000000000
30
0.0
11
1225.730000000000
21
742.060000000000
31
0.0
0
LINE
5
761
100
AcDbEntity
8
0-4_2_3
6
CONTINUOUS
62
7
100
AcDbLine
10
1222.800000000000
20
744.990000000000
30
0.0
11
1255.030000000000
21
689.170000000000
31
0.0
0
LINE
5
762
100
AcDbEntity
8
0-1_2_0
6
CONTINUOUS
62
7
100
AcDbLine
10
607.930000000000
20
727.030000000000
30
0.0
11
609.010000000000
21
723.030000000000
31
0.0
0
LINE
5
763
100
AcDbEntity
8
0-1_2_0
6
CONTINUOUS
62
7
100
AcDbLine
10
607.930000000000
20
727.030000000000
30
0.0
11
610.860000000000
21
724.110000000000
31
0.0
0
LINE
5
764
100
AcDbEntity
8
0-1_2_0
6
CONTINUOUS
62
7
100
AcDbLine
10
607.930000000000
20
727.030000000000
30
0.0
11
619.480000000000
21
707.030000000000
31
0.0
0
LINE
5
765
100
AcDbEntity
8
0-1_2_0
6
CONTINUOUS
62
7
100
AcDbLine
10
784.380000000000
20
754.760000000000
30
0.0
11
784.640000000000
21
758.900000000000
31
0.0
0
LINE
5
766
100
AcDbEntity
8
0-1_2_0
6
CONTINUOUS
62
7
100
AcDbLine
10
784.380000000000
20
754.760000000000
30
0.0
11
786.670000000000
21
758.210000000000
31
0.0
0
LINE
5
767
100
AcDbEntity
8
0-1_2_0
6
CONTINUOUS
62
7
100
AcDbLine
10
602.620000000000
20
771.270000000000
30
0.0
11
602.350000000000
21
775.400000000000
31
0.0
0
LINE
5
768
100
AcDbEntity
8
0-1_2_0
6
CONTINUOUS
62
7
100
AcDbLine
10
602.620000000000
20
771.270000000000
30
0.0
11
600.320000000000
21
774.720000000000
31
0.0
0
LINE
5
769
100
AcDbEntity
8
0-1_2_0
6
CONTINUOUS
62
7
100
AcDbLine
10
602.620000000000
20
771.270000000000
30
0.0
11
592.850000000000
21
800.160000000000
31
0.0
0
LINE
5
76a
100
AcDbEntity
8
0-1_2_0
6
CONTINUOUS
62
7
100
AcDbLine
10
647.850000000000
20
756.740000000000
30
0.0
11
647.580000000000
21
760.870000000000
31
0.0
0
LINE
5
76b
100
AcDbEntity
8
0-1_2_0
6
CONTINUOUS
62
7
100
AcDbLine
10
647.850000000000
20
756.740000000000
30
0.0
11
645.550000000000
21
760.180000000000
31
0.0
0
LINE
5
76c
100
AcDbEntity
8
0-1_2_0
6
CONTINUOUS
62
7
100
AcDbLine
10
647.850000000000
20
756.740000000000
30
0.0
11
638.070000000000
21
785.630000000000
31
0.0
0
LINE
5
76d
100
AcDbEntity
8
F-F
6
CONTINUOUS
62
3
100
AcDbLine
10
908.390000000000
20
429.890000000000
30
0.0
11
908.390000000000
21
1490.640000000000
31
0.0
0
LINE
5
76e
100
AcDbEntity
8
F-F
6
CONTINUOUS
62
3
100
AcDbLine
10
1434.020000000000
20
429.890000000000
30
0.0
11
1434.020000000000
21
1490.640000000000
31
0.0
0
LINE
5
76f
100
AcDbEntity
8
F-F
6
CONTINUOUS
62
3
100
AcDbLine
10
382.760000000000
20
960.270000000000
30
0.0
11
1959.650000000000
21
960.270000000000
31
0.0
0
POLYLINE
5
770
100
AcDbEntity
8
0-1_2_0
6
CONTINUOUS
62
  4
100
AcDb2dPolyline
66
1
10
0.0
20
0.0
30
0.0
70
0
0
VERTEX
5
771
100
AcDbEntity
8
0-1_2_0
6
CONTINUOUS
62
  4
100
AcDbVertex
100
AcDb2dVertex
10
812.670000000000
20
788.110000000000
30
0.0
0
VERTEX
5
772
100
AcDbEntity
8
0-1_2_0
6
CONTINUOUS
62
  4
100
AcDbVertex
100
AcDb2dVertex
10
820.730000000000
20
828.420000000000
30
0.0
0
VERTEX
5
773
100
AcDbEntity
8
0-1_2_0
6
CONTINUOUS
62
  4
100
AcDbVertex
100
AcDb2dVertex
10
671.670000000000
20
858.230000000000
30
0.0
0
SEQEND
5
774
100
AcDbEntity
8
0-1_2_0
0
LINE
5
775
100
AcDbEntity
8
0-1_2_0
6
CONTINUOUS
62
4
100
AcDbLine
10
663.610000000000
20
817.920000000000
30
0.0
11
671.670000000000
21
858.230000000000
31
0.0
0
LINE
5
776
100
AcDbEntity
8
1-1_2_16
6
CONTINUOUS
62
4
100
AcDbLine
10
591.470000000000
20
1050.270000000000
30
0.0
11
631.470000000000
21
1090.270000000000
31
0.0
0
LINE
5
777
100
AcDbEntity
8
1-1_2_16
6
CONTINUOUS
62
4
100
AcDbLine
10
563.180000000000
20
1050.270000000000
30
0.0
11
603.180000000000
21
1090.270000000000
31
0.0
0
LINE
5
778
100
AcDbEntity
8
1-1_2_16
6
CONTINUOUS
62
4
100
AcDbLine
10
619.750000000000
20
1050.270000000000
30
0.0
11
659.750000000000
21
1090.270000000000
31
0.0
0
LINE
5
779
100
AcDbEntity
8
1-1_2_16
6
CONTINUOUS
62
4
100
AcDbLine
10
648.040000000000
20
1050.270000000000
30
0.0
11
688.040000000000
21
1090.270000000000
31
0.0
0
LINE
5
77a
100
AcDbEntity
8
1-1_2_16
6
CONTINUOUS
62
4
100
AcDbLine
10
676.320000000000
20
1050.270000000000
30
0.0
11
716.320000000000
21
1090.270000000000
31
0.0
0
LINE
5
77b
100
AcDbEntity
8
F-F
6
CONTINUOUS
62
3
100
AcDbLine
10
382.760000000000
20
1450.640000000000
30
0.0
11
1959.650000000000
21
1450.640000000000
31
0.0
0
LINE
5
77c
100
AcDbEntity
8
F-F
6
CONTINUOUS
62
3
100
AcDbLine
10
382.760000000000
20
920.270000000000
30
0.0
11
1959.650000000000
21
920.270000000000
31
0.0
0
LINE
5
77d
100
AcDbEntity
8
F-F
6
CONTINUOUS
62
2
100
AcDbLine
10
382.760000000000
20
370.630000000000
30
0.0
11
382.760000000000
21
1490.640000000000
31
0.0
0
LINE
5
77e
100
AcDbEntity
8
F-F
6
CONTINUOUS
62
2
100
AcDbLine
10
1612.760000000000
20
429.890000000000
30
0.0
11
1612.760000000000
21
370.630000000000
31
0.0
0
LINE
5
77f
100
AcDbEntity
8
F-F
6
CONTINUOUS
62
2
100
AcDbLine
10
1542.540000000000
20
429.890000000000
30
0.0
11
1542.540000000000
21
370.630000000000
31
0.0
0
LINE
5
780
100
AcDbEntity
8
F-F
6
CONTINUOUS
62
2
100
AcDbLine
10
1865.120000000000
20
370.630000000000
30
0.0
11
1865.120000000000
21
429.890000000000
31
0.0
0
LINE
5
781
100
AcDbEntity
8
F-F
6
CONTINUOUS
62
2
100
AcDbLine
10
1134.890000000000
20
429.890000000000
30
0.0
11
1134.890000000000
21
370.630000000000
31
0.0
0
LINE
5
782
100
AcDbEntity
8
F-F
6
CONTINUOUS
62
2
100
AcDbLine
10
1337.740000000000
20
429.890000000000
30
0.0
11
1337.740000000000
21
370.630000000000
31
0.0
0
LINE
5
783
100
AcDbEntity
8
F-F
6
CONTINUOUS
62
2
100
AcDbLine
10
1134.890000000000
20
410.140000000000
30
0.0
11
697.760000000000
21
410.140000000000
31
0.0
0
LINE
5
784
100
AcDbEntity
8
F-F
6
CONTINUOUS
62
2
100
AcDbLine
10
1134.890000000000
20
390.390000000000
30
0.0
11
697.760000000000
21
390.390000000000
31
0.0
0
LINE
5
785
100
AcDbEntity
8
F-F
6
CONTINUOUS
62
2
100
AcDbLine
10
1134.890000000000
20
380.510000000000
30
0.0
11
697.760000000000
21
380.510000000000
31
0.0
0
LINE
5
786
100
AcDbEntity
8
F-F
6
CONTINUOUS
62
2
100
AcDbLine
10
1134.890000000000
20
420.020000000000
30
0.0
11
697.760000000000
21
420.020000000000
31
0.0
0
LINE
5
787
100
AcDbEntity
8
F-F
6
CONTINUOUS
62
2
100
AcDbLine
10
750.420000000000
20
429.890000000000
30
0.0
11
750.420000000000
21
370.630000000000
31
0.0
0
LINE
5
788
100
AcDbEntity
8
F-F
6
CONTINUOUS
62
2
100
AcDbLine
10
697.760000000000
20
429.890000000000
30
0.0
11
697.760000000000
21
370.630000000000
31
0.0
0
LINE
5
789
100
AcDbEntity
8
F-F
6
CONTINUOUS
62
2
100
AcDbLine
10
1959.650000000000
20
370.630000000000
30
0.0
11
1959.650000000000
21
1490.640000000000
31
0.0
0
LINE
5
78a
100
AcDbEntity
8
F-F
6
CONTINUOUS
62
2
100
AcDbLine
10
382.760000000000
20
1490.640000000000
30
0.0
11
1959.650000000000
21
1490.640000000000
31
0.0
0
LINE
5
78b
100
AcDbEntity
8
F-F
6
CONTINUOUS
62
2
100
AcDbLine
10
382.760000000000
20
370.630000000000
30
0.0
11
1959.650000000000
21
370.630000000000
31
0.0
0
LINE
5
78c
100
AcDbEntity
8
F-F
6
CONTINUOUS
62
2
100
AcDbLine
10
1959.650000000000
20
429.890000000000
30
0.0
11
382.760000000000
21
429.890000000000
31
0.0
0
LINE
5
78d
100
AcDbEntity
8
F-F
6
CONTINUOUS
62
2
100
AcDbLine
10
697.760000000000
20
400.260000000000
30
0.0
11
1959.650000000000
21
400.260000000000
31
0.0
0
POLYLINE
5
78e
100
AcDbEntity
8
F-F
6
CONTINUOUS
62
  3
100
AcDb2dPolyline
66
1
10
0.0
20
0.0
30
0.0
70
0
0
VERTEX
5
78f
100
AcDbEntity
8
F-F
6
CONTINUOUS
62
  3
100
AcDbVertex
100
AcDb2dVertex
10
408.840000000000
20
405.090000000000
30
0.0
0
VERTEX
5
790
100
AcDbEntity
8
F-F
6
CONTINUOUS
62
  3
100
AcDbVertex
100
AcDb2dVertex
10
408.840000000000
20
421.090000000000
30
0.0
0
VERTEX
5
791
100
AcDbEntity
8
F-F
6
CONTINUOUS
62
  3
100
AcDbVertex
100
AcDb2dVertex
10
424.840000000000
20
421.090000000000
30
0.0
0
VERTEX
5
792
100
AcDbEntity
8
F-F
6
CONTINUOUS
62
  3
100
AcDbVertex
100
AcDb2dVertex
10
424.840000000000
20
405.090000000000
30
0.0
0
VERTEX
5
793
100
AcDbEntity
8
F-F
6
CONTINUOUS
62
  3
100
AcDbVertex
100
AcDb2dVertex
10
408.840000000000
20
405.090000000000
30
0.0
0
SEQEND
5
794
100
AcDbEntity
8
F-F
0
LINE
5
795
100
AcDbEntity
8
F-F
6
CONTINUOUS
62
3
100
AcDbLine
10
410.440000000000
20
407.260000000000
30
0.0
11
410.440000000000
21
419.490000000000
31
0.0
0
LINE
5
796
100
AcDbEntity
8
F-F
6
CONTINUOUS
62
3
100
AcDbLine
10
423.240000000000
20
406.690000000000
30
0.0
11
411.000000000000
21
406.690000000000
31
0.0
0
POLYLINE
5
797
100
AcDbEntity
8
F-F
6
CONTINUOUS
62
  3
100
AcDb2dPolyline
66
1
10
0.0
20
0.0
30
0.0
70
0
0
VERTEX
5
798
100
AcDbEntity
8
F-F
6
CONTINUOUS
62
  3
100
AcDbVertex
100
AcDb2dVertex
10
410.440000000000
20
419.490000000000
30
0.0
0
VERTEX
5
799
100
AcDbEntity
8
F-F
6
CONTINUOUS
62
  3
100
AcDbVertex
100
AcDb2dVertex
10
422.670000000000
20
419.490000000000
30
0.0
0
VERTEX
5
79a
100
AcDbEntity
8
F-F
6
CONTINUOUS
62
  3
100
AcDbVertex
100
AcDb2dVertex
10
410.440000000000
20
407.260000000000
30
0.0
0
SEQEND
5
79b
100
AcDbEntity
8
F-F
0
LINE
5
79c
100
AcDbEntity
8
F-F
6
CONTINUOUS
62
3
100
AcDbLine
10
423.240000000000
20
418.930000000000
30
0.0
11
411.000000000000
21
406.690000000000
31
0.0
0
LINE
5
79d
100
AcDbEntity
8
F-F
6
CONTINUOUS
62
3
100
AcDbLine
10
423.240000000000
20
418.930000000000
30
0.0
11
423.240000000000
21
406.690000000000
31
0.0
0
LINE
5
79e
100
AcDbEntity
8
F-F
6
CONTINUOUS
62
4
100
AcDbLine
10
408.840000000000
20
420.930000000000
30
0.0
11
424.840000000000
21
420.930000000000
31
0.0
0
LINE
5
79f
100
AcDbEntity
8
F-F
6
CONTINUOUS
62
4
100
AcDbLine
10
408.840000000000
20
420.610000000000
30
0.0
11
424.840000000000
21
420.610000000000
31
0.0
0
LINE
5
7a0
100
AcDbEntity
8
F-F
6
CONTINUOUS
62
4
100
AcDbLine
10
408.840000000000
20
420.290000000000
30
0.0
11
424.840000000000
21
420.290000000000
31
0.0
0
LINE
5
7a1
100
AcDbEntity
8
F-F
6
CONTINUOUS
62
4
100
AcDbLine
10
408.840000000000
20
419.970000000000
30
0.0
11
424.840000000000
21
419.970000000000
31
0.0
0
LINE
5
7a2
100
AcDbEntity
8
F-F
6
CONTINUOUS
62
4
100
AcDbLine
10
408.840000000000
20
419.650000000000
30
0.0
11
424.840000000000
21
419.650000000000
31
0.0
0
LINE
5
7a3
100
AcDbEntity
8
F-F
6
CONTINUOUS
62
4
100
AcDbLine
10
408.840000000000
20
406.530000000000
30
0.0
11
424.840000000000
21
406.530000000000
31
0.0
0
LINE
5
7a4
100
AcDbEntity
8
F-F
6
CONTINUOUS
62
4
100
AcDbLine
10
408.840000000000
20
406.210000000000
30
0.0
11
424.840000000000
21
406.210000000000
31
0.0
0
LINE
5
7a5
100
AcDbEntity
8
F-F
6
CONTINUOUS
62
4
100
AcDbLine
10
408.840000000000
20
405.890000000000
30
0.0
11
424.840000000000
21
405.890000000000
31
0.0
0
LINE
5
7a6
100
AcDbEntity
8
F-F
6
CONTINUOUS
62
4
100
AcDbLine
10
408.840000000000
20
405.570000000000
30
0.0
11
424.840000000000
21
405.570000000000
31
0.0
0
LINE
5
7a7
100
AcDbEntity
8
F-F
6
CONTINUOUS
62
4
100
AcDbLine
10
408.840000000000
20
405.250000000000
30
0.0
11
424.840000000000
21
405.250000000000
31
0.0
0
LINE
5
7a8
100
AcDbEntity
8
F-F
6
CONTINUOUS
62
4
100
AcDbLine
10
408.840000000000
20
407.490000000000
30
0.0
11
410.440000000000
21
407.490000000000
31
0.0
0
LINE
5
7a9
100
AcDbEntity
8
F-F
6
CONTINUOUS
62
4
100
AcDbLine
10
408.840000000000
20
407.810000000000
30
0.0
11
410.440000000000
21
407.810000000000
31
0.0
0
LINE
5
7aa
100
AcDbEntity
8
F-F
6
CONTINUOUS
62
4
100
AcDbLine
10
408.840000000000
20
408.130000000000
30
0.0
11
410.440000000000
21
408.130000000000
31
0.0
0
LINE
5
7ab
100
AcDbEntity
8
F-F
6
CONTINUOUS
62
4
100
AcDbLine
10
408.840000000000
20
408.450000000000
30
0.0
11
410.440000000000
21
408.450000000000
31
0.0
0
LINE
5
7ac
100
AcDbEntity
8
F-F
6
CONTINUOUS
62
4
100
AcDbLine
10
408.840000000000
20
408.770000000000
30
0.0
11
410.440000000000
21
408.770000000000
31
0.0
0
LINE
5
7ad
100
AcDbEntity
8
F-F
6
CONTINUOUS
62
4
100
AcDbLine
10
408.840000000000
20
409.090000000000
30
0.0
11
410.440000000000
21
409.090000000000
31
0.0
0
LINE
5
7ae
100
AcDbEntity
8
F-F
6
CONTINUOUS
62
4
100
AcDbLine
10
408.840000000000
20
409.410000000000
30
0.0
11
410.440000000000
21
409.410000000000
31
0.0
0
LINE
5
7af
100
AcDbEntity
8
F-F
6
CONTINUOUS
62
4
100
AcDbLine
10
408.840000000000
20
409.730000000000
30
0.0
11
410.440000000000
21
409.730000000000
31
0.0
0
LINE
5
7b0
100
AcDbEntity
8
F-F
6
CONTINUOUS
62
4
100
AcDbLine
10
408.840000000000
20
410.050000000000
30
0.0
11
410.440000000000
21
410.050000000000
31
0.0
0
LINE
5
7b1
100
AcDbEntity
8
F-F
6
CONTINUOUS
62
4
100
AcDbLine
10
408.840000000000
20
410.370000000000
30
0.0
11
410.440000000000
21
410.370000000000
31
0.0
0
LINE
5
7b2
100
AcDbEntity
8
F-F
6
CONTINUOUS
62
4
100
AcDbLine
10
408.840000000000
20
410.690000000000
30
0.0
11
410.440000000000
21
410.690000000000
31
0.0
0
LINE
5
7b3
100
AcDbEntity
8
F-F
6
CONTINUOUS
62
4
100
AcDbLine
10
408.840000000000
20
411.010000000000
30
0.0
11
410.440000000000
21
411.010000000000
31
0.0
0
LINE
5
7b4
100
AcDbEntity
8
F-F
6
CONTINUOUS
62
4
100
AcDbLine
10
408.840000000000
20
411.330000000000
30
0.0
11
410.440000000000
21
411.330000000000
31
0.0
0
LINE
5
7b5
100
AcDbEntity
8
F-F
6
CONTINUOUS
62
4
100
AcDbLine
10
408.840000000000
20
411.650000000000
30
0.0
11
410.440000000000
21
411.650000000000
31
0.0
0
LINE
5
7b6
100
AcDbEntity
8
F-F
6
CONTINUOUS
62
4
100
AcDbLine
10
408.840000000000
20
411.970000000000
30
0.0
11
410.440000000000
21
411.970000000000
31
0.0
0
LINE
5
7b7
100
AcDbEntity
8
F-F
6
CONTINUOUS
62
4
100
AcDbLine
10
408.840000000000
20
412.290000000000
30
0.0
11
410.440000000000
21
412.290000000000
31
0.0
0
LINE
5
7b8
100
AcDbEntity
8
F-F
6
CONTINUOUS
62
4
100
AcDbLine
10
408.840000000000
20
412.610000000000
30
0.0
11
410.440000000000
21
412.610000000000
31
0.0
0
LINE
5
7b9
100
AcDbEntity
8
F-F
6
CONTINUOUS
62
4
100
AcDbLine
10
408.840000000000
20
412.930000000000
30
0.0
11
410.440000000000
21
412.930000000000
31
0.0
0
LINE
5
7ba
100
AcDbEntity
8
F-F
6
CONTINUOUS
62
4
100
AcDbLine
10
408.840000000000
20
413.250000000000
30
0.0
11
410.440000000000
21
413.250000000000
31
0.0
0
LINE
5
7bb
100
AcDbEntity
8
F-F
6
CONTINUOUS
62
4
100
AcDbLine
10
408.840000000000
20
413.570000000000
30
0.0
11
410.440000000000
21
413.570000000000
31
0.0
0
LINE
5
7bc
100
AcDbEntity
8
F-F
6
CONTINUOUS
62
4
100
AcDbLine
10
408.840000000000
20
413.890000000000
30
0.0
11
410.440000000000
21
413.890000000000
31
0.0
0
LINE
5
7bd
100
AcDbEntity
8
F-F
6
CONTINUOUS
62
4
100
AcDbLine
10
408.840000000000
20
414.210000000000
30
0.0
11
410.440000000000
21
414.210000000000
31
0.0
0
LINE
5
7be
100
AcDbEntity
8
F-F
6
CONTINUOUS
62
4
100
AcDbLine
10
408.840000000000
20
414.530000000000
30
0.0
11
410.440000000000
21
414.530000000000
31
0.0
0
LINE
5
7bf
100
AcDbEntity
8
F-F
6
CONTINUOUS
62
4
100
AcDbLine
10
408.840000000000
20
414.850000000000
30
0.0
11
410.440000000000
21
414.850000000000
31
0.0
0
LINE
5
7c0
100
AcDbEntity
8
F-F
6
CONTINUOUS
62
4
100
AcDbLine
10
408.840000000000
20
415.810000000000
30
0.0
11
410.440000000000
21
415.810000000000
31
0.0
0
LINE
5
7c1
100
AcDbEntity
8
F-F
6
CONTINUOUS
62
4
100
AcDbLine
10
408.840000000000
20
416.770000000000
30
0.0
11
410.440000000000
21
416.770000000000
31
0.0
0
LINE
5
7c2
100
AcDbEntity
8
F-F
6
CONTINUOUS
62
4
100
AcDbLine
10
408.840000000000
20
417.090000000000
30
0.0
11
410.440000000000
21
417.090000000000
31
0.0
0
LINE
5
7c3
100
AcDbEntity
8
F-F
6
CONTINUOUS
62
4
100
AcDbLine
10
408.840000000000
20
417.410000000000
30
0.0
11
410.440000000000
21
417.410000000000
31
0.0
0
LINE
5
7c4
100
AcDbEntity
8
F-F
6
CONTINUOUS
62
4
100
AcDbLine
10
408.840000000000
20
417.730000000000
30
0.0
11
410.440000000000
21
417.730000000000
31
0.0
0
LINE
5
7c5
100
AcDbEntity
8
F-F
6
CONTINUOUS
62
4
100
AcDbLine
10
408.840000000000
20
419.330000000000
30
0.0
11
410.440000000000
21
419.330000000000
31
0.0
0
LINE
5
7c6
100
AcDbEntity
8
F-F
6
CONTINUOUS
62
4
100
AcDbLine
10
408.840000000000
20
419.010000000000
30
0.0
11
410.440000000000
21
419.010000000000
31
0.0
0
LINE
5
7c7
100
AcDbEntity
8
F-F
6
CONTINUOUS
62
4
100
AcDbLine
10
408.840000000000
20
418.690000000000
30
0.0
11
410.440000000000
21
418.690000000000
31
0.0
0
LINE
5
7c8
100
AcDbEntity
8
F-F
6
CONTINUOUS
62
4
100
AcDbLine
10
408.840000000000
20
418.370000000000
30
0.0
11
410.440000000000
21
418.370000000000
31
0.0
0
LINE
5
7c9
100
AcDbEntity
8
F-F
6
CONTINUOUS
62
4
100
AcDbLine
10
408.840000000000
20
418.050000000000
30
0.0
11
410.440000000000
21
418.050000000000
31
0.0
0
LINE
5
7ca
100
AcDbEntity
8
F-F
6
CONTINUOUS
62
4
100
AcDbLine
10
408.840000000000
20
416.130000000000
30
0.0
11
410.440000000000
21
416.130000000000
31
0.0
0
LINE
5
7cb
100
AcDbEntity
8
F-F
6
CONTINUOUS
62
4
100
AcDbLine
10
408.840000000000
20
416.450000000000
30
0.0
11
410.440000000000
21
416.450000000000
31
0.0
0
LINE
5
7cc
100
AcDbEntity
8
F-F
6
CONTINUOUS
62
4
100
AcDbLine
10
408.840000000000
20
415.490000000000
30
0.0
11
410.440000000000
21
415.490000000000
31
0.0
0
LINE
5
7cd
100
AcDbEntity
8
F-F
6
CONTINUOUS
62
4
100
AcDbLine
10
408.840000000000
20
415.170000000000
30
0.0
11
410.440000000000
21
415.170000000000
31
0.0
0
LINE
5
7ce
100
AcDbEntity
8
F-F
6
CONTINUOUS
62
4
100
AcDbLine
10
410.990000000000
20
407.810000000000
30
0.0
11
412.120000000000
21
407.810000000000
31
0.0
0
LINE
5
7cf
100
AcDbEntity
8
F-F
6
CONTINUOUS
62
4
100
AcDbLine
10
410.670000000000
20
407.490000000000
30
0.0
11
411.800000000000
21
407.490000000000
31
0.0
0
LINE
5
7d0
100
AcDbEntity
8
F-F
6
CONTINUOUS
62
4
100
AcDbLine
10
408.840000000000
20
407.170000000000
30
0.0
11
411.480000000000
21
407.170000000000
31
0.0
0
LINE
5
7d1
100
AcDbEntity
8
F-F
6
CONTINUOUS
62
4
100
AcDbLine
10
408.840000000000
20
406.850000000000
30
0.0
11
411.160000000000
21
406.850000000000
31
0.0
0
LINE
5
7d2
100
AcDbEntity
8
F-F
6
CONTINUOUS
62
4
100
AcDbLine
10
412.910000000000
20
409.730000000000
30
0.0
11
414.040000000000
21
409.730000000000
31
0.0
0
LINE
5
7d3
100
AcDbEntity
8
F-F
6
CONTINUOUS
62
4
100
AcDbLine
10
412.590000000000
20
409.410000000000
30
0.0
11
413.720000000000
21
409.410000000000
31
0.0
0
LINE
5
7d4
100
AcDbEntity
8
F-F
6
CONTINUOUS
62
4
100
AcDbLine
10
412.270000000000
20
409.090000000000
30
0.0
11
413.400000000000
21
409.090000000000
31
0.0
0
LINE
5
7d5
100
AcDbEntity
8
F-F
6
CONTINUOUS
62
4
100
AcDbLine
10
411.950000000000
20
408.770000000000
30
0.0
11
413.080000000000
21
408.770000000000
31
0.0
0
LINE
5
7d6
100
AcDbEntity
8
F-F
6
CONTINUOUS
62
4
100
AcDbLine
10
411.630000000000
20
408.450000000000
30
0.0
11
412.760000000000
21
408.450000000000
31
0.0
0
LINE
5
7d7
100
AcDbEntity
8
F-F
6
CONTINUOUS
62
4
100
AcDbLine
10
411.310000000000
20
408.130000000000
30
0.0
11
412.440000000000
21
408.130000000000
31
0.0
0
LINE
5
7d8
100
AcDbEntity
8
F-F
6
CONTINUOUS
62
4
100
AcDbLine
10
410.440000000000
20
419.490000000000
30
0.0
11
410.440000000000
21
419.810000000000
31
0.0
0
LINE
5
7d9
100
AcDbEntity
8
F-F
6
CONTINUOUS
62
4
100
AcDbLine
10
423.240000000000
20
407.490000000000
30
0.0
11
424.840000000000
21
407.490000000000
31
0.0
0
LINE
5
7da
100
AcDbEntity
8
F-F
6
CONTINUOUS
62
4
100
AcDbLine
10
423.240000000000
20
407.810000000000
30
0.0
11
424.840000000000
21
407.810000000000
31
0.0
0
LINE
5
7db
100
AcDbEntity
8
F-F
6
CONTINUOUS
62
4
100
AcDbLine
10
423.240000000000
20
408.130000000000
30
0.0
11
424.840000000000
21
408.130000000000
31
0.0
0
LINE
5
7dc
100
AcDbEntity
8
F-F
6
CONTINUOUS
62
4
100
AcDbLine
10
423.240000000000
20
408.450000000000
30
0.0
11
424.840000000000
21
408.450000000000
31
0.0
0
LINE
5
7dd
100
AcDbEntity
8
F-F
6
CONTINUOUS
62
4
100
AcDbLine
10
423.240000000000
20
408.770000000000
30
0.0
11
424.840000000000
21
408.770000000000
31
0.0
0
LINE
5
7de
100
AcDbEntity
8
F-F
6
CONTINUOUS
62
4
100
AcDbLine
10
423.240000000000
20
409.090000000000
30
0.0
11
424.840000000000
21
409.090000000000
31
0.0
0
LINE
5
7df
100
AcDbEntity
8
F-F
6
CONTINUOUS
62
4
100
AcDbLine
10
423.240000000000
20
409.410000000000
30
0.0
11
424.840000000000
21
409.410000000000
31
0.0
0
LINE
5
7e0
100
AcDbEntity
8
F-F
6
CONTINUOUS
62
4
100
AcDbLine
10
423.240000000000
20
409.730000000000
30
0.0
11
424.840000000000
21
409.730000000000
31
0.0
0
LINE
5
7e1
100
AcDbEntity
8
F-F
6
CONTINUOUS
62
4
100
AcDbLine
10
423.240000000000
20
410.050000000000
30
0.0
11
424.840000000000
21
410.050000000000
31
0.0
0
LINE
5
7e2
100
AcDbEntity
8
F-F
6
CONTINUOUS
62
4
100
AcDbLine
10
423.240000000000
20
410.370000000000
30
0.0
11
424.840000000000
21
410.370000000000
31
0.0
0
LINE
5
7e3
100
AcDbEntity
8
F-F
6
CONTINUOUS
62
4
100
AcDbLine
10
423.240000000000
20
410.690000000000
30
0.0
11
424.840000000000
21
410.690000000000
31
0.0
0
LINE
5
7e4
100
AcDbEntity
8
F-F
6
CONTINUOUS
62
4
100
AcDbLine
10
423.240000000000
20
411.010000000000
30
0.0
11
424.840000000000
21
411.010000000000
31
0.0
0
LINE
5
7e5
100
AcDbEntity
8
F-F
6
CONTINUOUS
62
4
100
AcDbLine
10
423.240000000000
20
411.330000000000
30
0.0
11
424.840000000000
21
411.330000000000
31
0.0
0
LINE
5
7e6
100
AcDbEntity
8
F-F
6
CONTINUOUS
62
4
100
AcDbLine
10
423.240000000000
20
411.970000000000
30
0.0
11
424.840000000000
21
411.970000000000
31
0.0
0
LINE
5
7e7
100
AcDbEntity
8
F-F
6
CONTINUOUS
62
4
100
AcDbLine
10
423.240000000000
20
412.290000000000
30
0.0
11
424.840000000000
21
412.290000000000
31
0.0
0
LINE
5
7e8
100
AcDbEntity
8
F-F
6
CONTINUOUS
62
4
100
AcDbLine
10
423.240000000000
20
412.610000000000
30
0.0
11
424.840000000000
21
412.610000000000
31
0.0
0
LINE
5
7e9
100
AcDbEntity
8
F-F
6
CONTINUOUS
62
4
100
AcDbLine
10
423.240000000000
20
412.930000000000
30
0.0
11
424.840000000000
21
412.930000000000
31
0.0
0
LINE
5
7ea
100
AcDbEntity
8
F-F
6
CONTINUOUS
62
4
100
AcDbLine
10
423.240000000000
20
413.250000000000
30
0.0
11
424.840000000000
21
413.250000000000
31
0.0
0
LINE
5
7eb
100
AcDbEntity
8
F-F
6
CONTINUOUS
62
4
100
AcDbLine
10
423.240000000000
20
413.570000000000
30
0.0
11
424.840000000000
21
413.570000000000
31
0.0
0
LINE
5
7ec
100
AcDbEntity
8
F-F
6
CONTINUOUS
62
4
100
AcDbLine
10
423.240000000000
20
413.890000000000
30
0.0
11
424.840000000000
21
413.890000000000
31
0.0
0
LINE
5
7ed
100
AcDbEntity
8
F-F
6
CONTINUOUS
62
4
100
AcDbLine
10
423.240000000000
20
414.210000000000
30
0.0
11
424.840000000000
21
414.210000000000
31
0.0
0
LINE
5
7ee
100
AcDbEntity
8
F-F
6
CONTINUOUS
62
4
100
AcDbLine
10
423.240000000000
20
414.530000000000
30
0.0
11
424.840000000000
21
414.530000000000
31
0.0
0
LINE
5
7ef
100
AcDbEntity
8
F-F
6
CONTINUOUS
62
4
100
AcDbLine
10
423.240000000000
20
414.850000000000
30
0.0
11
424.840000000000
21
414.850000000000
31
0.0
0
LINE
5
7f0
100
AcDbEntity
8
F-F
6
CONTINUOUS
62
4
100
AcDbLine
10
423.240000000000
20
415.810000000000
30
0.0
11
424.840000000000
21
415.810000000000
31
0.0
0
LINE
5
7f1
100
AcDbEntity
8
F-F
6
CONTINUOUS
62
4
100
AcDbLine
10
423.240000000000
20
416.770000000000
30
0.0
11
424.840000000000
21
416.770000000000
31
0.0
0
LINE
5
7f2
100
AcDbEntity
8
F-F
6
CONTINUOUS
62
4
100
AcDbLine
10
423.240000000000
20
417.090000000000
30
0.0
11
424.840000000000
21
417.090000000000
31
0.0
0
LINE
5
7f3
100
AcDbEntity
8
F-F
6
CONTINUOUS
62
4
100
AcDbLine
10
423.240000000000
20
417.410000000000
30
0.0
11
424.840000000000
21
417.410000000000
31
0.0
0
LINE
5
7f4
100
AcDbEntity
8
F-F
6
CONTINUOUS
62
4
100
AcDbLine
10
423.240000000000
20
417.730000000000
30
0.0
11
424.840000000000
21
417.730000000000
31
0.0
0
LINE
5
7f5
100
AcDbEntity
8
F-F
6
CONTINUOUS
62
4
100
AcDbLine
10
423.240000000000
20
418.690000000000
30
0.0
11
424.840000000000
21
418.690000000000
31
0.0
0
LINE
5
7f6
100
AcDbEntity
8
F-F
6
CONTINUOUS
62
4
100
AcDbLine
10
423.240000000000
20
418.370000000000
30
0.0
11
424.840000000000
21
418.370000000000
31
0.0
0
LINE
5
7f7
100
AcDbEntity
8
F-F
6
CONTINUOUS
62
4
100
AcDbLine
10
423.240000000000
20
418.050000000000
30
0.0
11
424.840000000000
21
418.050000000000
31
0.0
0
LINE
5
7f8
100
AcDbEntity
8
F-F
6
CONTINUOUS
62
4
100
AcDbLine
10
423.240000000000
20
416.130000000000
30
0.0
11
424.840000000000
21
416.130000000000
31
0.0
0
LINE
5
7f9
100
AcDbEntity
8
F-F
6
CONTINUOUS
62
4
100
AcDbLine
10
423.240000000000
20
416.450000000000
30
0.0
11
424.840000000000
21
416.450000000000
31
0.0
0
LINE
5
7fa
100
AcDbEntity
8
F-F
6
CONTINUOUS
62
4
100
AcDbLine
10
423.240000000000
20
415.490000000000
30
0.0
11
424.840000000000
21
415.490000000000
31
0.0
0
LINE
5
7fb
100
AcDbEntity
8
F-F
6
CONTINUOUS
62
4
100
AcDbLine
10
423.240000000000
20
415.170000000000
30
0.0
11
424.840000000000
21
415.170000000000
31
0.0
0
LINE
5
7fc
100
AcDbEntity
8
F-F
6
CONTINUOUS
62
4
100
AcDbLine
10
423.240000000000
20
406.850000000000
30
0.0
11
424.840000000000
21
406.850000000000
31
0.0
0
LINE
5
7fd
100
AcDbEntity
8
F-F
6
CONTINUOUS
62
4
100
AcDbLine
10
423.240000000000
20
407.170000000000
30
0.0
11
424.840000000000
21
407.170000000000
31
0.0
0
LINE
5
7fe
100
AcDbEntity
8
F-F
6
CONTINUOUS
62
4
100
AcDbLine
10
422.510000000000
20
419.330000000000
30
0.0
11
424.840000000000
21
419.330000000000
31
0.0
0
LINE
5
7ff
100
AcDbEntity
8
F-F
6
CONTINUOUS
62
4
100
AcDbLine
10
422.190000000000
20
419.010000000000
30
0.0
11
424.840000000000
21
419.010000000000
31
0.0
0
LINE
5
800
100
AcDbEntity
8
F-F
6
CONTINUOUS
62
4
100
AcDbLine
10
414.190000000000
20
411.010000000000
30
0.0
11
415.320000000000
21
411.010000000000
31
0.0
0
LINE
5
801
100
AcDbEntity
8
F-F
6
CONTINUOUS
62
4
100
AcDbLine
10
413.870000000000
20
410.690000000000
30
0.0
11
415.000000000000
21
410.690000000000
31
0.0
0
LINE
5
802
100
AcDbEntity
8
F-F
6
CONTINUOUS
62
4
100
AcDbLine
10
413.550000000000
20
410.370000000000
30
0.0
11
414.680000000000
21
410.370000000000
31
0.0
0
LINE
5
803
100
AcDbEntity
8
F-F
6
CONTINUOUS
62
4
100
AcDbLine
10
413.230000000000
20
410.050000000000
30
0.0
11
414.360000000000
21
410.050000000000
31
0.0
0
LINE
5
804
100
AcDbEntity
8
F-F
6
CONTINUOUS
62
4
100
AcDbLine
10
415.470000000000
20
412.290000000000
30
0.0
11
416.600000000000
21
412.290000000000
31
0.0
0
LINE
5
805
100
AcDbEntity
8
F-F
6
CONTINUOUS
62
4
100
AcDbLine
10
415.150000000000
20
411.970000000000
30
0.0
11
416.280000000000
21
411.970000000000
31
0.0
0
LINE
5
806
100
AcDbEntity
8
F-F
6
CONTINUOUS
62
4
100
AcDbLine
10
414.830000000000
20
411.650000000000
30
0.0
11
415.960000000000
21
411.650000000000
31
0.0
0
LINE
5
807
100
AcDbEntity
8
F-F
6
CONTINUOUS
62
4
100
AcDbLine
10
414.510000000000
20
411.330000000000
30
0.0
11
415.640000000000
21
411.330000000000
31
0.0
0
LINE
5
808
100
AcDbEntity
8
F-F
6
CONTINUOUS
62
4
100
AcDbLine
10
416.750000000000
20
413.570000000000
30
0.0
11
417.880000000000
21
413.570000000000
31
0.0
0
LINE
5
809
100
AcDbEntity
8
F-F
6
CONTINUOUS
62
4
100
AcDbLine
10
416.430000000000
20
413.250000000000
30
0.0
11
417.560000000000
21
413.250000000000
31
0.0
0
LINE
5
80a
100
AcDbEntity
8
F-F
6
CONTINUOUS
62
4
100
AcDbLine
10
416.110000000000
20
412.930000000000
30
0.0
11
417.240000000000
21
412.930000000000
31
0.0
0
LINE
5
80b
100
AcDbEntity
8
F-F
6
CONTINUOUS
62
4
100
AcDbLine
10
415.790000000000
20
412.610000000000
30
0.0
11
416.920000000000
21
412.610000000000
31
0.0
0
LINE
5
80c
100
AcDbEntity
8
F-F
6
CONTINUOUS
62
4
100
AcDbLine
10
418.030000000000
20
414.850000000000
30
0.0
11
419.160000000000
21
414.850000000000
31
0.0
0
LINE
5
80d
100
AcDbEntity
8
F-F
6
CONTINUOUS
62
4
100
AcDbLine
10
417.710000000000
20
414.530000000000
30
0.0
11
418.840000000000
21
414.530000000000
31
0.0
0
LINE
5
80e
100
AcDbEntity
8
F-F
6
CONTINUOUS
62
4
100
AcDbLine
10
417.390000000000
20
414.210000000000
30
0.0
11
418.520000000000
21
414.210000000000
31
0.0
0
LINE
5
80f
100
AcDbEntity
8
F-F
6
CONTINUOUS
62
4
100
AcDbLine
10
417.070000000000
20
413.890000000000
30
0.0
11
418.200000000000
21
413.890000000000
31
0.0
0
LINE
5
810
100
AcDbEntity
8
F-F
6
CONTINUOUS
62
4
100
AcDbLine
10
419.310000000000
20
416.130000000000
30
0.0
11
420.440000000000
21
416.130000000000
31
0.0
0
LINE
5
811
100
AcDbEntity
8
F-F
6
CONTINUOUS
62
4
100
AcDbLine
10
418.990000000000
20
415.810000000000
30
0.0
11
420.120000000000
21
415.810000000000
31
0.0
0
LINE
5
812
100
AcDbEntity
8
F-F
6
CONTINUOUS
62
4
100
AcDbLine
10
418.670000000000
20
415.490000000000
30
0.0
11
419.800000000000
21
415.490000000000
31
0.0
0
LINE
5
813
100
AcDbEntity
8
F-F
6
CONTINUOUS
62
4
100
AcDbLine
10
418.350000000000
20
415.170000000000
30
0.0
11
419.480000000000
21
415.170000000000
31
0.0
0
LINE
5
814
100
AcDbEntity
8
F-F
6
CONTINUOUS
62
4
100
AcDbLine
10
420.590000000000
20
417.410000000000
30
0.0
11
421.720000000000
21
417.410000000000
31
0.0
0
LINE
5
815
100
AcDbEntity
8
F-F
6
CONTINUOUS
62
4
100
AcDbLine
10
420.270000000000
20
417.090000000000
30
0.0
11
421.400000000000
21
417.090000000000
31
0.0
0
LINE
5
816
100
AcDbEntity
8
F-F
6
CONTINUOUS
62
4
100
AcDbLine
10
419.950000000000
20
416.770000000000
30
0.0
11
421.080000000000
21
416.770000000000
31
0.0
0
LINE
5
817
100
AcDbEntity
8
F-F
6
CONTINUOUS
62
4
100
AcDbLine
10
419.630000000000
20
416.450000000000
30
0.0
11
420.760000000000
21
416.450000000000
31
0.0
0
LINE
5
818
100
AcDbEntity
8
F-F
6
CONTINUOUS
62
4
100
AcDbLine
10
421.870000000000
20
418.690000000000
30
0.0
11
423.000000000000
21
418.690000000000
31
0.0
0
LINE
5
819
100
AcDbEntity
8
F-F
6
CONTINUOUS
62
4
100
AcDbLine
10
421.550000000000
20
418.370000000000
30
0.0
11
422.680000000000
21
418.370000000000
31
0.0
0
LINE
5
81a
100
AcDbEntity
8
F-F
6
CONTINUOUS
62
4
100
AcDbLine
10
421.230000000000
20
418.050000000000
30
0.0
11
422.360000000000
21
418.050000000000
31
0.0
0
LINE
5
81b
100
AcDbEntity
8
F-F
6
CONTINUOUS
62
4
100
AcDbLine
10
420.910000000000
20
417.730000000000
30
0.0
11
422.040000000000
21
417.730000000000
31
0.0
0
LINE
5
81c
100
AcDbEntity
8
F-F
6
CONTINUOUS
62
4
100
AcDbLine
10
423.240000000000
20
411.650000000000
30
0.0
11
424.840000000000
21
411.650000000000
31
0.0
0
LINE
5
81d
100
AcDbEntity
8
1-1_2_16
6
CONTINUOUS
62
4
100
AcDbLine
10
703.720000000000
20
1093.470000000000
30
0.0
11
703.720000000000
21
1134.070000000000
31
0.0
0
LINE
5
81e
100
AcDbEntity
8
0-2_2_1
6
CENTER2
62
4
100
AcDbLine
10
1167.980000000000
20
1288.500000000000
30
0.0
11
1182.760000000000
21
1214.570000000000
31
0.0
0
LINE
5
81f
100
AcDbEntity
8
0-8_2_7
6
CONTINUOUS
62
7
100
AcDbLine
10
1805.350000000000
20
727.210000000000
30
0.0
11
1805.350000000000
21
824.310000000000
31
0.0
0
LINE
5
820
100
AcDbEntity
8
0-8_2_7
6
CONTINUOUS
62
7
100
AcDbLine
10
1802.750000000000
20
724.610000000000
30
0.0
11
1726.850000000000
21
724.610000000000
31
0.0
0
LINE
5
821
100
AcDbEntity
8
0-1_2_0
6
CONTINUOUS
62
7
100
AcDbLine
10
490.510000000000
20
737.310000000000
30
0.0
11
490.240000000000
21
741.440000000000
31
0.0
0
LINE
5
822
100
AcDbEntity
8
0-1_2_0
6
CONTINUOUS
62
7
100
AcDbLine
10
490.510000000000
20
737.310000000000
30
0.0
11
488.210000000000
21
740.750000000000
31
0.0
0
LINE
5
823
100
AcDbEntity
8
0-1_2_0
6
CONTINUOUS
62
7
100
AcDbLine
10
490.510000000000
20
737.310000000000
30
0.0
11
481.590000000000
21
763.680000000000
31
0.0
0
LINE
5
824
100
AcDbEntity
8
0-8_2_7
6
CONTINUOUS
62
3
100
AcDbLine
10
1807.350000000000
20
671.610000000000
30
0.0
11
1807.350000000000
21
573.910000000000
31
0.0
0
LINE
5
825
100
AcDbEntity
8
0-8_2_7
6
CONTINUOUS
62
3
100
AcDbLine
10
1807.350000000000
20
669.310000000000
30
0.0
11
1807.350000000000
21
573.910000000000
31
0.0
0
LINE
5
826
100
AcDbEntity
8
0-8_2_7
6
CONTINUOUS
62
3
100
AcDbLine
10
1807.350000000000
20
696.610000000000
30
0.0
11
1807.350000000000
21
778.910000000000
31
0.0
0
LINE
5
827
100
AcDbEntity
8
0-00
6
CONTINUOUS
62
4
100
AcDbLine
10
466.670000000000
20
1316.710000000000
30
0.0
11
476.670000000000
21
1316.710000000000
31
0.0
0
LINE
5
828
100
AcDbEntity
8
0-00
6
CONTINUOUS
62
4
100
AcDbLine
10
468.670000000000
20
1317.210000000000
30
0.0
11
474.670000000000
21
1317.210000000000
31
0.0
0
LINE
5
829
100
AcDbEntity
8
0-00
6
CONTINUOUS
62
4
100
AcDbLine
10
476.670000000000
20
1316.710000000000
30
0.0
11
476.670000000000
21
1316.310000000000
31
0.0
0
LINE
5
82a
100
AcDbEntity
8
0-00
6
CONTINUOUS
62
4
100
AcDbLine
10
474.670000000000
20
1317.210000000000
30
0.0
11
476.170000000000
21
1316.710000000000
31
0.0
0
LINE
5
82b
100
AcDbEntity
8
0-00
6
CONTINUOUS
62
4
100
AcDbLine
10
474.070000000000
20
1305.840000000000
30
0.0
11
469.270000000000
21
1306.640000000000
31
0.0
0
LINE
5
82c
100
AcDbEntity
8
0-00
6
CONTINUOUS
62
4
100
AcDbLine
10
474.070000000000
20
1304.240000000000
30
0.0
11
469.270000000000
21
1305.040000000000
31
0.0
0
LINE
5
82d
100
AcDbEntity
8
0-00
6
CONTINUOUS
62
4
100
AcDbLine
10
474.070000000000
20
1302.640000000000
30
0.0
11
469.270000000000
21
1303.440000000000
31
0.0
0
LINE
5
82e
100
AcDbEntity
8
0-00
6
CONTINUOUS
62
4
100
AcDbLine
10
474.070000000000
20
1307.440000000000
30
0.0
11
469.270000000000
21
1308.240000000000
31
0.0
0
LINE
5
82f
100
AcDbEntity
8
0-00
6
CONTINUOUS
62
4
100
AcDbLine
10
466.670000000000
20
1316.710000000000
30
0.0
11
466.670000000000
21
1316.310000000000
31
0.0
0
LINE
5
830
100
AcDbEntity
8
0-00
6
CONTINUOUS
62
4
100
AcDbLine
10
468.670000000000
20
1317.210000000000
30
0.0
11
467.170000000000
21
1316.710000000000
31
0.0
0
LINE
5
831
100
AcDbEntity
8
0-00
6
CONTINUOUS
62
4
100
AcDbLine
10
474.070000000000
20
1299.440000000000
30
0.0
11
469.270000000000
21
1300.240000000000
31
0.0
0
LINE
5
832
100
AcDbEntity
8
0-00
6
CONTINUOUS
62
4
100
AcDbLine
10
474.070000000000
20
1301.040000000000
30
0.0
11
469.270000000000
21
1301.840000000000
31
0.0
0
LINE
5
833
100
AcDbEntity
8
0-00
6
CONTINUOUS
62
4
100
AcDbLine
10
474.070000000000
20
1297.840000000000
30
0.0
11
469.270000000000
21
1298.640000000000
31
0.0
0
LINE
5
834
100
AcDbEntity
8
0-00
6
CONTINUOUS
62
4
100
AcDbLine
10
474.070000000000
20
1296.240000000000
30
0.0
11
469.270000000000
21
1297.040000000000
31
0.0
0
LINE
5
835
100
AcDbEntity
8
0-00
6
CONTINUOUS
62
4
100
AcDbLine
10
471.670000000000
20
1281.310000000000
30
0.0
11
469.670000000000
21
1282.910000000000
31
0.0
0
LINE
5
836
100
AcDbEntity
8
0-00
6
CONTINUOUS
62
4
100
AcDbLine
10
473.670000000000
20
1282.910000000000
30
0.0
11
471.670000000000
21
1281.310000000000
31
0.0
0
LINE
5
837
100
AcDbEntity
8
0-00
6
CONTINUOUS
62
4
100
AcDbLine
10
466.670000000000
20
1316.310000000000
30
0.0
11
476.670000000000
21
1316.310000000000
31
0.0
0
LINE
5
838
100
AcDbEntity
8
0-00
6
DASHED
62
7
100
AcDbLine
10
645.570000000000
20
1315.210000000000
30
0.0
11
454.570000000000
21
1315.210000000000
31
0.0
0
LINE
5
839
100
AcDbEntity
8
0-00
6
CONTINUOUS
62
3
100
AcDbLine
10
645.570000000000
20
1314.710000000000
30
0.0
11
454.570000000000
21
1314.710000000000
31
0.0
0
LINE
5
83a
100
AcDbEntity
8
0-00
6
CONTINUOUS
62
3
100
AcDbLine
10
645.570000000000
20
1294.710000000000
30
0.0
11
454.570000000000
21
1294.710000000000
31
0.0
0
LINE
5
83b
100
AcDbEntity
8
0-00
6
CONTINUOUS
62
4
100
AcDbLine
10
614.410000000000
20
1294.710000000000
30
0.0
11
634.410000000000
21
1314.710000000000
31
0.0
0
LINE
5
83c
100
AcDbEntity
8
0-00
6
CONTINUOUS
62
4
100
AcDbLine
10
600.270000000000
20
1294.710000000000
30
0.0
11
620.270000000000
21
1314.710000000000
31
0.0
0
LINE
5
83d
100
AcDbEntity
8
0-00
6
CONTINUOUS
62
4
100
AcDbLine
10
586.120000000000
20
1294.710000000000
30
0.0
11
606.120000000000
21
1314.710000000000
31
0.0
0
LINE
5
83e
100
AcDbEntity
8
0-00
6
CONTINUOUS
62
4
100
AcDbLine
10
571.980000000000
20
1294.710000000000
30
0.0
11
591.980000000000
21
1314.710000000000
31
0.0
0
LINE
5
83f
100
AcDbEntity
8
0-00
6
CONTINUOUS
62
4
100
AcDbLine
10
557.840000000000
20
1294.710000000000
30
0.0
11
577.840000000000
21
1314.710000000000
31
0.0
0
LINE
5
840
100
AcDbEntity
8
0-00
6
CONTINUOUS
62
4
100
AcDbLine
10
543.700000000000
20
1294.710000000000
30
0.0
11
563.700000000000
21
1314.710000000000
31
0.0
0
LINE
5
841
100
AcDbEntity
8
0-00
6
CONTINUOUS
62
4
100
AcDbLine
10
529.560000000000
20
1294.710000000000
30
0.0
11
549.560000000000
21
1314.710000000000
31
0.0
0
LINE
5
842
100
AcDbEntity
8
0-00
6
CONTINUOUS
62
4
100
AcDbLine
10
515.410000000000
20
1294.710000000000
30
0.0
11
535.410000000000
21
1314.710000000000
31
0.0
0
LINE
5
843
100
AcDbEntity
8
0-00
6
CONTINUOUS
62
4
100
AcDbLine
10
501.270000000000
20
1294.710000000000
30
0.0
11
521.270000000000
21
1314.710000000000
31
0.0
0
LINE
5
844
100
AcDbEntity
8
0-00
6
CONTINUOUS
62
4
100
AcDbLine
10
487.130000000000
20
1294.710000000000
30
0.0
11
507.130000000000
21
1314.710000000000
31
0.0
0
LINE
5
845
100
AcDbEntity
8
0-00
6
CONTINUOUS
62
4
100
AcDbLine
10
472.990000000000
20
1294.710000000000
30
0.0
11
492.990000000000
21
1314.710000000000
31
0.0
0
LINE
5
846
100
AcDbEntity
8
0-00
6
CONTINUOUS
62
4
100
AcDbLine
10
458.850000000000
20
1294.710000000000
30
0.0
11
478.850000000000
21
1314.710000000000
31
0.0
0
LINE
5
847
100
AcDbEntity
8
0-00
6
CONTINUOUS
62
4
100
AcDbLine
10
444.700000000000
20
1294.710000000000
30
0.0
11
464.700000000000
21
1314.710000000000
31
0.0
0
LINE
5
848
100
AcDbEntity
8
0-00
6
CONTINUOUS
62
4
100
AcDbLine
10
430.560000000000
20
1294.710000000000
30
0.0
11
450.560000000000
21
1314.710000000000
31
0.0
0
LINE
5
849
100
AcDbEntity
8
0-00
6
CONTINUOUS
62
4
100
AcDbLine
10
416.420000000000
20
1294.710000000000
30
0.0
11
436.420000000000
21
1314.710000000000
31
0.0
0
LINE
5
84a
100
AcDbEntity
8
0-00
6
CONTINUOUS
62
4
100
AcDbLine
10
402.280000000000
20
1294.710000000000
30
0.0
11
422.280000000000
21
1314.710000000000
31
0.0
0
LINE
5
84b
100
AcDbEntity
8
0-00
6
CONTINUOUS
62
4
100
AcDbLine
10
474.070000000000
20
1310.640000000000
30
0.0
11
469.270000000000
21
1311.440000000000
31
0.0
0
LINE
5
84c
100
AcDbEntity
8
0-00
6
CONTINUOUS
62
4
100
AcDbLine
10
474.070000000000
20
1309.040000000000
30
0.0
11
469.270000000000
21
1309.840000000000
31
0.0
0
LINE
5
84d
100
AcDbEntity
8
0-00
6
CONTINUOUS
62
4
100
AcDbLine
10
474.070000000000
20
1312.240000000000
30
0.0
11
469.270000000000
21
1313.040000000000
31
0.0
0
LINE
5
84e
100
AcDbEntity
8
0-00
6
CONTINUOUS
62
4
100
AcDbLine
10
469.670000000000
20
1282.910000000000
30
0.0
11
469.670000000000
21
1316.310000000000
31
0.0
0
LINE
5
84f
100
AcDbEntity
8
0-00
6
CONTINUOUS
62
4
100
AcDbLine
10
473.670000000000
20
1282.910000000000
30
0.0
11
473.670000000000
21
1316.310000000000
31
0.0
0
LINE
5
850
100
AcDbEntity
8
0-00
6
CONTINUOUS
62
4
100
AcDbLine
10
474.070000000000
20
1294.640000000000
30
0.0
11
469.270000000000
21
1295.440000000000
31
0.0
0
LINE
5
851
100
AcDbEntity
8
0-00
6
CONTINUOUS
62
4
100
AcDbLine
10
474.070000000000
20
1293.040000000000
30
0.0
11
469.270000000000
21
1293.840000000000
31
0.0
0
LINE
5
852
100
AcDbEntity
8
0-00
6
CONTINUOUS
62
4
100
AcDbLine
10
474.070000000000
20
1291.440000000000
30
0.0
11
469.270000000000
21
1292.240000000000
31
0.0
0
LINE
5
853
100
AcDbEntity
8
0-00
6
CONTINUOUS
62
4
100
AcDbLine
10
474.070000000000
20
1289.840000000000
30
0.0
11
469.270000000000
21
1290.640000000000
31
0.0
0
LINE
5
854
100
AcDbEntity
8
0-00
6
CONTINUOUS
62
4
100
AcDbLine
10
474.070000000000
20
1288.240000000000
30
0.0
11
469.270000000000
21
1289.040000000000
31
0.0
0
LINE
5
855
100
AcDbEntity
8
0-00
6
CENTER2
62
4
100
AcDbLine
10
809.970000000000
20
1401.630000000000
30
0.0
11
809.970000000000
21
1281.630000000000
31
0.0
0
LINE
5
856
100
AcDbEntity
8
0-00
6
DASHED
62
7
100
AcDbLine
10
645.570000000000
20
1315.210000000000
30
0.0
11
836.570000000000
21
1315.210000000000
31
0.0
0
LINE
5
857
100
AcDbEntity
8
0-00
6
CONTINUOUS
62
3
100
AcDbLine
10
645.570000000000
20
1314.710000000000
30
0.0
11
836.570000000000
21
1314.710000000000
31
0.0
0
LINE
5
858
100
AcDbEntity
8
0-00
6
CONTINUOUS
62
3
100
AcDbLine
10
645.570000000000
20
1294.710000000000
30
0.0
11
836.570000000000
21
1294.710000000000
31
0.0
0
LINE
5
859
100
AcDbEntity
8
0-00
6
DASHED
62
7
100
AcDbLine
10
392.760000000000
20
1315.210000000000
30
0.0
11
454.570000000000
21
1315.210000000000
31
0.0
0
LINE
5
85a
100
AcDbEntity
8
0-00
6
CONTINUOUS
62
3
100
AcDbLine
10
392.760000000000
20
1314.710000000000
30
0.0
11
454.570000000000
21
1314.710000000000
31
0.0
0
LINE
5
85b
100
AcDbEntity
8
0-00
6
CONTINUOUS
62
4
100
AcDbLine
10
392.760000000000
20
1313.470000000000
30
0.0
11
393.990000000000
21
1314.710000000000
31
0.0
0
LINE
5
85c
100
AcDbEntity
8
0-00
6
CONTINUOUS
62
4
100
AcDbLine
10
392.760000000000
20
1299.330000000000
30
0.0
11
408.130000000000
21
1314.710000000000
31
0.0
0
LINE
5
85d
100
AcDbEntity
8
0-00
6
CONTINUOUS
62
3
100
AcDbLine
10
392.760000000000
20
1294.710000000000
30
0.0
11
454.570000000000
21
1294.710000000000
31
0.0
0
LINE
5
85e
100
AcDbEntity
8
0-00
6
CONTINUOUS
62
4
100
AcDbLine
10
628.550000000000
20
1294.710000000000
30
0.0
11
648.550000000000
21
1314.710000000000
31
0.0
0
LINE
5
85f
100
AcDbEntity
8
0-00
6
CONTINUOUS
62
4
100
AcDbLine
10
642.690000000000
20
1294.710000000000
30
0.0
11
662.690000000000
21
1314.710000000000
31
0.0
0
LINE
5
860
100
AcDbEntity
8
0-00
6
CONTINUOUS
62
4
100
AcDbLine
10
713.400000000000
20
1294.710000000000
30
0.0
11
733.400000000000
21
1314.710000000000
31
0.0
0
LINE
5
861
100
AcDbEntity
8
0-00
6
CONTINUOUS
62
4
100
AcDbLine
10
699.260000000000
20
1294.710000000000
30
0.0
11
719.260000000000
21
1314.710000000000
31
0.0
0
LINE
5
862
100
AcDbEntity
8
0-00
6
CONTINUOUS
62
4
100
AcDbLine
10
685.120000000000
20
1294.710000000000
30
0.0
11
705.120000000000
21
1314.710000000000
31
0.0
0
LINE
5
863
100
AcDbEntity
8
0-00
6
CONTINUOUS
62
4
100
AcDbLine
10
670.980000000000
20
1294.710000000000
30
0.0
11
690.980000000000
21
1314.710000000000
31
0.0
0
LINE
5
864
100
AcDbEntity
8
0-00
6
CONTINUOUS
62
4
100
AcDbLine
10
656.840000000000
20
1294.710000000000
30
0.0
11
676.840000000000
21
1314.710000000000
31
0.0
0
LINE
5
865
100
AcDbEntity
8
0-00
6
CONTINUOUS
62
4
100
AcDbLine
10
727.550000000000
20
1294.710000000000
30
0.0
11
747.550000000000
21
1314.710000000000
31
0.0
0
LINE
5
866
100
AcDbEntity
8
0-00
6
CONTINUOUS
62
4
100
AcDbLine
10
741.690000000000
20
1294.710000000000
30
0.0
11
761.690000000000
21
1314.710000000000
31
0.0
0
LINE
5
867
100
AcDbEntity
8
0-00
6
CONTINUOUS
62
4
100
AcDbLine
10
798.260000000000
20
1294.710000000000
30
0.0
11
818.260000000000
21
1314.710000000000
31
0.0
0
LINE
5
868
100
AcDbEntity
8
0-00
6
CONTINUOUS
62
4
100
AcDbLine
10
784.110000000000
20
1294.710000000000
30
0.0
11
804.110000000000
21
1314.710000000000
31
0.0
0
LINE
5
869
100
AcDbEntity
8
0-00
6
CONTINUOUS
62
4
100
AcDbLine
10
769.970000000000
20
1294.710000000000
30
0.0
11
789.970000000000
21
1314.710000000000
31
0.0
0
LINE
5
86a
100
AcDbEntity
8
0-00
6
CONTINUOUS
62
4
100
AcDbLine
10
755.830000000000
20
1294.710000000000
30
0.0
11
775.830000000000
21
1314.710000000000
31
0.0
0
LINE
5
86b
100
AcDbEntity
8
0-00
6
CONTINUOUS
62
4
100
AcDbLine
10
840.680000000000
20
1294.710000000000
30
0.0
11
860.680000000000
21
1314.710000000000
31
0.0
0
LINE
5
86c
100
AcDbEntity
8
0-00
6
CONTINUOUS
62
4
100
AcDbLine
10
868.970000000000
20
1294.710000000000
30
0.0
11
888.970000000000
21
1314.710000000000
31
0.0
0
LINE
5
86d
100
AcDbEntity
8
0-00
6
CONTINUOUS
62
4
100
AcDbLine
10
854.830000000000
20
1294.710000000000
30
0.0
11
874.830000000000
21
1314.710000000000
31
0.0
0
LINE
5
86e
100
AcDbEntity
8
0-00
6
DASHED
62
7
100
AcDbLine
10
898.390000000000
20
1315.210000000000
30
0.0
11
836.570000000000
21
1315.210000000000
31
0.0
0
LINE
5
86f
100
AcDbEntity
8
0-00
6
CONTINUOUS
62
3
100
AcDbLine
10
898.390000000000
20
1314.710000000000
30
0.0
11
836.570000000000
21
1314.710000000000
31
0.0
0
LINE
5
870
100
AcDbEntity
8
0-00
6
CONTINUOUS
62
4
100
AcDbLine
10
883.110000000000
20
1294.710000000000
30
0.0
11
898.390000000000
21
1309.980000000000
31
0.0
0
LINE
5
871
100
AcDbEntity
8
0-00
6
CONTINUOUS
62
4
100
AcDbLine
10
897.250000000000
20
1294.710000000000
30
0.0
11
898.390000000000
21
1295.840000000000
31
0.0
0
LINE
5
872
100
AcDbEntity
8
0-00
6
CONTINUOUS
62
3
100
AcDbLine
10
898.390000000000
20
1294.710000000000
30
0.0
11
836.570000000000
21
1294.710000000000
31
0.0
0
LINE
5
873
100
AcDbEntity
8
0-00
6
CONTINUOUS
62
4
100
AcDbLine
10
898.390000000000
20
1401.630000000000
30
0.0
11
892.590000000000
21
1400.080000000000
31
0.0
0
LINE
5
874
100
AcDbEntity
8
0-00
6
CONTINUOUS
62
4
100
AcDbLine
10
898.390000000000
20
1401.630000000000
30
0.0
11
892.590000000000
21
1403.180000000000
31
0.0
0
LINE
5
875
100
AcDbEntity
8
0-00
6
CONTINUOUS
62
4
100
AcDbLine
10
392.760000000000
20
1401.630000000000
30
0.0
11
398.550000000000
21
1400.080000000000
31
0.0
0
LINE
5
876
100
AcDbEntity
8
0-00
6
CONTINUOUS
62
4
100
AcDbLine
10
392.760000000000
20
1401.630000000000
30
0.0
11
398.550000000000
21
1403.180000000000
31
0.0
0
LINE
5
877
100
AcDbEntity
8
0-00
6
CONTINUOUS
62
7
100
AcDbLine
10
543.180000000000
20
1316.310000000000
30
0.0
11
543.440000000000
21
1320.440000000000
31
0.0
0
LINE
5
878
100
AcDbEntity
8
0-00
6
CONTINUOUS
62
7
100
AcDbLine
10
543.180000000000
20
1316.310000000000
30
0.0
11
545.470000000000
21
1319.750000000000
31
0.0
0
LINE
5
879
100
AcDbEntity
8
0-00
6
CONTINUOUS
62
7
100
AcDbLine
10
543.180000000000
20
1316.310000000000
30
0.0
11
556.100000000000
21
1354.500000000000
31
0.0
0
LINE
5
87a
100
AcDbEntity
8
0-00
6
CONTINUOUS
62
7
100
AcDbLine
10
637.170000000000
20
1315.080000000000
30
0.0
11
637.430000000000
21
1319.220000000000
31
0.0
0
LINE
5
87b
100
AcDbEntity
8
0-00
6
CONTINUOUS
62
7
100
AcDbLine
10
637.170000000000
20
1315.080000000000
30
0.0
11
639.460000000000
21
1318.530000000000
31
0.0
0
LINE
5
87c
100
AcDbEntity
8
0-00
6
CONTINUOUS
62
7
100
AcDbLine
10
637.170000000000
20
1315.080000000000
30
0.0
11
646.080000000000
21
1341.420000000000
31
0.0
0
LINE
5
87d
100
AcDbEntity
8
0-00
6
CONTINUOUS
62
7
100
AcDbLine
10
582.720000000000
20
1299.000000000000
30
0.0
11
583.790000000000
21
1295.000000000000
31
0.0
0
LINE
5
87e
100
AcDbEntity
8
0-00
6
CONTINUOUS
62
7
100
AcDbLine
10
582.720000000000
20
1299.000000000000
30
0.0
11
585.650000000000
21
1296.070000000000
31
0.0
0
LINE
5
87f
100
AcDbEntity
8
0-00
6
CONTINUOUS
62
3
100
AcDbLine
10
898.390000000000
20
1274.710000000000
30
0.0
11
392.760000000000
21
1274.710000000000
31
0.0
0
LINE
5
880
100
AcDbEntity
8
0-00
6
CONTINUOUS
62
3
100
AcDbLine
10
898.390000000000
20
1214.710000000000
30
0.0
11
392.760000000000
21
1214.710000000000
31
0.0
0
LINE
5
881
100
AcDbEntity
8
0-00
6
CONTINUOUS
62
3
100
AcDbLine
10
898.390000000000
20
1194.710000000000
30
0.0
11
392.760000000000
21
1194.710000000000
31
0.0
0
LINE
5
882
100
AcDbEntity
8
0-00
6
CENTER2
62
4
100
AcDbLine
10
481.170000000000
20
1401.630000000000
30
0.0
11
481.170000000000
21
1281.630000000000
31
0.0
0
LINE
5
883
100
AcDbEntity
8
0-00
6
CONTINUOUS
62
7
100
AcDbLine
10
582.720000000000
20
1299.000000000000
30
0.0
11
600.210000000000
21
1268.710000000000
31
0.0
0
LINE
5
884
100
AcDbEntity
8
0-00
6
CONTINUOUS
62
4
100
AcDbLine
10
517.360000000000
20
1336.910000000000
30
0.0
11
530.170000000000
21
1336.910000000000
31
0.0
0
LINE
5
885
100
AcDbEntity
8
0-00
6
CONTINUOUS
62
4
100
AcDbLine
10
826.700000000000
20
1294.710000000000
30
0.0
11
846.700000000000
21
1314.710000000000
31
0.0
0
LINE
5
886
100
AcDbEntity
8
0-00
6
CONTINUOUS
62
4
100
AcDbLine
10
812.560000000000
20
1294.710000000000
30
0.0
11
832.560000000000
21
1314.710000000000
31
0.0
0
LINE
5
887
100
AcDbEntity
8
0-00
6
CONTINUOUS
62
7
100
AcDbLine
10
483.270000000000
20
1333.010000000000
30
0.0
11
483.870000000000
21
1333.010000000000
31
0.0
0
LINE
5
888
100
AcDbEntity
8
0-00
6
CONTINUOUS
62
7
100
AcDbLine
10
464.470000000000
20
1317.710000000000
30
0.0
11
462.470000000000
21
1317.710000000000
31
0.0
0
LINE
5
889
100
AcDbEntity
8
0-00
6
CONTINUOUS
62
7
100
AcDbLine
10
464.470000000000
20
1317.110000000000
30
0.0
11
464.470000000000
21
1317.710000000000
31
0.0
0
LINE
5
88a
100
AcDbEntity
8
0-00
6
CONTINUOUS
62
7
100
AcDbLine
10
464.470000000000
20
1317.110000000000
30
0.0
11
462.470000000000
21
1317.110000000000
31
0.0
0
LINE
5
88b
100
AcDbEntity
8
0-00
6
CONTINUOUS
62
7
100
AcDbLine
10
449.500000000000
20
1318.130000000000
30
0.0
11
447.670000000000
21
1316.310000000000
31
0.0
0
LINE
5
88c
100
AcDbEntity
8
0-00
6
CONTINUOUS
62
7
100
AcDbLine
10
448.100000000000
20
1315.880000000000
30
0.0
11
449.920000000000
21
1317.710000000000
31
0.0
0
LINE
5
88d
100
AcDbEntity
8
0-00
6
CONTINUOUS
62
7
100
AcDbLine
10
512.200000000000
20
1318.130000000000
30
0.0
11
514.020000000000
21
1316.310000000000
31
0.0
0
LINE
5
88e
100
AcDbEntity
8
0-00
6
CONTINUOUS
62
7
100
AcDbLine
10
513.600000000000
20
1315.880000000000
30
0.0
11
511.770000000000
21
1317.710000000000
31
0.0
0
LINE
5
88f
100
AcDbEntity
8
0-00
6
CONTINUOUS
62
7
100
AcDbLine
10
487.470000000000
20
1333.010000000000
30
0.0
11
487.470000000000
21
1326.010000000000
31
0.0
0
LINE
5
890
100
AcDbEntity
8
0-00
6
CONTINUOUS
62
7
100
AcDbLine
10
486.870000000000
20
1333.010000000000
30
0.0
11
486.870000000000
21
1326.010000000000
31
0.0
0
LINE
5
891
100
AcDbEntity
8
0-00
6
CONTINUOUS
62
7
100
AcDbLine
10
486.270000000000
20
1333.010000000000
30
0.0
11
486.270000000000
21
1326.010000000000
31
0.0
0
LINE
5
892
100
AcDbEntity
8
0-00
6
CONTINUOUS
62
7
100
AcDbLine
10
485.670000000000
20
1333.010000000000
30
0.0
11
485.670000000000
21
1326.010000000000
31
0.0
0
LINE
5
893
100
AcDbEntity
8
0-00
6
CONTINUOUS
62
7
100
AcDbLine
10
485.070000000000
20
1333.010000000000
30
0.0
11
485.070000000000
21
1326.010000000000
31
0.0
0
LINE
5
894
100
AcDbEntity
8
0-00
6
CONTINUOUS
62
7
100
AcDbLine
10
484.470000000000
20
1333.010000000000
30
0.0
11
484.470000000000
21
1326.010000000000
31
0.0
0
LINE
5
895
100
AcDbEntity
8
0-00
6
CONTINUOUS
62
7
100
AcDbLine
10
483.870000000000
20
1333.010000000000
30
0.0
11
483.870000000000
21
1326.010000000000
31
0.0
0
LINE
5
896
100
AcDbEntity
8
0-00
6
CONTINUOUS
62
7
100
AcDbLine
10
483.270000000000
20
1333.010000000000
30
0.0
11
483.270000000000
21
1326.010000000000
31
0.0
0
LINE
5
897
100
AcDbEntity
8
0-00
6
CENTER2
62
4
100
AcDbLine
10
471.670000000000
20
1318.120000000000
30
0.0
11
471.670000000000
21
1277.970000000000
31
0.0
0
LINE
5
898
100
AcDbEntity
8
0-00
6
CONTINUOUS
62
4
100
AcDbLine
10
795.470000000000
20
1316.710000000000
30
0.0
11
805.470000000000
21
1316.710000000000
31
0.0
0
LINE
5
899
100
AcDbEntity
8
0-00
6
CONTINUOUS
62
4
100
AcDbLine
10
797.470000000000
20
1317.210000000000
30
0.0
11
803.470000000000
21
1317.210000000000
31
0.0
0
LINE
5
89a
100
AcDbEntity
8
0-00
6
CONTINUOUS
62
4
100
AcDbLine
10
805.470000000000
20
1316.710000000000
30
0.0
11
805.470000000000
21
1316.310000000000
31
0.0
0
LINE
5
89b
100
AcDbEntity
8
0-00
6
CONTINUOUS
62
4
100
AcDbLine
10
803.470000000000
20
1317.210000000000
30
0.0
11
804.970000000000
21
1316.710000000000
31
0.0
0
LINE
5
89c
100
AcDbEntity
8
0-00
6
CONTINUOUS
62
4
100
AcDbLine
10
802.870000000000
20
1305.840000000000
30
0.0
11
798.070000000000
21
1306.640000000000
31
0.0
0
LINE
5
89d
100
AcDbEntity
8
0-00
6
CONTINUOUS
62
4
100
AcDbLine
10
802.870000000000
20
1304.240000000000
30
0.0
11
798.070000000000
21
1305.040000000000
31
0.0
0
LINE
5
89e
100
AcDbEntity
8
0-00
6
CONTINUOUS
62
4
100
AcDbLine
10
802.870000000000
20
1302.640000000000
30
0.0
11
798.070000000000
21
1303.440000000000
31
0.0
0
LINE
5
89f
100
AcDbEntity
8
0-00
6
CONTINUOUS
62
4
100
AcDbLine
10
802.870000000000
20
1307.440000000000
30
0.0
11
798.070000000000
21
1308.240000000000
31
0.0
0
LINE
5
8a0
100
AcDbEntity
8
0-00
6
CONTINUOUS
62
4
100
AcDbLine
10
795.470000000000
20
1316.710000000000
30
0.0
11
795.470000000000
21
1316.310000000000
31
0.0
0
LINE
5
8a1
100
AcDbEntity
8
0-00
6
CONTINUOUS
62
4
100
AcDbLine
10
797.470000000000
20
1317.210000000000
30
0.0
11
795.970000000000
21
1316.710000000000
31
0.0
0
LINE
5
8a2
100
AcDbEntity
8
0-00
6
CONTINUOUS
62
4
100
AcDbLine
10
802.870000000000
20
1299.440000000000
30
0.0
11
798.070000000000
21
1300.240000000000
31
0.0
0
LINE
5
8a3
100
AcDbEntity
8
0-00
6
CONTINUOUS
62
4
100
AcDbLine
10
802.870000000000
20
1301.040000000000
30
0.0
11
798.070000000000
21
1301.840000000000
31
0.0
0
LINE
5
8a4
100
AcDbEntity
8
0-00
6
CONTINUOUS
62
4
100
AcDbLine
10
802.870000000000
20
1297.840000000000
30
0.0
11
798.070000000000
21
1298.640000000000
31
0.0
0
LINE
5
8a5
100
AcDbEntity
8
0-00
6
CONTINUOUS
62
4
100
AcDbLine
10
802.870000000000
20
1296.240000000000
30
0.0
11
798.070000000000
21
1297.040000000000
31
0.0
0
LINE
5
8a6
100
AcDbEntity
8
0-00
6
CONTINUOUS
62
4
100
AcDbLine
10
800.470000000000
20
1281.310000000000
30
0.0
11
798.470000000000
21
1282.910000000000
31
0.0
0
LINE
5
8a7
100
AcDbEntity
8
0-00
6
CONTINUOUS
62
4
100
AcDbLine
10
802.470000000000
20
1282.910000000000
30
0.0
11
800.470000000000
21
1281.310000000000
31
0.0
0
LINE
5
8a8
100
AcDbEntity
8
0-00
6
CONTINUOUS
62
4
100
AcDbLine
10
795.470000000000
20
1316.310000000000
30
0.0
11
805.470000000000
21
1316.310000000000
31
0.0
0
LINE
5
8a9
100
AcDbEntity
8
0-00
6
CONTINUOUS
62
4
100
AcDbLine
10
802.870000000000
20
1310.640000000000
30
0.0
11
798.070000000000
21
1311.440000000000
31
0.0
0
LINE
5
8aa
100
AcDbEntity
8
0-00
6
CONTINUOUS
62
4
100
AcDbLine
10
802.870000000000
20
1309.040000000000
30
0.0
11
798.070000000000
21
1309.840000000000
31
0.0
0
LINE
5
8ab
100
AcDbEntity
8
0-00
6
CONTINUOUS
62
4
100
AcDbLine
10
802.870000000000
20
1312.240000000000
30
0.0
11
798.070000000000
21
1313.040000000000
31
0.0
0
LINE
5
8ac
100
AcDbEntity
8
0-00
6
CONTINUOUS
62
4
100
AcDbLine
10
798.470000000000
20
1282.910000000000
30
0.0
11
798.470000000000
21
1316.310000000000
31
0.0
0
LINE
5
8ad
100
AcDbEntity
8
0-00
6
CONTINUOUS
62
4
100
AcDbLine
10
802.470000000000
20
1282.910000000000
30
0.0
11
802.470000000000
21
1316.310000000000
31
0.0
0
LINE
5
8ae
100
AcDbEntity
8
0-00
6
CONTINUOUS
62
4
100
AcDbLine
10
802.870000000000
20
1294.640000000000
30
0.0
11
798.070000000000
21
1295.440000000000
31
0.0
0
LINE
5
8af
100
AcDbEntity
8
0-00
6
CONTINUOUS
62
4
100
AcDbLine
10
802.870000000000
20
1293.040000000000
30
0.0
11
798.070000000000
21
1293.840000000000
31
0.0
0
LINE
5
8b0
100
AcDbEntity
8
0-00
6
CONTINUOUS
62
4
100
AcDbLine
10
802.870000000000
20
1291.440000000000
30
0.0
11
798.070000000000
21
1292.240000000000
31
0.0
0
LINE
5
8b1
100
AcDbEntity
8
0-00
6
CONTINUOUS
62
4
100
AcDbLine
10
802.870000000000
20
1289.840000000000
30
0.0
11
798.070000000000
21
1290.640000000000
31
0.0
0
LINE
5
8b2
100
AcDbEntity
8
0-00
6
CONTINUOUS
62
4
100
AcDbLine
10
802.870000000000
20
1288.240000000000
30
0.0
11
798.070000000000
21
1289.040000000000
31
0.0
0
LINE
5
8b3
100
AcDbEntity
8
0-00
6
CONTINUOUS
62
7
100
AcDbLine
10
812.070000000000
20
1333.010000000000
30
0.0
11
812.670000000000
21
1333.010000000000
31
0.0
0
LINE
5
8b4
100
AcDbEntity
8
0-00
6
CONTINUOUS
62
7
100
AcDbLine
10
793.270000000000
20
1317.710000000000
30
0.0
11
791.270000000000
21
1317.710000000000
31
0.0
0
LINE
5
8b5
100
AcDbEntity
8
0-00
6
CONTINUOUS
62
7
100
AcDbLine
10
793.270000000000
20
1317.110000000000
30
0.0
11
793.270000000000
21
1317.710000000000
31
0.0
0
LINE
5
8b6
100
AcDbEntity
8
0-00
6
CONTINUOUS
62
7
100
AcDbLine
10
793.270000000000
20
1317.110000000000
30
0.0
11
791.270000000000
21
1317.110000000000
31
0.0
0
LINE
5
8b7
100
AcDbEntity
8
0-00
6
CONTINUOUS
62
7
100
AcDbLine
10
778.300000000000
20
1318.130000000000
30
0.0
11
776.470000000000
21
1316.310000000000
31
0.0
0
LINE
5
8b8
100
AcDbEntity
8
0-00
6
CONTINUOUS
62
7
100
AcDbLine
10
776.900000000000
20
1315.880000000000
30
0.0
11
778.720000000000
21
1317.710000000000
31
0.0
0
LINE
5
8b9
100
AcDbEntity
8
0-00
6
CONTINUOUS
62
7
100
AcDbLine
10
841.000000000000
20
1318.130000000000
30
0.0
11
842.820000000000
21
1316.310000000000
31
0.0
0
LINE
5
8ba
100
AcDbEntity
8
0-00
6
CONTINUOUS
62
7
100
AcDbLine
10
842.400000000000
20
1315.880000000000
30
0.0
11
840.570000000000
21
1317.710000000000
31
0.0
0
LINE
5
8bb
100
AcDbEntity
8
0-00
6
CONTINUOUS
62
7
100
AcDbLine
10
816.270000000000
20
1333.010000000000
30
0.0
11
816.270000000000
21
1326.010000000000
31
0.0
0
LINE
5
8bc
100
AcDbEntity
8
0-00
6
CONTINUOUS
62
7
100
AcDbLine
10
815.670000000000
20
1333.010000000000
30
0.0
11
815.670000000000
21
1326.010000000000
31
0.0
0
LINE
5
8bd
100
AcDbEntity
8
0-00
6
CONTINUOUS
62
7
100
AcDbLine
10
815.070000000000
20
1333.010000000000
30
0.0
11
815.070000000000
21
1326.010000000000
31
0.0
0
LINE
5
8be
100
AcDbEntity
8
0-00
6
CONTINUOUS
62
7
100
AcDbLine
10
814.470000000000
20
1333.010000000000
30
0.0
11
814.470000000000
21
1326.010000000000
31
0.0
0
LINE
5
8bf
100
AcDbEntity
8
0-00
6
CONTINUOUS
62
7
100
AcDbLine
10
813.870000000000
20
1333.010000000000
30
0.0
11
813.870000000000
21
1326.010000000000
31
0.0
0
LINE
5
8c0
100
AcDbEntity
8
0-00
6
CONTINUOUS
62
7
100
AcDbLine
10
813.270000000000
20
1333.010000000000
30
0.0
11
813.270000000000
21
1326.010000000000
31
0.0
0
LINE
5
8c1
100
AcDbEntity
8
0-00
6
CONTINUOUS
62
7
100
AcDbLine
10
812.670000000000
20
1333.010000000000
30
0.0
11
812.670000000000
21
1326.010000000000
31
0.0
0
LINE
5
8c2
100
AcDbEntity
8
0-00
6
CONTINUOUS
62
7
100
AcDbLine
10
812.070000000000
20
1333.010000000000
30
0.0
11
812.070000000000
21
1326.010000000000
31
0.0
0
LINE
5
8c3
100
AcDbEntity
8
0-00
6
CENTER2
62
4
100
AcDbLine
10
800.470000000000
20
1318.120000000000
30
0.0
11
800.470000000000
21
1277.970000000000
31
0.0
0
LINE
5
8c4
100
AcDbEntity
8
0-00
6
CONTINUOUS
62
4
100
AcDbLine
10
481.170000000000
20
1401.630000000000
30
0.0
11
392.760000000000
21
1401.630000000000
31
0.0
0
POLYLINE
5
8c5
100
AcDbEntity
8
0-00
6
CONTINUOUS
62
  4
100
AcDb2dPolyline
66
1
10
0.0
20
0.0
30
0.0
70
0
0
VERTEX
5
8c6
100
AcDbEntity
8
0-00
6
CONTINUOUS
62
  4
100
AcDbVertex
100
AcDb2dVertex
10
481.170000000000
20
1401.630000000000
30
0.0
0
VERTEX
5
8c7
100
AcDbEntity
8
0-00
6
CONTINUOUS
62
  4
100
AcDbVertex
100
AcDb2dVertex
10
809.970000000000
20
1401.630000000000
30
0.0
0
VERTEX
5
8c8
100
AcDbEntity
8
0-00
6
CONTINUOUS
62
  4
100
AcDbVertex
100
AcDb2dVertex
10
898.390000000000
20
1401.630000000000
30
0.0
0
SEQEND
5
8c9
100
AcDbEntity
8
0-00
0
LINE
5
8ca
100
AcDbEntity
8
0-00
6
CONTINUOUS
62
7
100
AcDbLine
10
392.760000000000
20
1315.710000000000
30
0.0
11
447.670000000000
21
1315.710000000000
31
0.0
0
LINE
5
8cb
100
AcDbEntity
8
0-00
6
CONTINUOUS
62
7
100
AcDbLine
10
447.670000000000
20
1316.310000000000
30
0.0
11
392.760000000000
21
1316.310000000000
31
0.0
0
LINE
5
8cc
100
AcDbEntity
8
0-00
6
CONTINUOUS
62
7
100
AcDbLine
10
842.820000000000
20
1316.310000000000
30
0.0
11
898.390000000000
21
1316.310000000000
31
0.0
0
LINE
5
8cd
100
AcDbEntity
8
0-00
6
CONTINUOUS
62
7
100
AcDbLine
10
898.390000000000
20
1315.710000000000
30
0.0
11
842.820000000000
21
1315.710000000000
31
0.0
0
LINE
5
8ce
100
AcDbEntity
8
0-00
6
CONTINUOUS
62
7
100
AcDbLine
10
776.470000000000
20
1316.310000000000
30
0.0
11
645.570000000000
21
1316.310000000000
31
0.0
0
LINE
5
8cf
100
AcDbEntity
8
0-00
6
CONTINUOUS
62
7
100
AcDbLine
10
645.570000000000
20
1315.710000000000
30
0.0
11
776.470000000000
21
1315.710000000000
31
0.0
0
LINE
5
8d0
100
AcDbEntity
8
0-00
6
CONTINUOUS
62
7
100
AcDbLine
10
514.020000000000
20
1316.310000000000
30
0.0
11
645.570000000000
21
1316.310000000000
31
0.0
0
LINE
5
8d1
100
AcDbEntity
8
0-00
6
CONTINUOUS
62
7
100
AcDbLine
10
645.570000000000
20
1315.710000000000
30
0.0
11
514.020000000000
21
1315.710000000000
31
0.0
0
LINE
5
8d2
100
AcDbEntity
8
0-00
6
CONTINUOUS
62
4
100
AcDbLine
10
530.170000000000
20
1316.310000000000
30
0.0
11
530.170000000000
21
1336.910000000000
31
0.0
0
LINE
5
8d3
100
AcDbEntity
8
1-1_2_16
6
CONTINUOUS
62
4
100
AcDbLine
10
602.810000000000
20
1094.270000000000
30
0.0
11
622.810000000000
21
1094.270000000000
31
0.0
0
LINE
5
8d4
100
AcDbEntity
8
1-1_2_16
6
CONTINUOUS
62
4
100
AcDbLine
10
606.810000000000
20
1095.270000000000
30
0.0
11
618.810000000000
21
1095.270000000000
31
0.0
0
LINE
5
8d5
100
AcDbEntity
8
1-1_2_16
6
CONTINUOUS
62
4
100
AcDbLine
10
622.810000000000
20
1094.270000000000
30
0.0
11
622.810000000000
21
1093.470000000000
31
0.0
0
LINE
5
8d6
100
AcDbEntity
8
1-1_2_16
6
CONTINUOUS
62
4
100
AcDbLine
10
618.810000000000
20
1095.270000000000
30
0.0
11
621.810000000000
21
1094.270000000000
31
0.0
0
LINE
5
8d7
100
AcDbEntity
8
1-1_2_16
6
CONTINUOUS
62
4
100
AcDbLine
10
617.610000000000
20
1072.520000000000
30
0.0
11
608.010000000000
21
1074.120000000000
31
0.0
0
LINE
5
8d8
100
AcDbEntity
8
1-1_2_16
6
CONTINUOUS
62
4
100
AcDbLine
10
617.610000000000
20
1069.320000000000
30
0.0
11
608.010000000000
21
1070.920000000000
31
0.0
0
LINE
5
8d9
100
AcDbEntity
8
1-1_2_16
6
CONTINUOUS
62
4
100
AcDbLine
10
617.610000000000
20
1066.120000000000
30
0.0
11
608.010000000000
21
1067.720000000000
31
0.0
0
LINE
5
8da
100
AcDbEntity
8
1-1_2_16
6
CONTINUOUS
62
4
100
AcDbLine
10
617.610000000000
20
1075.720000000000
30
0.0
11
608.010000000000
21
1077.320000000000
31
0.0
0
LINE
5
8db
100
AcDbEntity
8
1-1_2_16
6
CONTINUOUS
62
4
100
AcDbLine
10
602.810000000000
20
1094.270000000000
30
0.0
11
602.810000000000
21
1093.470000000000
31
0.0
0
LINE
5
8dc
100
AcDbEntity
8
1-1_2_16
6
CONTINUOUS
62
4
100
AcDbLine
10
606.810000000000
20
1095.270000000000
30
0.0
11
603.810000000000
21
1094.270000000000
31
0.0
0
LINE
5
8dd
100
AcDbEntity
8
1-1_2_16
6
CONTINUOUS
62
4
100
AcDbLine
10
617.610000000000
20
1059.720000000000
30
0.0
11
608.010000000000
21
1061.320000000000
31
0.0
0
LINE
5
8de
100
AcDbEntity
8
1-1_2_16
6
CONTINUOUS
62
4
100
AcDbLine
10
617.610000000000
20
1062.920000000000
30
0.0
11
608.010000000000
21
1064.520000000000
31
0.0
0
LINE
5
8df
100
AcDbEntity
8
1-1_2_16
6
CONTINUOUS
62
4
100
AcDbLine
10
617.610000000000
20
1056.520000000000
30
0.0
11
608.010000000000
21
1058.120000000000
31
0.0
0
LINE
5
8e0
100
AcDbEntity
8
1-1_2_16
6
CONTINUOUS
62
4
100
AcDbLine
10
617.610000000000
20
1053.320000000000
30
0.0
11
608.010000000000
21
1054.920000000000
31
0.0
0
LINE
5
8e1
100
AcDbEntity
8
1-1_2_16
6
CONTINUOUS
62
4
100
AcDbLine
10
612.810000000000
20
1023.470000000000
30
0.0
11
608.810000000000
21
1026.670000000000
31
0.0
0
LINE
5
8e2
100
AcDbEntity
8
1-1_2_16
6
CONTINUOUS
62
4
100
AcDbLine
10
616.810000000000
20
1026.670000000000
30
0.0
11
612.810000000000
21
1023.470000000000
31
0.0
0
LINE
5
8e3
100
AcDbEntity
8
1-1_2_16
6
CONTINUOUS
62
4
100
AcDbLine
10
602.810000000000
20
1093.470000000000
30
0.0
11
622.810000000000
21
1093.470000000000
31
0.0
0
LINE
5
8e4
100
AcDbEntity
8
1-1_2_16
6
CONTINUOUS
62
4
100
AcDbLine
10
617.610000000000
20
1082.120000000000
30
0.0
11
608.010000000000
21
1083.720000000000
31
0.0
0
LINE
5
8e5
100
AcDbEntity
8
1-1_2_16
6
CONTINUOUS
62
4
100
AcDbLine
10
617.610000000000
20
1078.920000000000
30
0.0
11
608.010000000000
21
1080.520000000000
31
0.0
0
LINE
5
8e6
100
AcDbEntity
8
1-1_2_16
6
CONTINUOUS
62
4
100
AcDbLine
10
617.610000000000
20
1085.320000000000
30
0.0
11
608.010000000000
21
1086.920000000000
31
0.0
0
LINE
5
8e7
100
AcDbEntity
8
1-1_2_16
6
CONTINUOUS
62
4
100
AcDbLine
10
608.810000000000
20
1026.670000000000
30
0.0
11
608.810000000000
21
1093.470000000000
31
0.0
0
LINE
5
8e8
100
AcDbEntity
8
1-1_2_16
6
CONTINUOUS
62
4
100
AcDbLine
10
616.810000000000
20
1026.670000000000
30
0.0
11
616.810000000000
21
1093.470000000000
31
0.0
0
LINE
5
8e9
100
AcDbEntity
8
1-1_2_16
6
CONTINUOUS
62
4
100
AcDbLine
10
617.610000000000
20
1050.120000000000
30
0.0
11
608.010000000000
21
1051.720000000000
31
0.0
0
LINE
5
8ea
100
AcDbEntity
8
1-1_2_16
6
CONTINUOUS
62
4
100
AcDbLine
10
617.610000000000
20
1046.920000000000
30
0.0
11
608.010000000000
21
1048.520000000000
31
0.0
0
LINE
5
8eb
100
AcDbEntity
8
1-1_2_16
6
CONTINUOUS
62
4
100
AcDbLine
10
617.610000000000
20
1043.720000000000
30
0.0
11
608.010000000000
21
1045.320000000000
31
0.0
0
LINE
5
8ec
100
AcDbEntity
8
1-1_2_16
6
CONTINUOUS
62
4
100
AcDbLine
10
617.610000000000
20
1040.520000000000
30
0.0
11
608.010000000000
21
1042.120000000000
31
0.0
0
LINE
5
8ed
100
AcDbEntity
8
1-1_2_16
6
CONTINUOUS
62
4
100
AcDbLine
10
617.610000000000
20
1037.320000000000
30
0.0
11
608.010000000000
21
1038.920000000000
31
0.0
0
LINE
5
8ee
100
AcDbEntity
8
1-1_2_16
6
CONTINUOUS
62
7
100
AcDbLine
10
636.010000000000
20
1126.870000000000
30
0.0
11
637.210000000000
21
1126.870000000000
31
0.0
0
LINE
5
8ef
100
AcDbEntity
8
1-1_2_16
6
CONTINUOUS
62
7
100
AcDbLine
10
598.410000000000
20
1096.270000000000
30
0.0
11
594.410000000000
21
1096.270000000000
31
0.0
0
LINE
5
8f0
100
AcDbEntity
8
1-1_2_16
6
CONTINUOUS
62
7
100
AcDbLine
10
598.410000000000
20
1095.070000000000
30
0.0
11
598.410000000000
21
1096.270000000000
31
0.0
0
LINE
5
8f1
100
AcDbEntity
8
1-1_2_16
6
CONTINUOUS
62
7
100
AcDbLine
10
598.410000000000
20
1095.070000000000
30
0.0
11
594.410000000000
21
1095.070000000000
31
0.0
0
LINE
5
8f2
100
AcDbEntity
8
1-1_2_16
6
CONTINUOUS
62
7
100
AcDbLine
10
568.470000000000
20
1097.120000000000
30
0.0
11
564.820000000000
21
1093.470000000000
31
0.0
0
LINE
5
8f3
100
AcDbEntity
8
1-1_2_16
6
CONTINUOUS
62
7
100
AcDbLine
10
565.670000000000
20
1092.620000000000
30
0.0
11
569.310000000000
21
1096.270000000000
31
0.0
0
LINE
5
8f4
100
AcDbEntity
8
1-1_2_16
6
CONTINUOUS
62
7
100
AcDbLine
10
693.860000000000
20
1097.120000000000
30
0.0
11
697.510000000000
21
1093.470000000000
31
0.0
0
LINE
5
8f5
100
AcDbEntity
8
1-1_2_16
6
CONTINUOUS
62
7
100
AcDbLine
10
696.660000000000
20
1092.620000000000
30
0.0
11
693.010000000000
21
1096.270000000000
31
0.0
0
LINE
5
8f6
100
AcDbEntity
8
1-1_2_16
6
CONTINUOUS
62
7
100
AcDbLine
10
644.410000000000
20
1126.870000000000
30
0.0
11
644.410000000000
21
1112.870000000000
31
0.0
0
LINE
5
8f7
100
AcDbEntity
8
1-1_2_16
6
CONTINUOUS
62
7
100
AcDbLine
10
643.210000000000
20
1126.870000000000
30
0.0
11
643.210000000000
21
1112.870000000000
31
0.0
0
LINE
5
8f8
100
AcDbEntity
8
1-1_2_16
6
CONTINUOUS
62
7
100
AcDbLine
10
642.010000000000
20
1126.870000000000
30
0.0
11
642.010000000000
21
1112.870000000000
31
0.0
0
LINE
5
8f9
100
AcDbEntity
8
1-1_2_16
6
CONTINUOUS
62
7
100
AcDbLine
10
640.810000000000
20
1126.870000000000
30
0.0
11
640.810000000000
21
1112.870000000000
31
0.0
0
LINE
5
8fa
100
AcDbEntity
8
1-1_2_16
6
CONTINUOUS
62
7
100
AcDbLine
10
639.610000000000
20
1126.870000000000
30
0.0
11
639.610000000000
21
1112.870000000000
31
0.0
0
LINE
5
8fb
100
AcDbEntity
8
1-1_2_16
6
CONTINUOUS
62
7
100
AcDbLine
10
638.410000000000
20
1126.870000000000
30
0.0
11
638.410000000000
21
1112.870000000000
31
0.0
0
LINE
5
8fc
100
AcDbEntity
8
1-1_2_16
6
CONTINUOUS
62
7
100
AcDbLine
10
637.210000000000
20
1126.870000000000
30
0.0
11
637.210000000000
21
1112.870000000000
31
0.0
0
LINE
5
8fd
100
AcDbEntity
8
1-1_2_16
6
CONTINUOUS
62
7
100
AcDbLine
10
636.010000000000
20
1126.870000000000
30
0.0
11
636.010000000000
21
1112.870000000000
31
0.0
0
LINE
5
8fe
100
AcDbEntity
8
1-1_2_16
6
CENTER2
62
4
100
AcDbLine
10
612.810000000000
20
1097.090000000000
30
0.0
11
612.810000000000
21
1016.790000000000
31
0.0
0
LINE
5
8ff
100
AcDbEntity
8
1-1_2_16
6
CONTINUOUS
62
4
100
AcDbLine
10
659.820000000000
20
1134.070000000000
30
0.0
11
703.720000000000
21
1134.070000000000
31
0.0
0
LINE
5
900
100
AcDbEntity
8
1-1_2_16
6
CONTINUOUS
62
7
100
AcDbLine
10
697.510000000000
20
1093.470000000000
30
0.0
11
732.620000000000
21
1093.470000000000
31
0.0
0
LINE
5
901
100
AcDbEntity
8
1-1_2_16
6
CONTINUOUS
62
7
100
AcDbLine
10
732.850000000000
20
1092.270000000000
30
0.0
11
697.510000000000
21
1092.270000000000
31
0.0
0
LINE
5
902
100
AcDbEntity
8
1-1_2_16
6
DASHED
62
7
100
AcDbLine
10
733.020000000000
20
1091.270000000000
30
0.0
11
639.810000000000
21
1091.270000000000
31
0.0
0
LINE
5
903
100
AcDbEntity
8
1-1_2_16
6
CONTINUOUS
62
3
100
AcDbLine
10
733.190000000000
20
1090.270000000000
30
0.0
11
639.810000000000
21
1090.270000000000
31
0.0
0
LINE
5
904
100
AcDbEntity
8
1-1_2_16
6
CONTINUOUS
62
4
100
AcDbLine
10
704.610000000000
20
1050.270000000000
30
0.0
11
734.300000000000
21
1079.960000000000
31
0.0
0
LINE
5
905
100
AcDbEntity
8
1-1_2_16
6
CONTINUOUS
62
3
100
AcDbLine
10
731.580000000000
20
1050.270000000000
30
0.0
11
639.810000000000
21
1050.270000000000
31
0.0
0
LINE
5
906
100
AcDbEntity
8
1-1_2_16
6
CONTINUOUS
62
3
100
AcDbLine
10
535.010000000000
20
1050.270000000000
30
0.0
11
639.810000000000
21
1050.270000000000
31
0.0
0
LINE
5
907
100
AcDbEntity
8
1-1_2_16
6
CONTINUOUS
62
4
100
AcDbLine
10
534.990000000000
20
1050.350000000000
30
0.0
11
574.900000000000
21
1090.270000000000
31
0.0
0
LINE
5
908
100
AcDbEntity
8
1-1_2_16
6
CONTINUOUS
62
3
100
AcDbLine
10
533.390000000000
20
1090.270000000000
30
0.0
11
639.810000000000
21
1090.270000000000
31
0.0
0
LINE
5
909
100
AcDbEntity
8
1-1_2_16
6
DASHED
62
7
100
AcDbLine
10
533.560000000000
20
1091.270000000000
30
0.0
11
639.810000000000
21
1091.270000000000
31
0.0
0
LINE
5
90a
100
AcDbEntity
8
1-1_2_16
6
CONTINUOUS
62
7
100
AcDbLine
10
533.730000000000
20
1092.270000000000
30
0.0
11
564.820000000000
21
1092.270000000000
31
0.0
0
LINE
5
90b
100
AcDbEntity
8
1-1_2_16
6
CONTINUOUS
62
7
100
AcDbLine
10
564.820000000000
20
1093.470000000000
30
0.0
11
533.960000000000
21
1093.470000000000
31
0.0
0
LINE
5
90c
100
AcDbEntity
8
1-1_2_16
6
CONTINUOUS
62
4
100
AcDbLine
10
532.130000000000
20
1075.780000000000
30
0.0
11
546.620000000000
21
1090.270000000000
31
0.0
0
LINE
5
90d
100
AcDbEntity
8
1-1_2_16
6
CONTINUOUS
62
7
100
AcDbLine
10
634.810000000000
20
1098.670000000000
30
0.0
11
634.810000000000
21
1126.870000000000
31
0.0
0
LINE
5
90e
100
AcDbEntity
8
1-1_2_16
6
CONTINUOUS
62
7
100
AcDbLine
10
636.010000000000
20
1097.470000000000
30
0.0
11
693.010000000000
21
1097.470000000000
31
0.0
0
LINE
5
90f
100
AcDbEntity
8
1-1_2_16
6
CONTINUOUS
62
7
100
AcDbLine
10
627.610000000000
20
1097.470000000000
30
0.0
11
569.310000000000
21
1097.470000000000
31
0.0
0
LINE
5
910
100
AcDbEntity
8
1-1_2_16
6
CONTINUOUS
62
7
100
AcDbLine
10
628.810000000000
20
1098.670000000000
30
0.0
11
628.810000000000
21
1126.870000000000
31
0.0
0
LINE
5
911
100
AcDbEntity
8
1-1_2_16
6
CONTINUOUS
62
7
100
AcDbLine
10
630.010000000000
20
1093.470000000000
30
0.0
11
594.410000000000
21
1093.470000000000
31
0.0
0
LINE
5
912
100
AcDbEntity
8
1-1_2_16
6
CONTINUOUS
62
7
100
AcDbLine
10
631.210000000000
20
1094.670000000000
30
0.0
11
631.210000000000
21
1126.870000000000
31
0.0
0
LINE
5
913
100
AcDbEntity
8
1-1_2_16
6
CONTINUOUS
62
7
100
AcDbLine
10
630.010000000000
20
1126.870000000000
30
0.0
11
630.010000000000
21
1098.670000000000
31
0.0
0
LINE
5
914
100
AcDbEntity
8
1-1_2_16
6
CONTINUOUS
62
7
100
AcDbLine
10
627.610000000000
20
1096.270000000000
30
0.0
11
569.310000000000
21
1096.270000000000
31
0.0
0
LINE
5
915
100
AcDbEntity
8
1-1_2_16
6
CONTINUOUS
62
7
100
AcDbLine
10
633.610000000000
20
1126.870000000000
30
0.0
11
633.610000000000
21
1098.670000000000
31
0.0
0
LINE
5
916
100
AcDbEntity
8
1-1_2_16
6
CONTINUOUS
62
7
100
AcDbLine
10
636.010000000000
20
1096.270000000000
30
0.0
11
693.010000000000
21
1096.270000000000
31
0.0
0
LINE
5
917
100
AcDbEntity
8
1-1_2_16
6
CONTINUOUS
62
7
100
AcDbLine
10
632.410000000000
20
1126.870000000000
30
0.0
11
632.410000000000
21
1094.670000000000
31
0.0
0
LINE
5
918
100
AcDbEntity
8
1-1_2_16
6
CONTINUOUS
62
7
100
AcDbLine
10
630.010000000000
20
1092.270000000000
30
0.0
11
594.410000000000
21
1092.270000000000
31
0.0
0
LINE
5
919
100
AcDbEntity
8
0-00
6
CONTINUOUS
62
7
100
AcDbLine
10
807.870000000000
20
1318.310000000000
30
0.0
11
778.720000000000
21
1318.310000000000
31
0.0
0
LINE
5
91a
100
AcDbEntity
8
0-00
6
CONTINUOUS
62
7
100
AcDbLine
10
808.470000000000
20
1318.910000000000
30
0.0
11
808.470000000000
21
1333.010000000000
31
0.0
0
LINE
5
91b
100
AcDbEntity
8
0-00
6
CONTINUOUS
62
7
100
AcDbLine
10
811.470000000000
20
1318.910000000000
30
0.0
11
811.470000000000
21
1333.010000000000
31
0.0
0
LINE
5
91c
100
AcDbEntity
8
0-00
6
CONTINUOUS
62
7
100
AcDbLine
10
812.070000000000
20
1318.310000000000
30
0.0
11
840.570000000000
21
1318.310000000000
31
0.0
0
LINE
5
91d
100
AcDbEntity
8
0-00
6
CONTINUOUS
62
7
100
AcDbLine
10
809.670000000000
20
1316.910000000000
30
0.0
11
809.670000000000
21
1333.010000000000
31
0.0
0
LINE
5
91e
100
AcDbEntity
8
0-00
6
CONTINUOUS
62
7
100
AcDbLine
10
809.070000000000
20
1316.310000000000
30
0.0
11
791.270000000000
21
1316.310000000000
31
0.0
0
LINE
5
91f
100
AcDbEntity
8
0-00
6
CONTINUOUS
62
7
100
AcDbLine
10
809.070000000000
20
1333.010000000000
30
0.0
11
809.070000000000
21
1318.910000000000
31
0.0
0
LINE
5
920
100
AcDbEntity
8
0-00
6
CONTINUOUS
62
7
100
AcDbLine
10
807.870000000000
20
1317.710000000000
30
0.0
11
778.720000000000
21
1317.710000000000
31
0.0
0
LINE
5
921
100
AcDbEntity
8
0-00
6
CONTINUOUS
62
7
100
AcDbLine
10
810.270000000000
20
1333.010000000000
30
0.0
11
810.270000000000
21
1316.910000000000
31
0.0
0
LINE
5
922
100
AcDbEntity
8
0-00
6
CONTINUOUS
62
7
100
AcDbLine
10
809.070000000000
20
1315.710000000000
30
0.0
11
791.270000000000
21
1315.710000000000
31
0.0
0
LINE
5
923
100
AcDbEntity
8
0-00
6
CONTINUOUS
62
7
100
AcDbLine
10
810.870000000000
20
1333.010000000000
30
0.0
11
810.870000000000
21
1318.910000000000
31
0.0
0
LINE
5
924
100
AcDbEntity
8
0-00
6
CONTINUOUS
62
7
100
AcDbLine
10
812.070000000000
20
1317.710000000000
30
0.0
11
840.570000000000
21
1317.710000000000
31
0.0
0
LINE
5
925
100
AcDbEntity
8
0-00
6
CONTINUOUS
62
7
100
AcDbLine
10
482.670000000000
20
1318.910000000000
30
0.0
11
482.670000000000
21
1333.010000000000
31
0.0
0
LINE
5
926
100
AcDbEntity
8
0-00
6
CONTINUOUS
62
7
100
AcDbLine
10
483.270000000000
20
1318.310000000000
30
0.0
11
511.770000000000
21
1318.310000000000
31
0.0
0
LINE
5
927
100
AcDbEntity
8
0-00
6
CONTINUOUS
62
7
100
AcDbLine
10
479.070000000000
20
1318.310000000000
30
0.0
11
449.920000000000
21
1318.310000000000
31
0.0
0
LINE
5
928
100
AcDbEntity
8
0-00
6
CONTINUOUS
62
7
100
AcDbLine
10
479.670000000000
20
1318.910000000000
30
0.0
11
479.670000000000
21
1333.010000000000
31
0.0
0
LINE
5
929
100
AcDbEntity
8
0-00
6
CONTINUOUS
62
7
100
AcDbLine
10
480.270000000000
20
1316.310000000000
30
0.0
11
462.470000000000
21
1316.310000000000
31
0.0
0
LINE
5
92a
100
AcDbEntity
8
0-00
6
CONTINUOUS
62
7
100
AcDbLine
10
480.870000000000
20
1316.910000000000
30
0.0
11
480.870000000000
21
1333.010000000000
31
0.0
0
LINE
5
92b
100
AcDbEntity
8
0-00
6
CONTINUOUS
62
7
100
AcDbLine
10
480.270000000000
20
1333.010000000000
30
0.0
11
480.270000000000
21
1318.910000000000
31
0.0
0
LINE
5
92c
100
AcDbEntity
8
0-00
6
CONTINUOUS
62
7
100
AcDbLine
10
479.070000000000
20
1317.710000000000
30
0.0
11
449.920000000000
21
1317.710000000000
31
0.0
0
LINE
5
92d
100
AcDbEntity
8
0-00
6
CONTINUOUS
62
7
100
AcDbLine
10
482.070000000000
20
1333.010000000000
30
0.0
11
482.070000000000
21
1318.910000000000
31
0.0
0
LINE
5
92e
100
AcDbEntity
8
0-00
6
CONTINUOUS
62
7
100
AcDbLine
10
483.270000000000
20
1317.710000000000
30
0.0
11
511.770000000000
21
1317.710000000000
31
0.0
0
LINE
5
92f
100
AcDbEntity
8
0-00
6
CONTINUOUS
62
7
100
AcDbLine
10
481.470000000000
20
1333.010000000000
30
0.0
11
481.470000000000
21
1316.910000000000
31
0.0
0
LINE
5
930
100
AcDbEntity
8
0-00
6
CONTINUOUS
62
7
100
AcDbLine
10
480.270000000000
20
1315.710000000000
30
0.0
11
462.470000000000
21
1315.710000000000
31
0.0
0
LINE
5
931
100
AcDbEntity
8
0-1_2_0
6
DOT
62
7
100
AcDbLine
10
652.510000000000
20
755.480000000000
30
0.0
11
459.690000000000
21
716.920000000000
31
0.0
0
LINE
5
932
100
AcDbEntity
8
0-1_2_0
6
DOT
62
7
100
AcDbLine
10
652.600000000000
20
754.990000000000
30
0.0
11
459.790000000000
21
716.430000000000
31
0.0
0
LINE
5
933
100
AcDbEntity
8
0-1_2_0
6
CONTINUOUS
62
7
100
AcDbLine
10
651.270000000000
20
757.580000000000
30
0.0
11
459.240000000000
21
719.170000000000
31
0.0
0
LINE
5
934
100
AcDbEntity
8
0-1_2_0
6
CONTINUOUS
62
7
100
AcDbLine
10
651.390000000000
20
756.990000000000
30
0.0
11
459.350000000000
21
718.590000000000
31
0.0
0
LINE
5
935
100
AcDbEntity
8
0-1_2_0
6
DOT
62
7
100
AcDbLine
10
652.980000000000
20
756.190000000000
30
0.0
11
652.650000000000
21
757.830000000000
31
0.0
0
LINE
5
936
100
AcDbEntity
8
0-1_2_0
6
CONTINUOUS
62
7
100
AcDbLine
10
652.370000000000
20
759.230000000000
30
0.0
11
649.180000000000
21
775.150000000000
31
0.0
0
LINE
5
937
100
AcDbEntity
8
0-1_2_0
6
CONTINUOUS
62
7
100
AcDbLine
10
649.770000000000
20
775.270000000000
30
0.0
11
652.960000000000
21
759.350000000000
31
0.0
0
LINE
5
938
100
AcDbEntity
8
0-1_2_0
6
DOT
62
7
100
AcDbLine
10
653.030000000000
20
758.960000000000
30
0.0
11
653.560000000000
21
756.310000000000
31
0.0
0
LINE
5
939
100
AcDbEntity
8
0-1_2_0
6
CONTINUOUS
62
7
100
AcDbLine
10
650.430000000000
20
763.840000000000
30
0.0
11
458.000000000000
21
725.350000000000
31
0.0
0
LINE
5
93a
100
AcDbEntity
8
0-1_2_0
6
CONTINUOUS
62
7
100
AcDbLine
10
650.430000000000
20
763.840000000000
30
0.0
11
647.820000000000
21
776.880000000000
31
0.0
0
POLYLINE
5
93b
100
AcDbEntity
8
0-1_2_0
6
CONTINUOUS
62
  7
100
AcDb2dPolyline
66
1
10
0.0
20
0.0
30
0.0
70
0
0
VERTEX
5
93c
100
AcDbEntity
8
0-1_2_0
6
CONTINUOUS
62
  7
100
AcDbVertex
100
AcDb2dVertex
10
779.160000000000
20
737.620000000000
30
0.0
0
VERTEX
5
93d
100
AcDbEntity
8
0-1_2_0
6
CONTINUOUS
62
  7
100
AcDbVertex
100
AcDb2dVertex
10
777.380000000000
20
746.220000000000
30
0.0
0
VERTEX
5
93e
100
AcDbEntity
8
0-1_2_0
6
CONTINUOUS
62
  7
100
AcDbVertex
100
AcDb2dVertex
10
776.790000000000
20
746.100000000000
30
0.0
0
SEQEND
5
93f
100
AcDbEntity
8
0-1_2_0
0
LINE
5
940
100
AcDbEntity
8
0-1_2_0
6
CONTINUOUS
62
7
100
AcDbLine
10
778.570000000000
20
737.490000000000
30
0.0
11
776.790000000000
21
746.100000000000
31
0.0
0
LINE
5
941
100
AcDbEntity
8
0-1_2_0
6
DOT
62
7
100
AcDbLine
10
683.140000000000
20
772.600000000000
30
0.0
11
683.250000000000
21
773.190000000000
31
0.0
0
LINE
5
942
100
AcDbEntity
8
0-1_2_0
6
DOT
62
7
100
AcDbLine
10
664.900000000000
20
776.250000000000
30
0.0
11
683.140000000000
21
772.600000000000
31
0.0
0
LINE
5
943
100
AcDbEntity
8
0-1_2_0
6
DOT
62
7
100
AcDbLine
10
659.930000000000
20
755.480000000000
30
0.0
11
852.740000000000
21
716.920000000000
31
0.0
0
LINE
5
944
100
AcDbEntity
8
0-1_2_0
6
DOT
62
7
100
AcDbLine
10
659.830000000000
20
754.990000000000
30
0.0
11
852.650000000000
21
716.430000000000
31
0.0
0
LINE
5
945
100
AcDbEntity
8
0-1_2_0
6
CONTINUOUS
62
7
100
AcDbLine
10
661.160000000000
20
757.580000000000
30
0.0
11
853.200000000000
21
719.170000000000
31
0.0
0
LINE
5
946
100
AcDbEntity
8
0-1_2_0
6
CONTINUOUS
62
7
100
AcDbLine
10
661.040000000000
20
756.990000000000
30
0.0
11
853.080000000000
21
718.590000000000
31
0.0
0
LINE
5
947
100
AcDbEntity
8
0-1_2_0
6
DOT
62
7
100
AcDbLine
10
659.460000000000
20
756.190000000000
30
0.0
11
659.780000000000
21
757.830000000000
31
0.0
0
LINE
5
948
100
AcDbEntity
8
0-1_2_0
6
CONTINUOUS
62
7
100
AcDbLine
10
660.060000000000
20
759.230000000000
30
0.0
11
663.250000000000
21
775.150000000000
31
0.0
0
LINE
5
949
100
AcDbEntity
8
0-1_2_0
6
CONTINUOUS
62
7
100
AcDbLine
10
662.660000000000
20
775.270000000000
30
0.0
11
659.480000000000
21
759.350000000000
31
0.0
0
LINE
5
94a
100
AcDbEntity
8
0-1_2_0
6
DOT
62
7
100
AcDbLine
10
659.400000000000
20
758.960000000000
30
0.0
11
658.870000000000
21
756.310000000000
31
0.0
0
LINE
5
94b
100
AcDbEntity
8
0-1_2_0
6
CONTINUOUS
62
7
100
AcDbLine
10
662.010000000000
20
763.840000000000
30
0.0
11
854.430000000000
21
725.350000000000
31
0.0
0
LINE
5
94c
100
AcDbEntity
8
0-1_2_0
6
CONTINUOUS
62
7
100
AcDbLine
10
784.380000000000
20
754.760000000000
30
0.0
11
780.920000000000
21
737.500000000000
31
0.0
0
LINE
5
94d
100
AcDbEntity
8
0-1_2_0
6
CONTINUOUS
62
7
100
AcDbLine
10
783.790000000000
20
754.880000000000
30
0.0
11
780.340000000000
21
737.620000000000
31
0.0
0
LINE
5
94e
100
AcDbEntity
8
0-1_2_0
6
CONTINUOUS
62
7
100
AcDbLine
10
528.640000000000
20
754.880000000000
30
0.0
11
532.100000000000
21
737.620000000000
31
0.0
0
LINE
5
94f
100
AcDbEntity
8
0-1_2_0
6
CONTINUOUS
62
7
100
AcDbLine
10
528.060000000000
20
754.760000000000
30
0.0
11
531.510000000000
21
737.500000000000
31
0.0
0
LINE
5
950
100
AcDbEntity
8
0-1_2_0
6
DOT
62
7
100
AcDbLine
10
648.590000000000
20
776.040000000000
30
0.0
11
632.170000000000
21
751.420000000000
31
0.0
0
LINE
5
951
100
AcDbEntity
8
0-1_2_0
6
DOT
62
7
100
AcDbLine
10
663.850000000000
20
776.040000000000
30
0.0
11
680.260000000000
21
751.420000000000
31
0.0
0
LINE
5
952
100
AcDbEntity
8
0-2_2_1
6
DOT
62
7
100
AcDbLine
10
1266.990000000000
20
1279.010000000000
30
0.0
11
1138.520000000000
21
1253.310000000000
31
0.0
0
LINE
5
953
100
AcDbEntity
8
0-2_2_1
6
DOT
62
7
100
AcDbLine
10
1140.400000000000
20
1253.080000000000
30
0.0
11
1267.110000000000
21
1278.420000000000
31
0.0
0
LINE
5
954
100
AcDbEntity
8
0-2_2_1
6
DASHED
62
7
100
AcDbLine
10
1119.310000000000
20
1249.160000000000
30
0.0
11
1061.700000000000
21
1237.630000000000
31
0.0
0
LINE
5
955
100
AcDbEntity
8
0-2_2_1
6
CONTINUOUS
62
7
100
AcDbLine
10
1271.200000000000
20
1288.620000000000
30
0.0
11
1054.060000000000
21
1245.190000000000
31
0.0
0
LINE
5
956
100
AcDbEntity
8
0-2_2_1
6
CONTINUOUS
62
7
100
AcDbLine
10
1268.590000000000
20
1301.660000000000
30
0.0
11
1051.460000000000
21
1258.240000000000
31
0.0
0
LINE
5
957
100
AcDbEntity
8
0-2_2_1
6
CONTINUOUS
62
7
100
AcDbLine
10
1055.600000000000
20
1237.470000000000
30
0.0
11
1051.460000000000
21
1258.240000000000
31
0.0
0
LINE
5
958
100
AcDbEntity
8
0-1_2_0
6
CENTER2
62
4
100
AcDbLine
10
656.220000000000
20
639.900000000000
30
0.0
11
656.220000000000
21
862.780000000000
31
0.0
0
LINE
5
959
100
AcDbEntity
8
0-6_2_5
6
DOT
62
7
100
AcDbLine
10
1760.060000000000
20
1219.270000000000
30
0.0
11
1759.940000000000
21
1219.860000000000
31
0.0
0
LINE
5
95a
100
AcDbEntity
8
0-6_2_5
6
DOT
62
7
100
AcDbLine
10
1778.300000000000
20
1222.920000000000
30
0.0
11
1760.060000000000
21
1219.270000000000
31
0.0
0
LINE
5
95b
100
AcDbEntity
8
0-6_2_5
6
CONTINUOUS
62
7
100
AcDbLine
10
1778.580000000000
20
1223.540000000000
30
0.0
11
1586.160000000000
21
1185.060000000000
31
0.0
0
LINE
5
95c
100
AcDbEntity
8
0-6_2_5
6
DOT
62
7
100
AcDbLine
10
1783.740000000000
20
1202.850000000000
30
0.0
11
1783.410000000000
21
1204.490000000000
31
0.0
0
LINE
5
95d
100
AcDbEntity
8
0-6_2_5
6
CONTINUOUS
62
7
100
AcDbLine
10
1783.130000000000
20
1205.890000000000
30
0.0
11
1779.950000000000
21
1221.820000000000
31
0.0
0
LINE
5
95e
100
AcDbEntity
8
0-6_2_5
6
CONTINUOUS
62
7
100
AcDbLine
10
1780.540000000000
20
1221.940000000000
30
0.0
11
1783.720000000000
21
1206.010000000000
31
0.0
0
LINE
5
95f
100
AcDbEntity
8
0-6_2_5
6
DOT
62
7
100
AcDbLine
10
1783.800000000000
20
1205.630000000000
30
0.0
11
1784.330000000000
21
1202.970000000000
31
0.0
0
LINE
5
960
100
AcDbEntity
8
0-6_2_5
6
CONTINUOUS
62
7
100
AcDbLine
10
1781.190000000000
20
1210.500000000000
30
0.0
11
1778.580000000000
21
1223.540000000000
31
0.0
0
LINE
5
961
100
AcDbEntity
8
0-6_2_5
6
DOT
62
7
100
AcDbLine
10
1779.350000000000
20
1222.710000000000
30
0.0
11
1762.930000000000
21
1198.080000000000
31
0.0
0
LINE
5
962
100
AcDbEntity
8
0-6_2_5
6
DOT
62
7
100
AcDbLine
10
1551.360000000000
20
1178.100000000000
30
0.0
11
1555.260000000000
21
1158.620000000000
31
0.0
0
LINE
5
963
100
AcDbEntity
8
0-6_2_5
6
CONTINUOUS
62
7
100
AcDbLine
10
1781.190000000000
20
1210.500000000000
30
0.0
11
1553.970000000000
21
1165.060000000000
31
0.0
0
LINE
5
964
100
AcDbEntity
8
0-6_2_5
6
CONTINUOUS
62
7
100
AcDbLine
10
1782.040000000000
20
1204.250000000000
30
0.0
11
1555.210000000000
21
1158.880000000000
31
0.0
0
LINE
5
965
100
AcDbEntity
8
0-6_2_5
6
CONTINUOUS
62
7
100
AcDbLine
10
1782.150000000000
20
1203.660000000000
30
0.0
11
1555.330000000000
21
1158.290000000000
31
0.0
0
LINE
5
966
100
AcDbEntity
8
0-6_2_5
6
DOT
62
7
100
AcDbLine
10
1783.270000000000
20
1202.150000000000
30
0.0
11
1555.660000000000
21
1156.630000000000
31
0.0
0
LINE
5
967
100
AcDbEntity
8
0-6_2_5
6
DOT
62
7
100
AcDbLine
10
1783.370000000000
20
1201.660000000000
30
0.0
11
1555.760000000000
21
1156.140000000000
31
0.0
0
POLYLINE
5
968
100
AcDbEntity
8
0-6_2_5
6
CONTINUOUS
62
  7
100
AcDb2dPolyline
66
1
10
0.0
20
0.0
30
0.0
70
0
0
VERTEX
5
969
100
AcDbEntity
8
0-6_2_5
6
CONTINUOUS
62
  7
100
AcDbVertex
100
AcDb2dVertex
10
1646.890000000000
20
1180.850000000000
30
0.0
0
VERTEX
5
96a
100
AcDbEntity
8
0-6_2_5
6
CONTINUOUS
62
  7
100
AcDbVertex
100
AcDb2dVertex
10
1648.680000000000
20
1189.460000000000
30
0.0
0
VERTEX
5
96b
100
AcDbEntity
8
0-6_2_5
6
CONTINUOUS
62
  7
100
AcDbVertex
100
AcDb2dVertex
10
1649.260000000000
20
1189.340000000000
30
0.0
0
SEQEND
5
96c
100
AcDbEntity
8
0-6_2_5
0
LINE
5
96d
100
AcDbEntity
8
0-6_2_5
6
CONTINUOUS
62
7
100
AcDbLine
10
1647.480000000000
20
1180.730000000000
30
0.0
11
1649.260000000000
21
1189.340000000000
31
0.0
0
LINE
5
96e
100
AcDbEntity
8
0-6_2_5
6
CONTINUOUS
62
7
100
AcDbLine
10
1641.680000000000
20
1198.000000000000
30
0.0
11
1645.130000000000
21
1180.740000000000
31
0.0
0
LINE
5
96f
100
AcDbEntity
8
0-6_2_5
6
CONTINUOUS
62
7
100
AcDbLine
10
1642.270000000000
20
1198.120000000000
30
0.0
11
1645.720000000000
21
1180.850000000000
31
0.0
0
LINE
5
970
100
AcDbEntity
8
0-4_2_3
6
CONTINUOUS
62
4
100
AcDbLine
10
1180.430000000000
20
746.450000000000
30
0.0
11
1190.430000000000
21
746.450000000000
31
0.0
0
LINE
5
971
100
AcDbEntity
8
0-4_2_3
6
CONTINUOUS
62
4
100
AcDbLine
10
1182.430000000000
20
746.950000000000
30
0.0
11
1188.430000000000
21
746.950000000000
31
0.0
0
LINE
5
972
100
AcDbEntity
8
0-4_2_3
6
CONTINUOUS
62
4
100
AcDbLine
10
1190.430000000000
20
746.450000000000
30
0.0
11
1190.430000000000
21
746.050000000000
31
0.0
0
LINE
5
973
100
AcDbEntity
8
0-4_2_3
6
CONTINUOUS
62
4
100
AcDbLine
10
1188.430000000000
20
746.950000000000
30
0.0
11
1189.930000000000
21
746.450000000000
31
0.0
0
LINE
5
974
100
AcDbEntity
8
0-4_2_3
6
CONTINUOUS
62
4
100
AcDbLine
10
1187.830000000000
20
735.580000000000
30
0.0
11
1183.030000000000
21
736.380000000000
31
0.0
0
LINE
5
975
100
AcDbEntity
8
0-4_2_3
6
CONTINUOUS
62
4
100
AcDbLine
10
1187.830000000000
20
733.980000000000
30
0.0
11
1183.030000000000
21
734.780000000000
31
0.0
0
LINE
5
976
100
AcDbEntity
8
0-4_2_3
6
CONTINUOUS
62
4
100
AcDbLine
10
1187.830000000000
20
732.380000000000
30
0.0
11
1183.030000000000
21
733.180000000000
31
0.0
0
LINE
5
977
100
AcDbEntity
8
0-4_2_3
6
CONTINUOUS
62
4
100
AcDbLine
10
1187.830000000000
20
737.180000000000
30
0.0
11
1183.030000000000
21
737.980000000000
31
0.0
0
LINE
5
978
100
AcDbEntity
8
0-4_2_3
6
CONTINUOUS
62
4
100
AcDbLine
10
1180.430000000000
20
746.450000000000
30
0.0
11
1180.430000000000
21
746.050000000000
31
0.0
0
LINE
5
979
100
AcDbEntity
8
0-4_2_3
6
CONTINUOUS
62
4
100
AcDbLine
10
1182.430000000000
20
746.950000000000
30
0.0
11
1180.930000000000
21
746.450000000000
31
0.0
0
LINE
5
97a
100
AcDbEntity
8
0-4_2_3
6
CONTINUOUS
62
4
100
AcDbLine
10
1187.830000000000
20
729.180000000000
30
0.0
11
1183.030000000000
21
729.980000000000
31
0.0
0
LINE
5
97b
100
AcDbEntity
8
0-4_2_3
6
CONTINUOUS
62
4
100
AcDbLine
10
1187.830000000000
20
730.780000000000
30
0.0
11
1183.030000000000
21
731.580000000000
31
0.0
0
LINE
5
97c
100
AcDbEntity
8
0-4_2_3
6
CONTINUOUS
62
4
100
AcDbLine
10
1187.830000000000
20
727.580000000000
30
0.0
11
1183.030000000000
21
728.380000000000
31
0.0
0
LINE
5
97d
100
AcDbEntity
8
0-4_2_3
6
CONTINUOUS
62
4
100
AcDbLine
10
1187.830000000000
20
725.980000000000
30
0.0
11
1183.030000000000
21
726.780000000000
31
0.0
0
LINE
5
97e
100
AcDbEntity
8
0-4_2_3
6
CONTINUOUS
62
4
100
AcDbLine
10
1185.430000000000
20
711.050000000000
30
0.0
11
1183.430000000000
21
712.650000000000
31
0.0
0
LINE
5
97f
100
AcDbEntity
8
0-4_2_3
6
CONTINUOUS
62
4
100
AcDbLine
10
1187.430000000000
20
712.650000000000
30
0.0
11
1185.430000000000
21
711.050000000000
31
0.0
0
LINE
5
980
100
AcDbEntity
8
0-4_2_3
6
CONTINUOUS
62
4
100
AcDbLine
10
1180.430000000000
20
746.050000000000
30
0.0
11
1190.430000000000
21
746.050000000000
31
0.0
0
LINE
5
981
100
AcDbEntity
8
0-4_2_3
6
CONTINUOUS
62
4
100
AcDbLine
10
1187.830000000000
20
740.380000000000
30
0.0
11
1183.030000000000
21
741.180000000000
31
0.0
0
LINE
5
982
100
AcDbEntity
8
0-4_2_3
6
CONTINUOUS
62
4
100
AcDbLine
10
1187.830000000000
20
738.780000000000
30
0.0
11
1183.030000000000
21
739.580000000000
31
0.0
0
LINE
5
983
100
AcDbEntity
8
0-4_2_3
6
CONTINUOUS
62
4
100
AcDbLine
10
1187.830000000000
20
741.980000000000
30
0.0
11
1183.030000000000
21
742.780000000000
31
0.0
0
LINE
5
984
100
AcDbEntity
8
0-4_2_3
6
CONTINUOUS
62
4
100
AcDbLine
10
1183.430000000000
20
712.650000000000
30
0.0
11
1183.430000000000
21
746.050000000000
31
0.0
0
LINE
5
985
100
AcDbEntity
8
0-4_2_3
6
CONTINUOUS
62
4
100
AcDbLine
10
1187.430000000000
20
712.650000000000
30
0.0
11
1187.430000000000
21
746.050000000000
31
0.0
0
LINE
5
986
100
AcDbEntity
8
0-4_2_3
6
CONTINUOUS
62
4
100
AcDbLine
10
1187.830000000000
20
724.380000000000
30
0.0
11
1183.030000000000
21
725.180000000000
31
0.0
0
LINE
5
987
100
AcDbEntity
8
0-4_2_3
6
CONTINUOUS
62
4
100
AcDbLine
10
1187.830000000000
20
722.780000000000
30
0.0
11
1183.030000000000
21
723.580000000000
31
0.0
0
LINE
5
988
100
AcDbEntity
8
0-4_2_3
6
CONTINUOUS
62
4
100
AcDbLine
10
1187.830000000000
20
721.180000000000
30
0.0
11
1183.030000000000
21
721.980000000000
31
0.0
0
LINE
5
989
100
AcDbEntity
8
0-4_2_3
6
CONTINUOUS
62
4
100
AcDbLine
10
1187.830000000000
20
719.580000000000
30
0.0
11
1183.030000000000
21
720.380000000000
31
0.0
0
LINE
5
98a
100
AcDbEntity
8
0-4_2_3
6
CONTINUOUS
62
4
100
AcDbLine
10
1187.830000000000
20
717.980000000000
30
0.0
11
1183.030000000000
21
718.780000000000
31
0.0
0
LINE
5
98b
100
AcDbEntity
8
0-4_2_3
6
CONTINUOUS
62
7
100
AcDbLine
10
1197.030000000000
20
762.750000000000
30
0.0
11
1197.630000000000
21
762.750000000000
31
0.0
0
LINE
5
98c
100
AcDbEntity
8
0-4_2_3
6
CONTINUOUS
62
7
100
AcDbLine
10
1178.230000000000
20
747.450000000000
30
0.0
11
1176.230000000000
21
747.450000000000
31
0.0
0
LINE
5
98d
100
AcDbEntity
8
0-4_2_3
6
CONTINUOUS
62
7
100
AcDbLine
10
1178.230000000000
20
746.850000000000
30
0.0
11
1178.230000000000
21
747.450000000000
31
0.0
0
LINE
5
98e
100
AcDbEntity
8
0-4_2_3
6
CONTINUOUS
62
7
100
AcDbLine
10
1178.230000000000
20
746.850000000000
30
0.0
11
1176.230000000000
21
746.850000000000
31
0.0
0
LINE
5
98f
100
AcDbEntity
8
0-4_2_3
6
CONTINUOUS
62
7
100
AcDbLine
10
1163.260000000000
20
747.880000000000
30
0.0
11
1161.440000000000
21
746.050000000000
31
0.0
0
LINE
5
990
100
AcDbEntity
8
0-4_2_3
6
CONTINUOUS
62
7
100
AcDbLine
10
1161.860000000000
20
745.630000000000
30
0.0
11
1163.680000000000
21
747.450000000000
31
0.0
0
LINE
5
991
100
AcDbEntity
8
0-4_2_3
6
CONTINUOUS
62
7
100
AcDbLine
10
1225.960000000000
20
747.880000000000
30
0.0
11
1227.780000000000
21
746.050000000000
31
0.0
0
LINE
5
992
100
AcDbEntity
8
0-4_2_3
6
CONTINUOUS
62
7
100
AcDbLine
10
1227.360000000000
20
745.630000000000
30
0.0
11
1225.530000000000
21
747.450000000000
31
0.0
0
LINE
5
993
100
AcDbEntity
8
0-4_2_3
6
CONTINUOUS
62
7
100
AcDbLine
10
1201.230000000000
20
762.750000000000
30
0.0
11
1201.230000000000
21
755.750000000000
31
0.0
0
LINE
5
994
100
AcDbEntity
8
0-4_2_3
6
CONTINUOUS
62
7
100
AcDbLine
10
1200.630000000000
20
762.750000000000
30
0.0
11
1200.630000000000
21
755.750000000000
31
0.0
0
LINE
5
995
100
AcDbEntity
8
0-4_2_3
6
CONTINUOUS
62
7
100
AcDbLine
10
1200.030000000000
20
762.750000000000
30
0.0
11
1200.030000000000
21
755.750000000000
31
0.0
0
LINE
5
996
100
AcDbEntity
8
0-4_2_3
6
CONTINUOUS
62
7
100
AcDbLine
10
1199.430000000000
20
762.750000000000
30
0.0
11
1199.430000000000
21
755.750000000000
31
0.0
0
LINE
5
997
100
AcDbEntity
8
0-4_2_3
6
CONTINUOUS
62
7
100
AcDbLine
10
1198.830000000000
20
762.750000000000
30
0.0
11
1198.830000000000
21
755.750000000000
31
0.0
0
LINE
5
998
100
AcDbEntity
8
0-4_2_3
6
CONTINUOUS
62
7
100
AcDbLine
10
1198.230000000000
20
762.750000000000
30
0.0
11
1198.230000000000
21
755.750000000000
31
0.0
0
LINE
5
999
100
AcDbEntity
8
0-4_2_3
6
CONTINUOUS
62
7
100
AcDbLine
10
1197.630000000000
20
762.750000000000
30
0.0
11
1197.630000000000
21
755.750000000000
31
0.0
0
LINE
5
99a
100
AcDbEntity
8
0-4_2_3
6
CONTINUOUS
62
7
100
AcDbLine
10
1197.030000000000
20
762.750000000000
30
0.0
11
1197.030000000000
21
755.750000000000
31
0.0
0
LINE
5
99b
100
AcDbEntity
8
0-4_2_3
6
CENTER2
62
4
100
AcDbLine
10
1185.430000000000
20
747.860000000000
30
0.0
11
1185.430000000000
21
707.710000000000
31
0.0
0
LINE
5
99c
100
AcDbEntity
8
0-4_2_3
6
CONTINUOUS
62
7
100
AcDbLine
10
1192.830000000000
20
748.050000000000
30
0.0
11
1163.680000000000
21
748.050000000000
31
0.0
0
LINE
5
99d
100
AcDbEntity
8
0-4_2_3
6
CONTINUOUS
62
7
100
AcDbLine
10
1193.430000000000
20
748.650000000000
30
0.0
11
1193.430000000000
21
762.750000000000
31
0.0
0
LINE
5
99e
100
AcDbEntity
8
0-4_2_3
6
CONTINUOUS
62
7
100
AcDbLine
10
1196.430000000000
20
748.650000000000
30
0.0
11
1196.430000000000
21
762.750000000000
31
0.0
0
LINE
5
99f
100
AcDbEntity
8
0-4_2_3
6
CONTINUOUS
62
7
100
AcDbLine
10
1197.030000000000
20
748.050000000000
30
0.0
11
1225.530000000000
21
748.050000000000
31
0.0
0
LINE
5
9a0
100
AcDbEntity
8
0-4_2_3
6
CONTINUOUS
62
7
100
AcDbLine
10
1194.630000000000
20
746.650000000000
30
0.0
11
1194.630000000000
21
762.750000000000
31
0.0
0
LINE
5
9a1
100
AcDbEntity
8
0-4_2_3
6
CONTINUOUS
62
7
100
AcDbLine
10
1194.030000000000
20
746.050000000000
30
0.0
11
1176.230000000000
21
746.050000000000
31
0.0
0
LINE
5
9a2
100
AcDbEntity
8
0-4_2_3
6
CONTINUOUS
62
7
100
AcDbLine
10
1194.030000000000
20
762.750000000000
30
0.0
11
1194.030000000000
21
748.650000000000
31
0.0
0
LINE
5
9a3
100
AcDbEntity
8
0-4_2_3
6
CONTINUOUS
62
7
100
AcDbLine
10
1192.830000000000
20
747.450000000000
30
0.0
11
1163.680000000000
21
747.450000000000
31
0.0
0
LINE
5
9a4
100
AcDbEntity
8
0-4_2_3
6
CONTINUOUS
62
7
100
AcDbLine
10
1195.230000000000
20
762.750000000000
30
0.0
11
1195.230000000000
21
746.650000000000
31
0.0
0
LINE
5
9a5
100
AcDbEntity
8
0-4_2_3
6
CONTINUOUS
62
7
100
AcDbLine
10
1194.030000000000
20
745.450000000000
30
0.0
11
1176.230000000000
21
745.450000000000
31
0.0
0
LINE
5
9a6
100
AcDbEntity
8
0-4_2_3
6
CONTINUOUS
62
7
100
AcDbLine
10
1195.830000000000
20
762.750000000000
30
0.0
11
1195.830000000000
21
748.650000000000
31
0.0
0
LINE
5
9a7
100
AcDbEntity
8
0-4_2_3
6
CONTINUOUS
62
7
100
AcDbLine
10
1197.030000000000
20
747.450000000000
30
0.0
11
1225.530000000000
21
747.450000000000
31
0.0
0
LINE
5
9a8
100
AcDbEntity
8
0-4_2_3
6
CONTINUOUS
62
7
100
AcDbLine
10
1227.780000000000
20
745.450000000000
30
0.0
11
1279.710000000000
21
745.450000000000
31
0.0
0
LINE
5
9a9
100
AcDbEntity
8
0-4_2_3
6
CONTINUOUS
62
7
100
AcDbLine
10
1227.780000000000
20
746.050000000000
30
0.0
11
1279.710000000000
21
746.050000000000
31
0.0
0
LINE
5
9aa
100
AcDbEntity
8
0-8_2_7
6
CONTINUOUS
62
4
100
AcDbLine
10
1628.730000000000
20
699.110000000000
30
0.0
11
1638.730000000000
21
699.110000000000
31
0.0
0
LINE
5
9ab
100
AcDbEntity
8
0-8_2_7
6
CONTINUOUS
62
4
100
AcDbLine
10
1630.730000000000
20
699.610000000000
30
0.0
11
1636.730000000000
21
699.610000000000
31
0.0
0
LINE
5
9ac
100
AcDbEntity
8
0-8_2_7
6
CONTINUOUS
62
4
100
AcDbLine
10
1638.730000000000
20
699.110000000000
30
0.0
11
1638.730000000000
21
698.710000000000
31
0.0
0
LINE
5
9ad
100
AcDbEntity
8
0-8_2_7
6
CONTINUOUS
62
4
100
AcDbLine
10
1636.730000000000
20
699.610000000000
30
0.0
11
1638.230000000000
21
699.110000000000
31
0.0
0
LINE
5
9ae
100
AcDbEntity
8
0-8_2_7
6
CONTINUOUS
62
4
100
AcDbLine
10
1636.130000000000
20
688.240000000000
30
0.0
11
1631.330000000000
21
689.040000000000
31
0.0
0
LINE
5
9af
100
AcDbEntity
8
0-8_2_7
6
CONTINUOUS
62
4
100
AcDbLine
10
1636.130000000000
20
686.640000000000
30
0.0
11
1631.330000000000
21
687.440000000000
31
0.0
0
LINE
5
9b0
100
AcDbEntity
8
0-8_2_7
6
CONTINUOUS
62
4
100
AcDbLine
10
1636.130000000000
20
685.040000000000
30
0.0
11
1631.330000000000
21
685.840000000000
31
0.0
0
LINE
5
9b1
100
AcDbEntity
8
0-8_2_7
6
CONTINUOUS
62
4
100
AcDbLine
10
1636.130000000000
20
689.840000000000
30
0.0
11
1631.330000000000
21
690.640000000000
31
0.0
0
LINE
5
9b2
100
AcDbEntity
8
0-8_2_7
6
CONTINUOUS
62
4
100
AcDbLine
10
1628.730000000000
20
699.110000000000
30
0.0
11
1628.730000000000
21
698.710000000000
31
0.0
0
LINE
5
9b3
100
AcDbEntity
8
0-8_2_7
6
CONTINUOUS
62
4
100
AcDbLine
10
1630.730000000000
20
699.610000000000
30
0.0
11
1629.230000000000
21
699.110000000000
31
0.0
0
LINE
5
9b4
100
AcDbEntity
8
0-8_2_7
6
CONTINUOUS
62
4
100
AcDbLine
10
1636.130000000000
20
681.840000000000
30
0.0
11
1631.330000000000
21
682.640000000000
31
0.0
0
LINE
5
9b5
100
AcDbEntity
8
0-8_2_7
6
CONTINUOUS
62
4
100
AcDbLine
10
1636.130000000000
20
683.440000000000
30
0.0
11
1631.330000000000
21
684.240000000000
31
0.0
0
LINE
5
9b6
100
AcDbEntity
8
0-8_2_7
6
CONTINUOUS
62
4
100
AcDbLine
10
1636.130000000000
20
680.240000000000
30
0.0
11
1631.330000000000
21
681.040000000000
31
0.0
0
LINE
5
9b7
100
AcDbEntity
8
0-8_2_7
6
CONTINUOUS
62
4
100
AcDbLine
10
1636.130000000000
20
678.640000000000
30
0.0
11
1631.330000000000
21
679.440000000000
31
0.0
0
LINE
5
9b8
100
AcDbEntity
8
0-8_2_7
6
CONTINUOUS
62
4
100
AcDbLine
10
1633.730000000000
20
663.710000000000
30
0.0
11
1631.730000000000
21
665.310000000000
31
0.0
0
LINE
5
9b9
100
AcDbEntity
8
0-8_2_7
6
CONTINUOUS
62
4
100
AcDbLine
10
1635.730000000000
20
665.310000000000
30
0.0
11
1633.730000000000
21
663.710000000000
31
0.0
0
LINE
5
9ba
100
AcDbEntity
8
0-8_2_7
6
CONTINUOUS
62
4
100
AcDbLine
10
1628.730000000000
20
698.710000000000
30
0.0
11
1638.730000000000
21
698.710000000000
31
0.0
0
LINE
5
9bb
100
AcDbEntity
8
0-8_2_7
6
CONTINUOUS
62
4
100
AcDbLine
10
1636.130000000000
20
693.040000000000
30
0.0
11
1631.330000000000
21
693.840000000000
31
0.0
0
LINE
5
9bc
100
AcDbEntity
8
0-8_2_7
6
CONTINUOUS
62
4
100
AcDbLine
10
1636.130000000000
20
691.440000000000
30
0.0
11
1631.330000000000
21
692.240000000000
31
0.0
0
LINE
5
9bd
100
AcDbEntity
8
0-8_2_7
6
CONTINUOUS
62
4
100
AcDbLine
10
1636.130000000000
20
694.640000000000
30
0.0
11
1631.330000000000
21
695.440000000000
31
0.0
0
LINE
5
9be
100
AcDbEntity
8
0-8_2_7
6
CONTINUOUS
62
4
100
AcDbLine
10
1631.730000000000
20
665.310000000000
30
0.0
11
1631.730000000000
21
698.710000000000
31
0.0
0
LINE
5
9bf
100
AcDbEntity
8
0-8_2_7
6
CONTINUOUS
62
4
100
AcDbLine
10
1635.730000000000
20
665.310000000000
30
0.0
11
1635.730000000000
21
698.710000000000
31
0.0
0
LINE
5
9c0
100
AcDbEntity
8
0-8_2_7
6
CONTINUOUS
62
4
100
AcDbLine
10
1636.130000000000
20
677.040000000000
30
0.0
11
1631.330000000000
21
677.840000000000
31
0.0
0
LINE
5
9c1
100
AcDbEntity
8
0-8_2_7
6
CONTINUOUS
62
4
100
AcDbLine
10
1636.130000000000
20
675.440000000000
30
0.0
11
1631.330000000000
21
676.240000000000
31
0.0
0
LINE
5
9c2
100
AcDbEntity
8
0-8_2_7
6
CONTINUOUS
62
4
100
AcDbLine
10
1636.130000000000
20
673.840000000000
30
0.0
11
1631.330000000000
21
674.640000000000
31
0.0
0
LINE
5
9c3
100
AcDbEntity
8
0-8_2_7
6
CONTINUOUS
62
4
100
AcDbLine
10
1636.130000000000
20
672.240000000000
30
0.0
11
1631.330000000000
21
673.040000000000
31
0.0
0
LINE
5
9c4
100
AcDbEntity
8
0-8_2_7
6
CONTINUOUS
62
4
100
AcDbLine
10
1636.130000000000
20
670.640000000000
30
0.0
11
1631.330000000000
21
671.440000000000
31
0.0
0
LINE
5
9c5
100
AcDbEntity
8
0-8_2_7
6
CONTINUOUS
62
7
100
AcDbLine
10
1645.330000000000
20
715.410000000000
30
0.0
11
1645.930000000000
21
715.410000000000
31
0.0
0
LINE
5
9c6
100
AcDbEntity
8
0-8_2_7
6
CONTINUOUS
62
7
100
AcDbLine
10
1626.530000000000
20
700.110000000000
30
0.0
11
1624.530000000000
21
700.110000000000
31
0.0
0
LINE
5
9c7
100
AcDbEntity
8
0-8_2_7
6
CONTINUOUS
62
7
100
AcDbLine
10
1626.530000000000
20
699.510000000000
30
0.0
11
1626.530000000000
21
700.110000000000
31
0.0
0
LINE
5
9c8
100
AcDbEntity
8
0-8_2_7
6
CONTINUOUS
62
7
100
AcDbLine
10
1626.530000000000
20
699.510000000000
30
0.0
11
1624.530000000000
21
699.510000000000
31
0.0
0
LINE
5
9c9
100
AcDbEntity
8
0-8_2_7
6
CONTINUOUS
62
7
100
AcDbLine
10
1611.560000000000
20
700.540000000000
30
0.0
11
1609.740000000000
21
698.710000000000
31
0.0
0
LINE
5
9ca
100
AcDbEntity
8
0-8_2_7
6
CONTINUOUS
62
7
100
AcDbLine
10
1610.160000000000
20
698.290000000000
30
0.0
11
1611.980000000000
21
700.110000000000
31
0.0
0
LINE
5
9cb
100
AcDbEntity
8
0-8_2_7
6
CONTINUOUS
62
7
100
AcDbLine
10
1674.260000000000
20
700.540000000000
30
0.0
11
1676.080000000000
21
698.710000000000
31
0.0
0
LINE
5
9cc
100
AcDbEntity
8
0-8_2_7
6
CONTINUOUS
62
7
100
AcDbLine
10
1675.660000000000
20
698.290000000000
30
0.0
11
1673.830000000000
21
700.110000000000
31
0.0
0
LINE
5
9cd
100
AcDbEntity
8
0-8_2_7
6
CONTINUOUS
62
7
100
AcDbLine
10
1649.530000000000
20
715.410000000000
30
0.0
11
1649.530000000000
21
708.410000000000
31
0.0
0
LINE
5
9ce
100
AcDbEntity
8
0-8_2_7
6
CONTINUOUS
62
7
100
AcDbLine
10
1648.930000000000
20
715.410000000000
30
0.0
11
1648.930000000000
21
708.410000000000
31
0.0
0
LINE
5
9cf
100
AcDbEntity
8
0-8_2_7
6
CONTINUOUS
62
7
100
AcDbLine
10
1648.330000000000
20
715.410000000000
30
0.0
11
1648.330000000000
21
708.410000000000
31
0.0
0
LINE
5
9d0
100
AcDbEntity
8
0-8_2_7
6
CONTINUOUS
62
7
100
AcDbLine
10
1647.730000000000
20
715.410000000000
30
0.0
11
1647.730000000000
21
708.410000000000
31
0.0
0
LINE
5
9d1
100
AcDbEntity
8
0-8_2_7
6
CONTINUOUS
62
7
100
AcDbLine
10
1647.130000000000
20
715.410000000000
30
0.0
11
1647.130000000000
21
708.410000000000
31
0.0
0
LINE
5
9d2
100
AcDbEntity
8
0-8_2_7
6
CONTINUOUS
62
7
100
AcDbLine
10
1646.530000000000
20
715.410000000000
30
0.0
11
1646.530000000000
21
708.410000000000
31
0.0
0
LINE
5
9d3
100
AcDbEntity
8
0-8_2_7
6
CONTINUOUS
62
7
100
AcDbLine
10
1645.930000000000
20
715.410000000000
30
0.0
11
1645.930000000000
21
708.410000000000
31
0.0
0
LINE
5
9d4
100
AcDbEntity
8
0-8_2_7
6
CONTINUOUS
62
7
100
AcDbLine
10
1645.330000000000
20
715.410000000000
30
0.0
11
1645.330000000000
21
708.410000000000
31
0.0
0
LINE
5
9d5
100
AcDbEntity
8
0-8_2_7
6
CENTER2
62
4
100
AcDbLine
10
1633.730000000000
20
700.520000000000
30
0.0
11
1633.730000000000
21
660.370000000000
31
0.0
0
LINE
5
9d6
100
AcDbEntity
8
0-8_2_7
6
CONTINUOUS
62
7
100
AcDbLine
10
1641.130000000000
20
700.710000000000
30
0.0
11
1611.980000000000
21
700.710000000000
31
0.0
0
LINE
5
9d7
100
AcDbEntity
8
0-8_2_7
6
CONTINUOUS
62
7
100
AcDbLine
10
1641.730000000000
20
701.310000000000
30
0.0
11
1641.730000000000
21
715.410000000000
31
0.0
0
LINE
5
9d8
100
AcDbEntity
8
0-8_2_7
6
CONTINUOUS
62
7
100
AcDbLine
10
1644.730000000000
20
701.310000000000
30
0.0
11
1644.730000000000
21
715.410000000000
31
0.0
0
LINE
5
9d9
100
AcDbEntity
8
0-8_2_7
6
CONTINUOUS
62
7
100
AcDbLine
10
1645.330000000000
20
700.710000000000
30
0.0
11
1673.830000000000
21
700.710000000000
31
0.0
0
LINE
5
9da
100
AcDbEntity
8
0-8_2_7
6
CONTINUOUS
62
7
100
AcDbLine
10
1642.930000000000
20
699.310000000000
30
0.0
11
1642.930000000000
21
715.410000000000
31
0.0
0
LINE
5
9db
100
AcDbEntity
8
0-8_2_7
6
CONTINUOUS
62
7
100
AcDbLine
10
1642.330000000000
20
698.710000000000
30
0.0
11
1624.530000000000
21
698.710000000000
31
0.0
0
LINE
5
9dc
100
AcDbEntity
8
0-8_2_7
6
CONTINUOUS
62
7
100
AcDbLine
10
1642.330000000000
20
715.410000000000
30
0.0
11
1642.330000000000
21
701.310000000000
31
0.0
0
LINE
5
9dd
100
AcDbEntity
8
0-8_2_7
6
CONTINUOUS
62
7
100
AcDbLine
10
1641.130000000000
20
700.110000000000
30
0.0
11
1611.980000000000
21
700.110000000000
31
0.0
0
LINE
5
9de
100
AcDbEntity
8
0-8_2_7
6
CONTINUOUS
62
7
100
AcDbLine
10
1643.530000000000
20
715.410000000000
30
0.0
11
1643.530000000000
21
699.310000000000
31
0.0
0
LINE
5
9df
100
AcDbEntity
8
0-8_2_7
6
CONTINUOUS
62
7
100
AcDbLine
10
1642.330000000000
20
698.110000000000
30
0.0
11
1624.530000000000
21
698.110000000000
31
0.0
0
LINE
5
9e0
100
AcDbEntity
8
0-8_2_7
6
CONTINUOUS
62
7
100
AcDbLine
10
1644.130000000000
20
715.410000000000
30
0.0
11
1644.130000000000
21
701.310000000000
31
0.0
0
LINE
5
9e1
100
AcDbEntity
8
0-8_2_7
6
CONTINUOUS
62
7
100
AcDbLine
10
1645.330000000000
20
700.110000000000
30
0.0
11
1673.830000000000
21
700.110000000000
31
0.0
0
LINE
5
9e2
100
AcDbEntity
8
0-8_2_7
6
CONTINUOUS
62
7
100
AcDbLine
10
1609.740000000000
20
698.710000000000
30
0.0
11
1530.730000000000
21
698.710000000000
31
0.0
0
LINE
5
9e3
100
AcDbEntity
8
0-8_2_7
6
CONTINUOUS
62
7
100
AcDbLine
10
1609.740000000000
20
698.110000000000
30
0.0
11
1530.730000000000
21
698.110000000000
31
0.0
0
LINE
5
9e4
100
AcDbEntity
8
0-8_2_7
6
CONTINUOUS
62
7
100
AcDbLine
10
1740.750000000000
20
698.710000000000
30
0.0
11
1676.080000000000
21
698.710000000000
31
0.0
0
LINE
5
9e5
100
AcDbEntity
8
0-8_2_7
6
CONTINUOUS
62
7
100
AcDbLine
10
1676.080000000000
20
698.110000000000
30
0.0
11
1740.750000000000
21
698.110000000000
31
0.0
0
LINE
5
9e6
100
AcDbEntity
8
0-8_2_7
6
CONTINUOUS
62
7
100
AcDbLine
10
1743.350000000000
20
700.710000000000
30
0.0
11
1743.350000000000
21
721.410000000000
31
0.0
0
LINE
5
9e7
100
AcDbEntity
8
0-8_2_7
6
CONTINUOUS
62
7
100
AcDbLine
10
1742.750000000000
20
700.710000000000
30
0.0
11
1742.750000000000
21
721.410000000000
31
0.0
0
LINE
5
9e8
100
AcDbEntity
8
1-1_2_16
6
CONTINUOUS
62
4
100
AcDbLine
10
678.750000000000
20
1097.470000000000
30
0.0
11
678.750000000000
21
1134.070000000000
31
0.0
0
LINE
5
9e9
100
AcDbEntity
8
0-1_2_0
6
CONTINUOUS
62
7
100
AcDbLine
10
784.380000000000
20
754.760000000000
30
0.0
11
791.240000000000
21
775.060000000000
31
0.0
0
LINE
5
9ea
100
AcDbEntity
8
0-2_2_1
6
CONTINUOUS
62
7
100
AcDbLine
10
1076.740000000000
20
1219.520000000000
30
0.0
11
1061.010000000000
21
1192.290000000000
31
0.0
0
LINE
5
9eb
100
AcDbEntity
8
0-2_2_1
6
CONTINUOUS
62
7
100
AcDbLine
10
1147.530000000000
20
1125.330000000000
30
0.0
11
1129.710000000000
21
1094.480000000000
31
0.0
0
LINE
5
9ec
100
AcDbEntity
8
0-4_2_3
6
CONTINUOUS
62
7
100
AcDbLine
10
1132.430000000000
20
638.120000000000
30
0.0
11
1115.970000000000
21
609.620000000000
31
0.0
0
LINE
5
9ed
100
AcDbEntity
8
0-4_2_3
6
CONTINUOUS
62
7
100
AcDbLine
10
1081.430000000000
20
720.440000000000
30
0.0
11
1066.930000000000
21
695.340000000000
31
0.0
0
LINE
5
9ee
100
AcDbEntity
8
0-6_2_5
6
CONTINUOUS
62
7
100
AcDbLine
10
1716.580000000000
20
1214.330000000000
30
0.0
11
1672.650000000000
21
1264.310000000000
31
0.0
0
LINE
5
9ef
100
AcDbEntity
8
0-6_2_5
6
CONTINUOUS
62
7
100
AcDbLine
10
1587.700000000000
20
1172.470000000000
30
0.0
11
1567.830000000000
21
1195.070000000000
31
0.0
0
LINE
5
9f0
100
AcDbEntity
8
0-6_2_5
6
CONTINUOUS
62
3
100
AcDbLine
10
1786.980000000000
20
1278.210000000000
30
0.0
11
1786.980000000000
21
1164.380000000000
31
0.0
0
POLYLINE
5
9f1
100
AcDbEntity
8
0-2_2_1
6
CONTINUOUS
62
  4
100
AcDb2dPolyline
66
1
10
0.0
20
0.0
30
0.0
70
0
0
VERTEX
5
9f2
100
AcDbEntity
8
0-2_2_1
6
CONTINUOUS
62
  4
100
AcDbVertex
100
AcDb2dVertex
10
1180.520000000000
20
1221.740000000000
30
0.0
0
VERTEX
5
9f3
100
AcDbEntity
8
0-2_2_1
6
CONTINUOUS
62
  4
100
AcDbVertex
100
AcDb2dVertex
10
1181.140000000000
20
1222.680000000000
30
0.0
0
VERTEX
5
9f4
100
AcDbEntity
8
0-2_2_1
6
CONTINUOUS
62
  4
100
AcDbVertex
100
AcDb2dVertex
10
1180.400000000000
20
1223.640000000000
30
0.0
0
VERTEX
5
9f5
100
AcDbEntity
8
0-2_2_1
6
CONTINUOUS
62
  4
100
AcDbVertex
100
AcDb2dVertex
10
1181.460000000000
20
1224.560000000000
30
0.0
0
VERTEX
5
9f6
100
AcDbEntity
8
0-2_2_1
6
CONTINUOUS
62
  4
100
AcDbVertex
100
AcDb2dVertex
10
1183.100000000000
20
1223.070000000000
30
0.0
0
SEQEND
5
9f7
100
AcDbEntity
8
0-2_2_1
0
POLYLINE
5
9f8
100
AcDbEntity
8
0-6_2_5
6
CONTINUOUS
62
  4
100
AcDb2dPolyline
66
1
10
0.0
20
0.0
30
0.0
70
0
0
VERTEX
5
9f9
100
AcDbEntity
8
0-6_2_5
6
CONTINUOUS
62
  4
100
AcDbVertex
100
AcDb2dVertex
10
1655.720000000000
20
1136.660000000000
30
0.0
0
VERTEX
5
9fa
100
AcDbEntity
8
0-6_2_5
6
CONTINUOUS
62
  4
100
AcDbVertex
100
AcDb2dVertex
10
1656.350000000000
20
1137.600000000000
30
0.0
0
VERTEX
5
9fb
100
AcDbEntity
8
0-6_2_5
6
CONTINUOUS
62
  4
100
AcDbVertex
100
AcDb2dVertex
10
1655.600000000000
20
1138.570000000000
30
0.0
0
VERTEX
5
9fc
100
AcDbEntity
8
0-6_2_5
6
CONTINUOUS
62
  4
100
AcDbVertex
100
AcDb2dVertex
10
1656.660000000000
20
1139.490000000000
30
0.0
0
VERTEX
5
9fd
100
AcDbEntity
8
0-6_2_5
6
CONTINUOUS
62
  4
100
AcDbVertex
100
AcDb2dVertex
10
1658.310000000000
20
1137.990000000000
30
0.0
0
SEQEND
5
9fe
100
AcDbEntity
8
0-6_2_5
0
POLYLINE
5
9ff
100
AcDbEntity
8
0-6_2_5
6
CONTINUOUS
62
  4
100
AcDb2dPolyline
66
1
10
0.0
20
0.0
30
0.0
70
0
0
VERTEX
5
a00
100
AcDbEntity
8
0-6_2_5
6
CONTINUOUS
62
  4
100
AcDbVertex
100
AcDb2dVertex
10
1660.860000000000
20
1188.980000000000
30
0.0
0
VERTEX
5
a01
100
AcDbEntity
8
0-6_2_5
6
CONTINUOUS
62
  4
100
AcDbVertex
100
AcDb2dVertex
10
1661.250000000000
20
1189.570000000000
30
0.0
0
VERTEX
5
a02
100
AcDbEntity
8
0-6_2_5
6
CONTINUOUS
62
  4
100
AcDbVertex
100
AcDb2dVertex
10
1660.780000000000
20
1190.180000000000
30
0.0
0
VERTEX
5
a03
100
AcDbEntity
8
0-6_2_5
6
CONTINUOUS
62
  4
100
AcDbVertex
100
AcDb2dVertex
10
1661.450000000000
20
1190.750000000000
30
0.0
0
VERTEX
5
a04
100
AcDbEntity
8
0-6_2_5
6
CONTINUOUS
62
  4
100
AcDbVertex
100
AcDb2dVertex
10
1662.470000000000
20
1189.820000000000
30
0.0
0
SEQEND
5
a05
100
AcDbEntity
8
0-6_2_5
0
POLYLINE
5
a06
100
AcDbEntity
8
0-1_2_0
6
CONTINUOUS
62
  4
100
AcDb2dPolyline
66
1
10
0.0
20
0.0
30
0.0
70
0
0
VERTEX
5
a07
100
AcDbEntity
8
0-1_2_0
6
CONTINUOUS
62
  4
100
AcDbVertex
100
AcDb2dVertex
10
559.750000000000
20
696.950000000000
30
0.0
0
VERTEX
5
a08
100
AcDbEntity
8
0-1_2_0
6
CONTINUOUS
62
  4
100
AcDbVertex
100
AcDb2dVertex
10
560.370000000000
20
697.900000000000
30
0.0
0
VERTEX
5
a09
100
AcDbEntity
8
0-1_2_0
6
CONTINUOUS
62
  4
100
AcDbVertex
100
AcDb2dVertex
10
559.630000000000
20
698.860000000000
30
0.0
0
VERTEX
5
a0a
100
AcDbEntity
8
0-1_2_0
6
CONTINUOUS
62
  4
100
AcDbVertex
100
AcDb2dVertex
10
560.690000000000
20
699.780000000000
30
0.0
0
VERTEX
5
a0b
100
AcDbEntity
8
0-1_2_0
6
CONTINUOUS
62
  4
100
AcDbVertex
100
AcDb2dVertex
10
562.340000000000
20
698.290000000000
30
0.0
0
SEQEND
5
a0c
100
AcDbEntity
8
0-1_2_0
0
POLYLINE
5
a0d
100
AcDbEntity
8
0-1_2_0
6
CONTINUOUS
62
  4
100
AcDb2dPolyline
66
1
10
0.0
20
0.0
30
0.0
70
0
0
VERTEX
5
a0e
100
AcDbEntity
8
0-1_2_0
6
CONTINUOUS
62
  4
100
AcDbVertex
100
AcDb2dVertex
10
547.230000000000
20
745.750000000000
30
0.0
0
VERTEX
5
a0f
100
AcDbEntity
8
0-1_2_0
6
CONTINUOUS
62
  4
100
AcDbVertex
100
AcDb2dVertex
10
547.630000000000
20
746.340000000000
30
0.0
0
VERTEX
5
a10
100
AcDbEntity
8
0-1_2_0
6
CONTINUOUS
62
  4
100
AcDbVertex
100
AcDb2dVertex
10
547.160000000000
20
746.940000000000
30
0.0
0
VERTEX
5
a11
100
AcDbEntity
8
0-1_2_0
6
CONTINUOUS
62
  4
100
AcDbVertex
100
AcDb2dVertex
10
547.820000000000
20
747.520000000000
30
0.0
0
VERTEX
5
a12
100
AcDbEntity
8
0-1_2_0
6
CONTINUOUS
62
  4
100
AcDbVertex
100
AcDb2dVertex
10
548.850000000000
20
746.580000000000
30
0.0
0
SEQEND
5
a13
100
AcDbEntity
8
0-1_2_0
0
POLYLINE
5
a14
100
AcDbEntity
8
0-1_2_0
6
CONTINUOUS
62
  4
100
AcDb2dPolyline
66
1
10
0.0
20
0.0
30
0.0
70
0
0
VERTEX
5
a15
100
AcDbEntity
8
0-1_2_0
6
CONTINUOUS
62
  4
100
AcDbVertex
100
AcDb2dVertex
10
752.690000000000
20
696.950000000000
30
0.0
0
VERTEX
5
a16
100
AcDbEntity
8
0-1_2_0
6
CONTINUOUS
62
  4
100
AcDbVertex
100
AcDb2dVertex
10
752.060000000000
20
697.900000000000
30
0.0
0
VERTEX
5
a17
100
AcDbEntity
8
0-1_2_0
6
CONTINUOUS
62
  4
100
AcDbVertex
100
AcDb2dVertex
10
752.800000000000
20
698.860000000000
30
0.0
0
VERTEX
5
a18
100
AcDbEntity
8
0-1_2_0
6
CONTINUOUS
62
  4
100
AcDbVertex
100
AcDb2dVertex
10
751.740000000000
20
699.780000000000
30
0.0
0
VERTEX
5
a19
100
AcDbEntity
8
0-1_2_0
6
CONTINUOUS
62
  4
100
AcDbVertex
100
AcDb2dVertex
10
750.100000000000
20
698.290000000000
30
0.0
0
SEQEND
5
a1a
100
AcDbEntity
8
0-1_2_0
0
POLYLINE
5
a1b
100
AcDbEntity
8
0-1_2_0
6
CONTINUOUS
62
  4
100
AcDb2dPolyline
66
1
10
0.0
20
0.0
30
0.0
70
0
0
VERTEX
5
a1c
100
AcDbEntity
8
0-1_2_0
6
CONTINUOUS
62
  4
100
AcDbVertex
100
AcDb2dVertex
10
765.200000000000
20
745.750000000000
30
0.0
0
VERTEX
5
a1d
100
AcDbEntity
8
0-1_2_0
6
CONTINUOUS
62
  4
100
AcDbVertex
100
AcDb2dVertex
10
764.810000000000
20
746.340000000000
30
0.0
0
VERTEX
5
a1e
100
AcDbEntity
8
0-1_2_0
6
CONTINUOUS
62
  4
100
AcDbVertex
100
AcDb2dVertex
10
765.270000000000
20
746.940000000000
30
0.0
0
VERTEX
5
a1f
100
AcDbEntity
8
0-1_2_0
6
CONTINUOUS
62
  4
100
AcDbVertex
100
AcDb2dVertex
10
764.610000000000
20
747.520000000000
30
0.0
0
VERTEX
5
a20
100
AcDbEntity
8
0-1_2_0
6
CONTINUOUS
62
  4
100
AcDbVertex
100
AcDb2dVertex
10
763.580000000000
20
746.580000000000
30
0.0
0
SEQEND
5
a21
100
AcDbEntity
8
0-1_2_0
0
POLYLINE
5
a22
100
AcDbEntity
8
0-00
6
CONTINUOUS
62
  4
100
AcDb2dPolyline
66
1
10
0.0
20
0.0
30
0.0
70
0
0
VERTEX
5
a23
100
AcDbEntity
8
0-00
6
CONTINUOUS
62
  4
100
AcDbVertex
100
AcDb2dVertex
10
470.870000000000
20
1282.110000000000
30
0.0
0
VERTEX
5
a24
100
AcDbEntity
8
0-00
6
CONTINUOUS
62
  4
100
AcDbVertex
100
AcDb2dVertex
10
471.670000000000
20
1282.910000000000
30
0.0
0
VERTEX
5
a25
100
AcDbEntity
8
0-00
6
CONTINUOUS
62
  4
100
AcDbVertex
100
AcDb2dVertex
10
471.130000000000
20
1284.000000000000
30
0.0
0
VERTEX
5
a26
100
AcDbEntity
8
0-00
6
CONTINUOUS
62
  4
100
AcDbVertex
100
AcDb2dVertex
10
472.350000000000
20
1284.700000000000
30
0.0
0
VERTEX
5
a27
100
AcDbEntity
8
0-00
6
CONTINUOUS
62
  4
100
AcDbVertex
100
AcDb2dVertex
10
473.670000000000
20
1282.910000000000
30
0.0
0
SEQEND
5
a28
100
AcDbEntity
8
0-00
0
POLYLINE
5
a29
100
AcDbEntity
8
0-00
6
CONTINUOUS
62
  4
100
AcDb2dPolyline
66
1
10
0.0
20
0.0
30
0.0
70
0
0
VERTEX
5
a2a
100
AcDbEntity
8
0-00
6
CONTINUOUS
62
  4
100
AcDbVertex
100
AcDb2dVertex
10
799.670000000000
20
1282.110000000000
30
0.0
0
VERTEX
5
a2b
100
AcDbEntity
8
0-00
6
CONTINUOUS
62
  4
100
AcDbVertex
100
AcDb2dVertex
10
800.470000000000
20
1282.910000000000
30
0.0
0
VERTEX
5
a2c
100
AcDbEntity
8
0-00
6
CONTINUOUS
62
  4
100
AcDbVertex
100
AcDb2dVertex
10
799.930000000000
20
1284.000000000000
30
0.0
0
VERTEX
5
a2d
100
AcDbEntity
8
0-00
6
CONTINUOUS
62
  4
100
AcDbVertex
100
AcDb2dVertex
10
801.150000000000
20
1284.700000000000
30
0.0
0
VERTEX
5
a2e
100
AcDbEntity
8
0-00
6
CONTINUOUS
62
  4
100
AcDbVertex
100
AcDb2dVertex
10
802.470000000000
20
1282.910000000000
30
0.0
0
SEQEND
5
a2f
100
AcDbEntity
8
0-00
0
POLYLINE
5
a30
100
AcDbEntity
8
1-1_2_16
6
CONTINUOUS
62
  4
100
AcDb2dPolyline
66
1
10
0.0
20
0.0
30
0.0
70
0
0
VERTEX
5
a31
100
AcDbEntity
8
1-1_2_16
6
CONTINUOUS
62
  4
100
AcDbVertex
100
AcDb2dVertex
10
611.210000000000
20
1025.070000000000
30
0.0
0
VERTEX
5
a32
100
AcDbEntity
8
1-1_2_16
6
CONTINUOUS
62
  4
100
AcDbVertex
100
AcDb2dVertex
10
612.810000000000
20
1026.670000000000
30
0.0
0
VERTEX
5
a33
100
AcDbEntity
8
1-1_2_16
6
CONTINUOUS
62
  4
100
AcDbVertex
100
AcDb2dVertex
10
611.740000000000
20
1028.850000000000
30
0.0
0
VERTEX
5
a34
100
AcDbEntity
8
1-1_2_16
6
CONTINUOUS
62
  4
100
AcDbVertex
100
AcDb2dVertex
10
614.180000000000
20
1030.240000000000
30
0.0
0
VERTEX
5
a35
100
AcDbEntity
8
1-1_2_16
6
CONTINUOUS
62
  4
100
AcDbVertex
100
AcDb2dVertex
10
616.810000000000
20
1026.670000000000
30
0.0
0
SEQEND
5
a36
100
AcDbEntity
8
1-1_2_16
0
POLYLINE
5
a37
100
AcDbEntity
8
0-4_2_3
6
CONTINUOUS
62
  4
100
AcDb2dPolyline
66
1
10
0.0
20
0.0
30
0.0
70
0
0
VERTEX
5
a38
100
AcDbEntity
8
0-4_2_3
6
CONTINUOUS
62
  4
100
AcDbVertex
100
AcDb2dVertex
10
1184.630000000000
20
711.850000000000
30
0.0
0
VERTEX
5
a39
100
AcDbEntity
8
0-4_2_3
6
CONTINUOUS
62
  4
100
AcDbVertex
100
AcDb2dVertex
10
1185.430000000000
20
712.650000000000
30
0.0
0
VERTEX
5
a3a
100
AcDbEntity
8
0-4_2_3
6
CONTINUOUS
62
  4
100
AcDbVertex
100
AcDb2dVertex
10
1184.890000000000
20
713.750000000000
30
0.0
0
VERTEX
5
a3b
100
AcDbEntity
8
0-4_2_3
6
CONTINUOUS
62
  4
100
AcDbVertex
100
AcDb2dVertex
10
1186.110000000000
20
714.440000000000
30
0.0
0
VERTEX
5
a3c
100
AcDbEntity
8
0-4_2_3
6
CONTINUOUS
62
  4
100
AcDbVertex
100
AcDb2dVertex
10
1187.430000000000
20
712.650000000000
30
0.0
0
SEQEND
5
a3d
100
AcDbEntity
8
0-4_2_3
0
POLYLINE
5
a3e
100
AcDbEntity
8
0-8_2_7
6
CONTINUOUS
62
  4
100
AcDb2dPolyline
66
1
10
0.0
20
0.0
30
0.0
70
0
0
VERTEX
5
a3f
100
AcDbEntity
8
0-8_2_7
6
CONTINUOUS
62
  4
100
AcDbVertex
100
AcDb2dVertex
10
1632.930000000000
20
664.510000000000
30
0.0
0
VERTEX
5
a40
100
AcDbEntity
8
0-8_2_7
6
CONTINUOUS
62
  4
100
AcDbVertex
100
AcDb2dVertex
10
1633.730000000000
20
665.310000000000
30
0.0
0
VERTEX
5
a41
100
AcDbEntity
8
0-8_2_7
6
CONTINUOUS
62
  4
100
AcDbVertex
100
AcDb2dVertex
10
1633.200000000000
20
666.400000000000
30
0.0
0
VERTEX
5
a42
100
AcDbEntity
8
0-8_2_7
6
CONTINUOUS
62
  4
100
AcDbVertex
100
AcDb2dVertex
10
1634.410000000000
20
667.100000000000
30
0.0
0
VERTEX
5
a43
100
AcDbEntity
8
0-8_2_7
6
CONTINUOUS
62
  4
100
AcDbVertex
100
AcDb2dVertex
10
1635.730000000000
20
665.310000000000
30
0.0
0
SEQEND
5
a44
100
AcDbEntity
8
0-8_2_7
0
LINE
5
a45
100
AcDbEntity
8
1-1_2_16
6
CENTER2
62
4
100
AcDbLine
10
631.810000000000
20
1146.710000000000
30
0.0
11
631.810000000000
21
1081.980000000000
31
0.0
0
LINE
5
a46
100
AcDbEntity
8
1-1_2_16
6
CONTINUOUS
62
3
100
AcDbLine
10
731.580000000000
20
1010.270000000000
30
0.0
11
535.010000000000
21
1010.270000000000
31
0.0
0
ARC
5
a47
100
AcDbEntity
8
0-4_2_3
6
CONTINUOUS
62
3
100
AcDbCircle
10
1154.730000000000
20
716.650000000000
30
0.0
40
2.299999850994
100
AcDbArc
50
90.000000000000
51
180.000000000000
0
ARC
5
a48
100
AcDbEntity
8
0-4_2_3
6
CONTINUOUS
62
3
100
AcDbCircle
10
1200.130000000000
20
716.650000000000
30
0.0
40
2.299999850994
100
AcDbArc
50
360.000000000000
51
450.000000000000
0
ARC
5
a49
100
AcDbEntity
8
0-4_2_3
6
CONTINUOUS
62
3
100
AcDbCircle
10
1200.130000000000
20
621.250000000000
30
0.0
40
2.299999850994
100
AcDbArc
50
270.000000000000
51
360.000000000000
0
ARC
5
a4a
100
AcDbEntity
8
0-4_2_3
6
CONTINUOUS
62
3
100
AcDbCircle
10
1154.730000000000
20
621.250000000000
30
0.0
40
2.299999850994
100
AcDbArc
50
180.000000000000
51
-90.000000000000
0
ARC
5
a4b
100
AcDbEntity
8
0-4_2_3
6
CONTINUOUS
62
7
100
AcDbCircle
10
1065.280000000000
20
743.910000000000
30
0.0
40
2.258745074081
100
AcDbArc
50
90.098495483398
51
270.098495483398
0
ARC
5
a4c
100
AcDbEntity
8
0-4_2_3
6
CONTINUOUS
62
7
100
AcDbCircle
10
1065.280000000000
20
743.910000000000
30
0.0
40
2.859979494784
100
AcDbArc
50
90.072433471680
51
270.072433471680
0
ARC
5
a4d
100
AcDbEntity
8
0-4_2_3
6
CONTINUOUS
62
7
100
AcDbCircle
10
1082.930000000000
20
703.440000000000
30
0.0
40
1.499999926616
100
AcDbArc
50
276.460876464844
51
-0.006805419922
0
ARC
5
a4e
100
AcDbEntity
8
0-4_2_3
6
CONTINUOUS
62
7
100
AcDbCircle
10
1082.930000000000
20
703.440000000000
30
0.0
40
0.899999983333
100
AcDbArc
50
179.992706298828
51
-0.007293701172
0
ARC
5
a4f
100
AcDbEntity
8
0-4_2_3
6
CONTINUOUS
62
7
100
AcDbCircle
10
1082.930000000000
20
703.440000000000
30
0.0
40
1.499999926616
100
AcDbArc
50
184.437149047852
51
276.460876464844
0
ARC
5
a50
100
AcDbEntity
8
0-4_2_3
6
CONTINUOUS
62
7
100
AcDbCircle
10
1083.230000000000
20
717.950000000000
30
0.0
40
0.600000011691
100
AcDbArc
50
89.999984741211
51
179.997756958008
0
ARC
5
a51
100
AcDbEntity
8
0-4_2_3
6
CONTINUOUS
62
7
100
AcDbCircle
10
1081.430000000000
20
742.190000000000
30
0.0
40
0.600000011691
100
AcDbArc
50
360.000000000000
51
450.000152587891
0
ARC
5
a52
100
AcDbEntity
8
0-4_2_3
6
CONTINUOUS
62
7
100
AcDbCircle
10
1065.290000000000
20
743.690000000000
30
0.0
40
1.499980225325
100
AcDbArc
50
89.999877929688
51
269.999877929688
0
ARC
5
a53
100
AcDbEntity
8
0-4_2_3
6
CONTINUOUS
62
7
100
AcDbCircle
10
1065.290000000000
20
743.690000000000
30
0.0
40
0.899988080469
100
AcDbArc
50
89.999755859375
51
269.999755859375
0
ARC
5
a54
100
AcDbEntity
8
0-4_2_3
6
CONTINUOUS
62
7
100
AcDbCircle
10
1146.540000000000
20
744.850000000000
30
0.0
40
0.896454366624
100
AcDbArc
50
269.814971923828
51
89.814971923828
0
ARC
5
a55
100
AcDbEntity
8
0-4_2_3
6
CONTINUOUS
62
7
100
AcDbCircle
10
1146.540000000000
20
744.850000000000
30
0.0
40
0.299996038224
100
AcDbArc
50
270.000000000000
51
90.000000000000
0
ARC
5
a56
100
AcDbEntity
8
0-4_2_3
6
CONTINUOUS
62
7
100
AcDbCircle
10
1122.950000000000
20
-778.300000000000
30
0.0
40
1525.977589187969
100
AcDbArc
50
89.660446166992
51
91.978622436523
0
ARC
5
a57
100
AcDbEntity
8
0-4_2_3
6
CONTINUOUS
62
7
100
AcDbCircle
10
1122.950000000000
20
-778.300000000000
30
0.0
40
1525.377549158031
100
AcDbArc
50
89.660308837891
51
91.978637695313
0
ARC
5
a58
100
AcDbEntity
8
0-4_2_3
6
CONTINUOUS
62
7
100
AcDbCircle
10
1130.230000000000
20
717.950000000000
30
0.0
40
0.600000011691
100
AcDbArc
50
360.000000000000
51
450.000000000000
0
ARC
5
a59
100
AcDbEntity
8
0-4_2_3
6
CONTINUOUS
62
7
100
AcDbCircle
10
1131.130000000000
20
668.950000000000
30
0.0
40
0.300000142660
100
AcDbArc
50
179.990539550781
51
359.990539550781
0
ARC
5
a5a
100
AcDbEntity
8
0-4_2_3
6
CONTINUOUS
62
7
100
AcDbCircle
10
1131.130000000000
20
668.950000000000
30
0.0
40
0.900006687244
100
AcDbArc
50
180.000000000000
51
0.000000000000
0
ARC
5
a5b
100
AcDbEntity
8
0-2_2_1
6
CONTINUOUS
62
3
100
AcDbCircle
10
1150.210000000000
20
1225.670000000000
30
0.0
40
2.299999850994
100
AcDbArc
50
101.309921264648
51
191.309921264648
0
ARC
5
a5c
100
AcDbEntity
8
0-2_2_1
6
CONTINUOUS
62
3
100
AcDbCircle
10
1194.720000000000
20
1234.570000000000
30
0.0
40
2.299999850994
100
AcDbArc
50
11.309921264648
51
101.309921264648
0
ARC
5
a5d
100
AcDbEntity
8
0-2_2_1
6
CONTINUOUS
62
3
100
AcDbCircle
10
1213.430000000000
20
1141.030000000000
30
0.0
40
2.299999850994
100
AcDbArc
50
281.309921264648
51
371.309921264648
0
ARC
5
a5e
100
AcDbEntity
8
0-2_2_1
6
CONTINUOUS
62
3
100
AcDbCircle
10
1168.920000000000
20
1132.120000000000
30
0.0
40
2.299999850994
100
AcDbArc
50
191.309921264648
51
-78.690078735352
0
ARC
5
a5f
100
AcDbEntity
8
0-2_2_1
6
CONTINUOUS
62
7
100
AcDbCircle
10
1057.150000000000
20
1234.860000000000
30
0.0
40
2.258745074081
100
AcDbArc
50
101.408416748047
51
281.408416748047
0
ARC
5
a60
100
AcDbEntity
8
0-2_2_1
6
CONTINUOUS
62
7
100
AcDbCircle
10
1057.150000000000
20
1234.860000000000
30
0.0
40
2.859979494784
100
AcDbArc
50
101.382354736328
51
281.382354736328
0
ARC
5
a61
100
AcDbEntity
8
0-2_2_1
6
CONTINUOUS
62
7
100
AcDbCircle
10
1082.390000000000
20
1198.630000000000
30
0.0
40
1.499999926616
100
AcDbArc
50
287.770797729492
51
11.303115844727
0
ARC
5
a62
100
AcDbEntity
8
0-2_2_1
6
CONTINUOUS
62
7
100
AcDbCircle
10
1082.390000000000
20
1198.630000000000
30
0.0
40
0.899999983333
100
AcDbArc
50
191.302627563477
51
11.302627563477
0
ARC
5
a63
100
AcDbEntity
8
0-2_2_1
6
CONTINUOUS
62
7
100
AcDbCircle
10
1082.390000000000
20
1198.630000000000
30
0.0
40
1.499999926616
100
AcDbArc
50
195.747070312500
51
287.770797729492
0
ARC
5
a64
100
AcDbEntity
8
0-2_2_1
6
CONTINUOUS
62
7
100
AcDbCircle
10
1079.840000000000
20
1212.920000000000
30
0.0
40
0.600000011691
100
AcDbArc
50
101.309906005859
51
191.307678222656
0
ARC
5
a65
100
AcDbEntity
8
0-2_2_1
6
CONTINUOUS
62
7
100
AcDbCircle
10
1073.320000000000
20
1236.330000000000
30
0.0
40
0.600000011691
100
AcDbArc
50
11.309921264648
51
101.310073852539
0
ARC
5
a66
100
AcDbEntity
8
0-2_2_1
6
CONTINUOUS
62
7
100
AcDbCircle
10
1057.190000000000
20
1234.630000000000
30
0.0
40
1.499980225325
100
AcDbArc
50
101.309799194336
51
281.309799194336
0
ARC
5
a67
100
AcDbEntity
8
0-2_2_1
6
CONTINUOUS
62
7
100
AcDbCircle
10
1057.190000000000
20
1234.630000000000
30
0.0
40
0.899988080469
100
AcDbArc
50
101.309677124023
51
281.309677124023
0
ARC
5
a68
100
AcDbEntity
8
0-2_2_1
6
CONTINUOUS
62
7
100
AcDbCircle
10
1136.640000000000
20
1251.710000000000
30
0.0
40
0.896454366624
100
AcDbArc
50
281.124893188477
51
101.124893188477
0
ARC
5
a69
100
AcDbEntity
8
0-2_2_1
6
CONTINUOUS
62
7
100
AcDbCircle
10
1136.640000000000
20
1251.710000000000
30
0.0
40
0.299996038224
100
AcDbArc
50
281.309921264648
51
101.309921264648
0
ARC
5
a6a
100
AcDbEntity
8
0-2_2_1
6
CONTINUOUS
62
7
100
AcDbCircle
10
1412.220000000000
20
-246.480000000000
30
0.0
40
1525.977589187969
100
AcDbArc
50
100.970367431641
51
103.288543701172
0
ARC
5
a6b
100
AcDbEntity
8
0-2_2_1
6
CONTINUOUS
62
7
100
AcDbCircle
10
1412.220000000000
20
-246.480000000000
30
0.0
40
1525.377549158031
100
AcDbArc
50
100.970230102539
51
103.288558959961
0
ARC
5
a6c
100
AcDbEntity
8
0-2_2_1
6
CONTINUOUS
62
7
100
AcDbCircle
10
1125.930000000000
20
1222.140000000000
30
0.0
40
0.600000011691
100
AcDbArc
50
11.309921264648
51
101.309921264648
0
ARC
5
a6d
100
AcDbEntity
8
0-2_2_1
6
CONTINUOUS
62
7
100
AcDbCircle
10
1136.420000000000
20
1174.270000000000
30
0.0
40
0.300000142660
100
AcDbArc
50
191.300460815430
51
371.300460815430
0
ARC
5
a6e
100
AcDbEntity
8
0-2_2_1
6
CONTINUOUS
62
7
100
AcDbCircle
10
1136.420000000000
20
1174.270000000000
30
0.0
40
0.900006687244
100
AcDbArc
50
191.309921264648
51
11.309921264648
0
ARC
5
a6f
100
AcDbEntity
8
0-6_2_5
6
CONTINUOUS
62
3
100
AcDbCircle
10
1632.320000000000
20
1141.980000000000
30
0.0
40
2.299999850994
100
AcDbArc
50
101.309921264648
51
191.309921264648
0
ARC
5
a70
100
AcDbEntity
8
0-6_2_5
6
CONTINUOUS
62
3
100
AcDbCircle
10
1676.840000000000
20
1150.880000000000
30
0.0
40
2.299999850994
100
AcDbArc
50
11.309921264648
51
101.309921264648
0
ARC
5
a71
100
AcDbEntity
8
0-6_2_5
6
CONTINUOUS
62
3
100
AcDbCircle
10
1695.550000000000
20
1057.330000000000
30
0.0
40
2.299999850994
100
AcDbArc
50
281.309921264648
51
371.309921264648
0
ARC
5
a72
100
AcDbEntity
8
0-6_2_5
6
CONTINUOUS
62
3
100
AcDbCircle
10
1651.030000000000
20
1048.430000000000
30
0.0
40
2.299999850994
100
AcDbArc
50
191.309921264648
51
-78.690078735352
0
ARC
5
a73
100
AcDbEntity
8
0-6_2_5
6
CONTINUOUS
62
7
100
AcDbCircle
10
1621.890000000000
20
1194.960000000000
30
0.0
40
0.899958938976
100
AcDbArc
50
101.310867309570
51
281.310867309570
0
ARC
5
a74
100
AcDbEntity
8
0-6_2_5
6
CONTINUOUS
62
7
100
AcDbCircle
10
1621.890000000000
20
1194.960000000000
30
0.0
40
0.299986290190
100
AcDbArc
50
101.310867309570
51
281.310867309570
0
ARC
5
a75
100
AcDbEntity
8
0-6_2_5
6
CONTINUOUS
62
7
100
AcDbCircle
10
1621.890000000000
20
1194.960000000000
30
0.0
40
2.099942955059
100
AcDbArc
50
101.309265136719
51
281.309265136719
0
ARC
5
a76
100
AcDbEntity
8
0-6_2_5
6
CONTINUOUS
62
7
100
AcDbCircle
10
1621.890000000000
20
1194.960000000000
30
0.0
40
1.499975163188
100
AcDbArc
50
101.309555053711
51
281.309555053711
0
ARC
5
a77
100
AcDbEntity
8
0-6_2_5
6
CONTINUOUS
62
7
100
AcDbCircle
10
1641.680000000000
20
1198.000000000000
30
0.0
40
0.600000011691
100
AcDbArc
50
11.314559936523
51
101.308990478516
0
ARC
5
a78
100
AcDbEntity
8
0-6_2_5
6
CONTINUOUS
62
7
100
AcDbCircle
10
1671.150000000000
20
1203.590000000000
30
0.0
40
0.899958938976
100
AcDbArc
50
281.310867309570
51
101.310867309570
0
ARC
5
a79
100
AcDbEntity
8
0-6_2_5
6
CONTINUOUS
62
7
100
AcDbCircle
10
1671.150000000000
20
1203.590000000000
30
0.0
40
0.299937721035
100
AcDbArc
50
281.312713623047
51
101.312713623047
0
ARC
5
a7a
100
AcDbEntity
8
0-6_2_5
6
CONTINUOUS
62
7
100
AcDbCircle
10
1651.560000000000
20
1199.970000000000
30
0.0
40
0.600000011691
100
AcDbArc
50
266.989196777344
51
281.310867309570
0
ARC
5
a7b
100
AcDbEntity
8
0-6_2_5
6
CONTINUOUS
62
7
100
AcDbCircle
10
1642.080000000000
20
1198.690000000000
30
0.0
40
0.600000011691
100
AcDbArc
50
86.989196777344
51
101.310867309570
0
ARC
5
a7c
100
AcDbEntity
8
0-6_2_5
6
CONTINUOUS
62
7
100
AcDbCircle
10
1651.680000000000
20
1199.390000000000
30
0.0
40
0.600000011691
100
AcDbArc
50
266.989196777344
51
281.310867309570
0
ARC
5
a7d
100
AcDbEntity
8
0-6_2_5
6
CONTINUOUS
62
7
100
AcDbCircle
10
1641.960000000000
20
1199.280000000000
30
0.0
40
0.600000011691
100
AcDbArc
50
86.989196777344
51
101.310867309570
0
ARC
5
a7e
100
AcDbEntity
8
0-6_2_5
6
CONTINUOUS
62
4
100
AcDbCircle
10
1659.600000000000
20
1197.820000000000
30
0.0
40
4.613375236781
100
AcDbArc
50
71.269683837891
51
-228.650115966797
0
ARC
5
a7f
100
AcDbEntity
8
0-6_2_5
6
DASHED
62
7
100
AcDbCircle
10
1780.980000000000
20
1205.670000000000
30
0.0
40
4.999999937807
100
AcDbArc
50
281.310379028320
51
0.000000000000
0
ARC
5
a80
100
AcDbEntity
8
0-6_2_5
6
CONTINUOUS
62
7
100
AcDbCircle
10
1782.380000000000
20
1228.020000000000
30
0.0
40
1.999999947760
100
AcDbArc
50
280.049911499023
51
0.000000000000
0
ARC
5
a81
100
AcDbEntity
8
0-6_2_5
6
CONTINUOUS
62
7
100
AcDbCircle
10
1782.380000000000
20
1228.020000000000
30
0.0
40
2.599999891043
100
AcDbArc
50
322.416275024414
51
0.000000000000
0
ARC
5
a82
100
AcDbEntity
8
0-6_2_5
6
CONTINUOUS
62
7
100
AcDbCircle
10
1782.380000000000
20
1228.020000000000
30
0.0
40
2.599999891043
100
AcDbArc
50
280.049911499023
51
322.416275024414
0
ARC
5
a83
100
AcDbEntity
8
0-6_2_5
6
CONTINUOUS
62
3
100
AcDbCircle
10
1884.680000000000
20
1323.610000000000
30
0.0
40
2.299999850994
100
AcDbArc
50
360.000000000000
51
450.000000000000
0
ARC
5
a84
100
AcDbEntity
8
0-6_2_5
6
CONTINUOUS
62
3
100
AcDbCircle
10
1884.680000000000
20
1278.210000000000
30
0.0
40
2.299999850994
100
AcDbArc
50
270.000000000000
51
360.000000000000
0
ARC
5
a85
100
AcDbEntity
8
0-6_2_5
6
CONTINUOUS
62
3
100
AcDbCircle
10
1789.280000000000
20
1278.210000000000
30
0.0
40
2.299999850994
100
AcDbArc
50
180.000000000000
51
270.000000000000
0
ARC
5
a86
100
AcDbEntity
8
0-6_2_5
6
CONTINUOUS
62
3
100
AcDbCircle
10
1789.280000000000
20
1323.610000000000
30
0.0
40
2.299999850994
100
AcDbArc
50
90.000000000000
51
-180.000000000000
0
ARC
5
a87
100
AcDbEntity
8
0-6_2_5
6
CONTINUOUS
62
7
100
AcDbCircle
10
1784.080000000000
20
1323.610000000000
30
0.0
40
0.300006333517
100
AcDbArc
50
360.000000000000
51
540.000000000000
0
ARC
5
a88
100
AcDbEntity
8
0-6_2_5
6
CONTINUOUS
62
7
100
AcDbCircle
10
1784.080000000000
20
1323.610000000000
30
0.0
40
0.900019068958
100
AcDbArc
50
360.000000000000
51
540.000000000000
0
ARC
5
a89
100
AcDbEntity
8
0-1_2_0
6
CONTINUOUS
62
3
100
AcDbCircle
10
536.350000000000
20
702.270000000000
30
0.0
40
2.299999850994
100
AcDbArc
50
101.309921264648
51
191.309921264648
0
ARC
5
a8a
100
AcDbEntity
8
0-1_2_0
6
CONTINUOUS
62
3
100
AcDbCircle
10
580.870000000000
20
711.170000000000
30
0.0
40
2.299999850994
100
AcDbArc
50
11.309921264648
51
101.309921264648
0
ARC
5
a8b
100
AcDbEntity
8
0-1_2_0
6
CONTINUOUS
62
3
100
AcDbCircle
10
599.580000000000
20
617.630000000000
30
0.0
40
2.299999850994
100
AcDbArc
50
281.309921264648
51
371.309921264648
0
ARC
5
a8c
100
AcDbEntity
8
0-1_2_0
6
CONTINUOUS
62
3
100
AcDbCircle
10
555.060000000000
20
608.720000000000
30
0.0
40
2.299999850994
100
AcDbArc
50
191.309921264648
51
-78.690078735352
0
ARC
5
a8d
100
AcDbEntity
8
0-1_2_0
6
CONTINUOUS
62
7
100
AcDbCircle
10
508.270000000000
20
751.720000000000
30
0.0
40
0.899958938976
100
AcDbArc
50
101.310867309570
51
281.310867309570
0
ARC
5
a8e
100
AcDbEntity
8
0-1_2_0
6
CONTINUOUS
62
7
100
AcDbCircle
10
508.270000000000
20
751.720000000000
30
0.0
40
0.299986290190
100
AcDbArc
50
101.310867309570
51
281.310867309570
0
ARC
5
a8f
100
AcDbEntity
8
0-1_2_0
6
CONTINUOUS
62
7
100
AcDbCircle
10
508.270000000000
20
751.720000000000
30
0.0
40
2.099942955059
100
AcDbArc
50
101.309265136719
51
281.309265136719
0
ARC
5
a90
100
AcDbEntity
8
0-1_2_0
6
CONTINUOUS
62
7
100
AcDbCircle
10
508.270000000000
20
751.720000000000
30
0.0
40
1.499975163188
100
AcDbArc
50
101.309555053711
51
281.309555053711
0
ARC
5
a91
100
AcDbEntity
8
0-1_2_0
6
CONTINUOUS
62
7
100
AcDbCircle
10
532.690000000000
20
737.740000000000
30
0.0
40
0.600000011691
100
AcDbArc
50
191.305282592773
51
348.307754516602
0
ARC
5
a92
100
AcDbEntity
8
0-1_2_0
6
CONTINUOUS
62
7
100
AcDbCircle
10
532.690000000000
20
737.740000000000
30
0.0
40
1.200000023382
100
AcDbArc
50
191.305282592773
51
348.307754516602
0
ARC
5
a93
100
AcDbEntity
8
0-1_2_0
6
CONTINUOUS
62
7
100
AcDbCircle
10
528.060000000000
20
754.760000000000
30
0.0
40
0.600000011691
100
AcDbArc
50
11.314559936523
51
101.308990478516
0
ARC
5
a94
100
AcDbEntity
8
0-1_2_0
6
CONTINUOUS
62
7
100
AcDbCircle
10
557.530000000000
20
760.350000000000
30
0.0
40
0.899958938976
100
AcDbArc
50
281.310867309570
51
101.310867309570
0
ARC
5
a95
100
AcDbEntity
8
0-1_2_0
6
CONTINUOUS
62
7
100
AcDbCircle
10
557.530000000000
20
760.350000000000
30
0.0
40
0.299937721035
100
AcDbArc
50
281.312713623047
51
101.312713623047
0
ARC
5
a96
100
AcDbEntity
8
0-1_2_0
6
CONTINUOUS
62
7
100
AcDbCircle
10
537.940000000000
20
756.740000000000
30
0.0
40
0.600000011691
100
AcDbArc
50
266.989196777344
51
281.310867309570
0
ARC
5
a97
100
AcDbEntity
8
0-1_2_0
6
CONTINUOUS
62
7
100
AcDbCircle
10
528.450000000000
20
755.450000000000
30
0.0
40
0.600000011691
100
AcDbArc
50
86.989196777344
51
101.310867309570
0
ARC
5
a98
100
AcDbEntity
8
0-1_2_0
6
CONTINUOUS
62
7
100
AcDbCircle
10
538.050000000000
20
756.150000000000
30
0.0
40
0.600000011691
100
AcDbArc
50
266.989196777344
51
281.310867309570
0
ARC
5
a99
100
AcDbEntity
8
0-1_2_0
6
CONTINUOUS
62
7
100
AcDbCircle
10
528.340000000000
20
756.040000000000
30
0.0
40
0.600000011691
100
AcDbArc
50
86.989196777344
51
101.310867309570
0
ARC
5
a9a
100
AcDbEntity
8
0-1_2_0
6
CONTINUOUS
62
4
100
AcDbCircle
10
545.980000000000
20
754.580000000000
30
0.0
40
4.613375236781
100
AcDbArc
50
71.269683837891
51
-228.650115966797
0
ARC
5
a9b
100
AcDbEntity
8
0-1_2_0
6
CONTINUOUS
62
7
100
AcDbCircle
10
651.000000000000
20
758.950000000000
30
0.0
40
1.999999947760
100
AcDbArc
50
281.309371948242
51
11.309371948242
0
ARC
5
a9c
100
AcDbEntity
8
0-1_2_0
6
CONTINUOUS
62
7
100
AcDbCircle
10
651.000000000000
20
758.950000000000
30
0.0
40
1.400000004476
100
AcDbArc
50
281.309371948242
51
11.309371948242
0
ARC
5
a9d
100
AcDbEntity
8
0-1_2_0
6
CONTINUOUS
62
7
100
AcDbCircle
10
647.810000000000
20
774.880000000000
30
0.0
40
1.400000004476
100
AcDbArc
50
11.309097290039
51
44.358596801758
0
ARC
5
a9e
100
AcDbEntity
8
0-1_2_0
6
CONTINUOUS
62
7
100
AcDbCircle
10
647.810000000000
20
774.880000000000
30
0.0
40
1.999999947760
100
AcDbArc
50
11.309097290039
51
89.771469116211
0
ARC
5
a9f
100
AcDbEntity
8
0-1_2_0
6
DOT
62
7
100
AcDbCircle
10
647.810000000000
20
774.880000000000
30
0.0
40
1.999999947760
100
AcDbArc
50
90.589843750000
51
101.309936523438
0
ARC
5
aa0
100
AcDbEntity
8
0-1_2_0
6
CONTINUOUS
62
7
100
AcDbCircle
10
647.810000000000
20
774.880000000000
30
0.0
40
1.400000004476
100
AcDbArc
50
44.358596801758
51
84.706253051758
0
ARC
5
aa1
100
AcDbEntity
8
0-1_2_0
6
DOT
62
7
100
AcDbCircle
10
647.810000000000
20
774.880000000000
30
0.0
40
1.400000004476
100
AcDbArc
50
86.238861083984
51
101.309936523438
0
ARC
5
aa2
100
AcDbEntity
8
0-1_2_0
6
CONTINUOUS
62
3
100
AcDbCircle
10
776.080000000000
20
702.270000000000
30
0.0
40
2.299999850994
100
AcDbArc
50
348.690063476563
51
438.690063476563
0
ARC
5
aa3
100
AcDbEntity
8
0-1_2_0
6
CONTINUOUS
62
3
100
AcDbCircle
10
731.560000000000
20
711.170000000000
30
0.0
40
2.299999850994
100
AcDbArc
50
78.690063476563
51
168.690063476563
0
ARC
5
aa4
100
AcDbEntity
8
0-1_2_0
6
CONTINUOUS
62
3
100
AcDbCircle
10
712.850000000000
20
617.630000000000
30
0.0
40
2.299999850994
100
AcDbArc
50
168.690063476563
51
-101.309936523438
0
ARC
5
aa5
100
AcDbEntity
8
0-1_2_0
6
CONTINUOUS
62
3
100
AcDbCircle
10
757.370000000000
20
608.720000000000
30
0.0
40
2.299999850994
100
AcDbArc
50
258.690063476563
51
348.690063476563
0
ARC
5
aa6
100
AcDbEntity
8
0-1_2_0
6
CONTINUOUS
62
7
100
AcDbCircle
10
804.160000000000
20
751.720000000000
30
0.0
40
0.899958938976
100
AcDbArc
50
258.689132690430
51
438.689132690430
0
ARC
5
aa7
100
AcDbEntity
8
0-1_2_0
6
CONTINUOUS
62
7
100
AcDbCircle
10
804.160000000000
20
751.720000000000
30
0.0
40
0.299986290190
100
AcDbArc
50
258.689132690430
51
438.689132690430
0
ARC
5
aa8
100
AcDbEntity
8
0-1_2_0
6
CONTINUOUS
62
7
100
AcDbCircle
10
804.160000000000
20
751.720000000000
30
0.0
40
2.099942955059
100
AcDbArc
50
258.690734863281
51
438.690734863281
0
ARC
5
aa9
100
AcDbEntity
8
0-1_2_0
6
CONTINUOUS
62
7
100
AcDbCircle
10
804.160000000000
20
751.720000000000
30
0.0
40
1.499975163188
100
AcDbArc
50
258.690444946289
51
438.690444946289
0
ARC
5
aaa
100
AcDbEntity
8
0-1_2_0
6
CONTINUOUS
62
7
100
AcDbCircle
10
784.380000000000
20
754.760000000000
30
0.0
40
0.600000011691
100
AcDbArc
50
78.690994262695
51
168.685424804688
0
ARC
5
aab
100
AcDbEntity
8
0-1_2_0
6
CONTINUOUS
62
7
100
AcDbCircle
10
754.900000000000
20
760.350000000000
30
0.0
40
0.899958938976
100
AcDbArc
50
78.689132690430
51
-101.310867309570
0
ARC
5
aac
100
AcDbEntity
8
0-1_2_0
6
CONTINUOUS
62
7
100
AcDbCircle
10
754.900000000000
20
760.350000000000
30
0.0
40
0.299937721035
100
AcDbArc
50
78.687286376953
51
-101.312713623047
0
ARC
5
aad
100
AcDbEntity
8
0-1_2_0
6
CONTINUOUS
62
7
100
AcDbCircle
10
774.500000000000
20
756.740000000000
30
0.0
40
0.600000011691
100
AcDbArc
50
258.689132690430
51
273.010803222656
0
ARC
5
aae
100
AcDbEntity
8
0-1_2_0
6
CONTINUOUS
62
7
100
AcDbCircle
10
783.980000000000
20
755.450000000000
30
0.0
40
0.600000011691
100
AcDbArc
50
78.689132690430
51
93.010803222656
0
ARC
5
aaf
100
AcDbEntity
8
0-1_2_0
6
CONTINUOUS
62
7
100
AcDbCircle
10
774.380000000000
20
756.150000000000
30
0.0
40
0.600000011691
100
AcDbArc
50
258.689132690430
51
273.010803222656
0
ARC
5
ab0
100
AcDbEntity
8
0-1_2_0
6
CONTINUOUS
62
7
100
AcDbCircle
10
784.100000000000
20
756.040000000000
30
0.0
40
0.600000011691
100
AcDbArc
50
78.689132690430
51
93.010803222656
0
ARC
5
ab1
100
AcDbEntity
8
0-1_2_0
6
CONTINUOUS
62
4
100
AcDbCircle
10
766.450000000000
20
754.580000000000
30
0.0
40
4.613375236781
100
AcDbArc
50
48.650451660156
51
-251.269348144531
0
ARC
5
ab2
100
AcDbEntity
8
0-1_2_0
6
CONTINUOUS
62
7
100
AcDbCircle
10
656.220000000000
20
778.290000000000
30
0.0
40
1.999999947760
100
AcDbArc
50
79.777420043945
51
100.222579956055
0
ARC
5
ab3
100
AcDbEntity
8
0-1_2_0
6
CONTINUOUS
62
7
100
AcDbCircle
10
656.220000000000
20
778.900000000000
30
0.0
40
1.999999947760
100
AcDbArc
50
79.777420043945
51
100.222579956055
0
ARC
5
ab4
100
AcDbEntity
8
0-1_2_0
6
DASHED
62
7
100
AcDbCircle
10
656.220000000000
20
750.000000000000
30
0.0
40
4.999999937807
100
AcDbArc
50
78.690734863281
51
101.309265136719
0
ARC
5
ab5
100
AcDbEntity
8
0-8_2_7
6
CONTINUOUS
62
3
100
AcDbCircle
10
1905.050000000000
20
824.310000000000
30
0.0
40
2.299999850994
100
AcDbArc
50
360.000000000000
51
450.000000000000
0
ARC
5
ab6
100
AcDbEntity
8
0-8_2_7
6
CONTINUOUS
62
3
100
AcDbCircle
10
1905.050000000000
20
778.910000000000
30
0.0
40
2.299999850994
100
AcDbArc
50
270.000000000000
51
360.000000000000
0
ARC
5
ab7
100
AcDbEntity
8
0-8_2_7
6
CONTINUOUS
62
3
100
AcDbCircle
10
1809.650000000000
20
778.910000000000
30
0.0
40
2.299999850994
100
AcDbArc
50
180.000000000000
51
270.000000000000
0
ARC
5
ab8
100
AcDbEntity
8
0-8_2_7
6
CONTINUOUS
62
3
100
AcDbCircle
10
1809.650000000000
20
824.310000000000
30
0.0
40
2.299999850994
100
AcDbArc
50
90.000000000000
51
-180.000000000000
0
ARC
5
ab9
100
AcDbEntity
8
0-8_2_7
6
CONTINUOUS
62
7
100
AcDbCircle
10
1804.450000000000
20
824.310000000000
30
0.0
40
0.300006333517
100
AcDbArc
50
360.000000000000
51
540.000000000000
0
ARC
5
aba
100
AcDbEntity
8
0-8_2_7
6
CONTINUOUS
62
7
100
AcDbCircle
10
1804.450000000000
20
824.310000000000
30
0.0
40
0.900019068958
100
AcDbArc
50
360.000000000000
51
540.000000000000
0
ARC
5
abb
100
AcDbEntity
8
0-8_2_7
6
CONTINUOUS
62
7
100
AcDbCircle
10
1802.750000000000
20
727.210000000000
30
0.0
40
1.999999947760
100
AcDbArc
50
270.000000000000
51
0.000000000000
0
ARC
5
abc
100
AcDbEntity
8
0-8_2_7
6
CONTINUOUS
62
7
100
AcDbCircle
10
1802.750000000000
20
727.210000000000
30
0.0
40
2.599999891043
100
AcDbArc
50
270.000000000000
51
0.000000000000
0
ARC
5
abd
100
AcDbEntity
8
0-8_2_7
6
DASHED
62
7
100
AcDbCircle
10
1746.350000000000
20
721.610000000000
30
0.0
40
1.999999947760
100
AcDbArc
50
90.000000000000
51
180.000000000000
0
ARC
5
abe
100
AcDbEntity
8
0-8_2_7
6
DASHED
62
7
100
AcDbCircle
10
1742.350000000000
20
699.610000000000
30
0.0
40
1.999999947760
100
AcDbArc
50
270.000000000000
51
0.000000000000
0
ARC
5
abf
100
AcDbEntity
8
0-8_2_7
6
DASHED
62
7
100
AcDbCircle
10
1804.350000000000
20
699.610000000000
30
0.0
40
1.999999947760
100
AcDbArc
50
270.000000000000
51
0.000000000000
0
ARC
5
ac0
100
AcDbEntity
8
0-8_2_7
6
DASHED
62
7
100
AcDbCircle
10
1804.350000000000
20
725.610000000000
30
0.0
40
1.999999947760
100
AcDbArc
50
270.000000000000
51
0.000000000000
0
ARC
5
ac1
100
AcDbEntity
8
0-8_2_7
6
CONTINUOUS
62
7
100
AcDbCircle
10
1726.850000000000
20
723.710000000000
30
0.0
40
1.500031667585
100
AcDbArc
50
90.000000000000
51
270.000000000000
0
ARC
5
ac2
100
AcDbEntity
8
0-8_2_7
6
CONTINUOUS
62
7
100
AcDbCircle
10
1726.850000000000
20
723.710000000000
30
0.0
40
0.900019068958
100
AcDbArc
50
90.000000000000
51
270.000000000000
0
ARC
5
ac3
100
AcDbEntity
8
0-8_2_7
6
CONTINUOUS
62
7
100
AcDbCircle
10
1740.750000000000
20
721.410000000000
30
0.0
40
1.999999947760
100
AcDbArc
50
360.000000000000
51
450.000000000000
0
ARC
5
ac4
100
AcDbEntity
8
0-8_2_7
6
CONTINUOUS
62
7
100
AcDbCircle
10
1740.750000000000
20
721.410000000000
30
0.0
40
2.599999891043
100
AcDbArc
50
360.000000000000
51
450.000000000000
0
ARC
5
ac5
100
AcDbEntity
8
0-8_2_7
6
CONTINUOUS
62
7
100
AcDbCircle
10
1740.750000000000
20
700.710000000000
30
0.0
40
1.999999947760
100
AcDbArc
50
270.000000000000
51
0.000000000000
0
ARC
5
ac6
100
AcDbEntity
8
0-8_2_7
6
CONTINUOUS
62
7
100
AcDbCircle
10
1740.750000000000
20
700.710000000000
30
0.0
40
2.599999891043
100
AcDbArc
50
270.000000000000
51
0.000000000000
0
ARC
5
ac7
100
AcDbEntity
8
0-8_2_7
6
CONTINUOUS
62
3
100
AcDbCircle
10
1805.050000000000
20
669.310000000000
30
0.0
40
2.299999850994
100
AcDbArc
50
360.000000000000
51
450.000000000000
0
ARC
5
ac8
100
AcDbEntity
8
0-8_2_7
6
CONTINUOUS
62
3
100
AcDbCircle
10
1759.650000000000
20
669.310000000000
30
0.0
40
2.299999850994
100
AcDbArc
50
90.000000000000
51
180.000000000000
0
ARC
5
ac9
100
AcDbEntity
8
0-8_2_7
6
CONTINUOUS
62
3
100
AcDbCircle
10
1759.650000000000
20
573.910000000000
30
0.0
40
2.299999850994
100
AcDbArc
50
180.000000000000
51
-90.000000000000
0
ARC
5
aca
100
AcDbEntity
8
0-8_2_7
6
CONTINUOUS
62
3
100
AcDbCircle
10
1805.050000000000
20
573.910000000000
30
0.0
40
2.299999850994
100
AcDbArc
50
270.000000000000
51
360.000000000000
0
CIRCLE
5
acb
100
AcDbEntity
8
F-F
6
CONTINUOUS
62
3
100
AcDbCircle
10
416.840000000000
20
413.090000000000
30
0.0
40
11.313711509204
0
CIRCLE
5
acc
100
AcDbEntity
8
F-F
6
CONTINUOUS
62
3
100
AcDbCircle
10
416.840000000000
20
413.090000000000
30
0.0
40
12.913711357960
0
CIRCLE
5
acd
100
AcDbEntity
8
F-F
6
CONTINUOUS
62
4
100
AcDbCircle
10
416.840000000000
20
413.090000000000
30
0.0
40
11.473711165725
0
CIRCLE
5
ace
100
AcDbEntity
8
F-F
6
CONTINUOUS
62
4
100
AcDbCircle
10
416.840000000000
20
413.090000000000
30
0.0
40
11.793707195218
0
CIRCLE
5
acf
100
AcDbEntity
8
F-F
6
CONTINUOUS
62
4
100
AcDbCircle
10
416.840000000000
20
413.090000000000
30
0.0
40
12.113709791808
0
CIRCLE
5
ad0
100
AcDbEntity
8
F-F
6
CONTINUOUS
62
4
100
AcDbCircle
10
416.840000000000
20
413.090000000000
30
0.0
40
12.433706915817
0
CIRCLE
5
ad1
100
AcDbEntity
8
F-F
6
CONTINUOUS
62
4
100
AcDbCircle
10
416.840000000000
20
413.090000000000
30
0.0
40
12.753706228859
0
ARC
5
ad2
100
AcDbEntity
8
0-00
6
CONTINUOUS
62
7
100
AcDbCircle
10
483.570000000000
20
1333.010000000000
30
0.0
40
3.900028978058
100
AcDbArc
50
360.000000000000
51
540.000000000000
0
ARC
5
ad3
100
AcDbEntity
8
0-00
6
CONTINUOUS
62
7
100
AcDbCircle
10
483.570000000000
20
1333.010000000000
30
0.0
40
3.300024519895
100
AcDbArc
50
360.000000000000
51
540.000000000000
0
ARC
5
ad4
100
AcDbEntity
8
0-00
6
CONTINUOUS
62
7
100
AcDbCircle
10
483.570000000000
20
1333.010000000000
30
0.0
40
2.700020061732
100
AcDbArc
50
360.000000000000
51
540.000000000000
0
ARC
5
ad5
100
AcDbEntity
8
0-00
6
CONTINUOUS
62
7
100
AcDbCircle
10
483.570000000000
20
1333.010000000000
30
0.0
40
2.100015603570
100
AcDbArc
50
360.000000000000
51
540.000000000000
0
ARC
5
ad6
100
AcDbEntity
8
0-00
6
CONTINUOUS
62
7
100
AcDbCircle
10
483.570000000000
20
1333.010000000000
30
0.0
40
1.500011145407
100
AcDbArc
50
360.000000000000
51
540.000000000000
0
ARC
5
ad7
100
AcDbEntity
8
0-00
6
CONTINUOUS
62
7
100
AcDbCircle
10
483.570000000000
20
1333.010000000000
30
0.0
40
0.900006687244
100
AcDbArc
50
360.000000000000
51
540.000000000000
0
ARC
5
ad8
100
AcDbEntity
8
0-00
6
CONTINUOUS
62
7
100
AcDbCircle
10
485.370000000000
20
1326.010000000000
30
0.0
40
2.100015603570
100
AcDbArc
50
180.000000000000
51
0.000000000000
0
ARC
5
ad9
100
AcDbEntity
8
0-00
6
CONTINUOUS
62
7
100
AcDbCircle
10
485.370000000000
20
1326.010000000000
30
0.0
40
1.500011145407
100
AcDbArc
50
180.000000000000
51
0.000000000000
0
ARC
5
ada
100
AcDbEntity
8
0-00
6
CONTINUOUS
62
7
100
AcDbCircle
10
485.370000000000
20
1326.010000000000
30
0.0
40
0.900006687244
100
AcDbArc
50
180.000000000000
51
0.000000000000
0
ARC
5
adb
100
AcDbEntity
8
0-00
6
CONTINUOUS
62
7
100
AcDbCircle
10
485.370000000000
20
1326.010000000000
30
0.0
40
0.300002194878
100
AcDbArc
50
180.000000000000
51
0.000000000000
0
ARC
5
adc
100
AcDbEntity
8
0-00
6
CONTINUOUS
62
7
100
AcDbCircle
10
462.470000000000
20
1316.710000000000
30
0.0
40
0.400011215183
100
AcDbArc
50
90.000000000000
51
270.000000000000
0
ARC
5
add
100
AcDbEntity
8
0-00
6
CONTINUOUS
62
7
100
AcDbCircle
10
462.470000000000
20
1316.710000000000
30
0.0
40
1.000003189021
100
AcDbArc
50
90.000000000000
51
270.000000000000
0
ARC
5
ade
100
AcDbEntity
8
0-00
6
CONTINUOUS
62
7
100
AcDbCircle
10
449.920000000000
20
1317.710000000000
30
0.0
40
0.600000011691
100
AcDbArc
50
90.000000000000
51
135.000000000000
0
ARC
5
adf
100
AcDbEntity
8
0-00
6
CONTINUOUS
62
7
100
AcDbCircle
10
447.670000000000
20
1316.310000000000
30
0.0
40
0.600000011691
100
AcDbArc
50
270.000000000000
51
315.000000000000
0
ARC
5
ae0
100
AcDbEntity
8
0-00
6
CONTINUOUS
62
7
100
AcDbCircle
10
511.770000000000
20
1317.710000000000
30
0.0
40
0.600000011691
100
AcDbArc
50
45.000000000000
51
90.000000000000
0
ARC
5
ae1
100
AcDbEntity
8
0-00
6
CONTINUOUS
62
7
100
AcDbCircle
10
514.020000000000
20
1316.310000000000
30
0.0
40
0.600000011691
100
AcDbArc
50
225.000000000000
51
270.000000000000
0
ARC
5
ae2
100
AcDbEntity
8
0-00
6
CONTINUOUS
62
7
100
AcDbCircle
10
812.370000000000
20
1333.010000000000
30
0.0
40
3.900028978058
100
AcDbArc
50
360.000000000000
51
540.000000000000
0
ARC
5
ae3
100
AcDbEntity
8
0-00
6
CONTINUOUS
62
7
100
AcDbCircle
10
812.370000000000
20
1333.010000000000
30
0.0
40
3.300024519895
100
AcDbArc
50
360.000000000000
51
540.000000000000
0
ARC
5
ae4
100
AcDbEntity
8
0-00
6
CONTINUOUS
62
7
100
AcDbCircle
10
812.370000000000
20
1333.010000000000
30
0.0
40
2.700020061732
100
AcDbArc
50
360.000000000000
51
540.000000000000
0
ARC
5
ae5
100
AcDbEntity
8
0-00
6
CONTINUOUS
62
7
100
AcDbCircle
10
812.370000000000
20
1333.010000000000
30
0.0
40
2.100015603570
100
AcDbArc
50
360.000000000000
51
540.000000000000
0
ARC
5
ae6
100
AcDbEntity
8
0-00
6
CONTINUOUS
62
7
100
AcDbCircle
10
812.370000000000
20
1333.010000000000
30
0.0
40
1.500011145407
100
AcDbArc
50
360.000000000000
51
540.000000000000
0
ARC
5
ae7
100
AcDbEntity
8
0-00
6
CONTINUOUS
62
7
100
AcDbCircle
10
812.370000000000
20
1333.010000000000
30
0.0
40
0.900006687244
100
AcDbArc
50
360.000000000000
51
540.000000000000
0
ARC
5
ae8
100
AcDbEntity
8
0-00
6
CONTINUOUS
62
7
100
AcDbCircle
10
814.170000000000
20
1326.010000000000
30
0.0
40
2.100015603570
100
AcDbArc
50
180.000000000000
51
0.000000000000
0
ARC
5
ae9
100
AcDbEntity
8
0-00
6
CONTINUOUS
62
7
100
AcDbCircle
10
814.170000000000
20
1326.010000000000
30
0.0
40
1.500011145407
100
AcDbArc
50
180.000000000000
51
0.000000000000
0
ARC
5
aea
100
AcDbEntity
8
0-00
6
CONTINUOUS
62
7
100
AcDbCircle
10
814.170000000000
20
1326.010000000000
30
0.0
40
0.900006687244
100
AcDbArc
50
180.000000000000
51
0.000000000000
0
ARC
5
aeb
100
AcDbEntity
8
0-00
6
CONTINUOUS
62
7
100
AcDbCircle
10
814.170000000000
20
1326.010000000000
30
0.0
40
0.300002194878
100
AcDbArc
50
180.000000000000
51
0.000000000000
0
ARC
5
aec
100
AcDbEntity
8
0-00
6
CONTINUOUS
62
7
100
AcDbCircle
10
791.270000000000
20
1316.710000000000
30
0.0
40
0.400011215183
100
AcDbArc
50
90.000000000000
51
270.000000000000
0
ARC
5
aed
100
AcDbEntity
8
0-00
6
CONTINUOUS
62
7
100
AcDbCircle
10
791.270000000000
20
1316.710000000000
30
0.0
40
1.000003189021
100
AcDbArc
50
90.000000000000
51
270.000000000000
0
ARC
5
aee
100
AcDbEntity
8
0-00
6
CONTINUOUS
62
7
100
AcDbCircle
10
778.720000000000
20
1317.710000000000
30
0.0
40
0.600000011691
100
AcDbArc
50
90.000000000000
51
135.000000000000
0
ARC
5
aef
100
AcDbEntity
8
0-00
6
CONTINUOUS
62
7
100
AcDbCircle
10
776.470000000000
20
1316.310000000000
30
0.0
40
0.600000011691
100
AcDbArc
50
270.000000000000
51
315.000000000000
0
ARC
5
af0
100
AcDbEntity
8
0-00
6
CONTINUOUS
62
7
100
AcDbCircle
10
840.570000000000
20
1317.710000000000
30
0.0
40
0.600000011691
100
AcDbArc
50
45.000000000000
51
90.000000000000
0
ARC
5
af1
100
AcDbEntity
8
0-00
6
CONTINUOUS
62
7
100
AcDbCircle
10
842.820000000000
20
1316.310000000000
30
0.0
40
0.600000011691
100
AcDbArc
50
225.000000000000
51
270.000000000000
0
ARC
5
af2
100
AcDbEntity
8
1-1_2_16
6
CONTINUOUS
62
7
100
AcDbCircle
10
636.610000000000
20
1126.870000000000
30
0.0
40
7.800057956116
100
AcDbArc
50
360.000000000000
51
540.000000000000
0
ARC
5
af3
100
AcDbEntity
8
1-1_2_16
6
CONTINUOUS
62
7
100
AcDbCircle
10
636.610000000000
20
1126.870000000000
30
0.0
40
6.600049039790
100
AcDbArc
50
360.000000000000
51
540.000000000000
0
ARC
5
af4
100
AcDbEntity
8
1-1_2_16
6
CONTINUOUS
62
7
100
AcDbCircle
10
636.610000000000
20
1126.870000000000
30
0.0
40
5.400040123465
100
AcDbArc
50
360.000000000000
51
540.000000000000
0
ARC
5
af5
100
AcDbEntity
8
1-1_2_16
6
CONTINUOUS
62
7
100
AcDbCircle
10
636.610000000000
20
1126.870000000000
30
0.0
40
4.200031207139
100
AcDbArc
50
360.000000000000
51
540.000000000000
0
ARC
5
af6
100
AcDbEntity
8
1-1_2_16
6
CONTINUOUS
62
7
100
AcDbCircle
10
636.610000000000
20
1126.870000000000
30
0.0
40
3.000022290814
100
AcDbArc
50
360.000000000000
51
540.000000000000
0
ARC
5
af7
100
AcDbEntity
8
1-1_2_16
6
CONTINUOUS
62
7
100
AcDbCircle
10
636.610000000000
20
1126.870000000000
30
0.0
40
1.800013374488
100
AcDbArc
50
360.000000000000
51
540.000000000000
0
ARC
5
af8
100
AcDbEntity
8
1-1_2_16
6
CONTINUOUS
62
7
100
AcDbCircle
10
640.210000000000
20
1112.870000000000
30
0.0
40
4.200031207139
100
AcDbArc
50
180.000000000000
51
0.000000000000
0
ARC
5
af9
100
AcDbEntity
8
1-1_2_16
6
CONTINUOUS
62
7
100
AcDbCircle
10
640.210000000000
20
1112.870000000000
30
0.0
40
3.000022290814
100
AcDbArc
50
180.000000000000
51
0.000000000000
0
ARC
5
afa
100
AcDbEntity
8
1-1_2_16
6
CONTINUOUS
62
7
100
AcDbCircle
10
640.210000000000
20
1112.870000000000
30
0.0
40
1.800013374488
100
AcDbArc
50
180.000000000000
51
0.000000000000
0
ARC
5
afb
100
AcDbEntity
8
1-1_2_16
6
CONTINUOUS
62
7
100
AcDbCircle
10
640.210000000000
20
1112.870000000000
30
0.0
40
0.600004389755
100
AcDbArc
50
180.000000000000
51
0.000000000000
0
ARC
5
afc
100
AcDbEntity
8
1-1_2_16
6
CONTINUOUS
62
7
100
AcDbCircle
10
594.410000000000
20
1094.270000000000
30
0.0
40
0.800022430367
100
AcDbArc
50
90.000000000000
51
270.000000000000
0
ARC
5
afd
100
AcDbEntity
8
1-1_2_16
6
CONTINUOUS
62
7
100
AcDbCircle
10
594.410000000000
20
1094.270000000000
30
0.0
40
2.000006378042
100
AcDbArc
50
90.000000000000
51
270.000000000000
0
ARC
5
afe
100
AcDbEntity
8
1-1_2_16
6
CONTINUOUS
62
7
100
AcDbCircle
10
569.310000000000
20
1096.270000000000
30
0.0
40
1.200000023382
100
AcDbArc
50
90.000000000000
51
135.000000000000
0
ARC
5
aff
100
AcDbEntity
8
1-1_2_16
6
CONTINUOUS
62
7
100
AcDbCircle
10
564.820000000000
20
1093.470000000000
30
0.0
40
1.200000023382
100
AcDbArc
50
270.000000000000
51
315.000000000000
0
ARC
5
b00
100
AcDbEntity
8
1-1_2_16
6
CONTINUOUS
62
7
100
AcDbCircle
10
693.010000000000
20
1096.270000000000
30
0.0
40
1.200000023382
100
AcDbArc
50
45.000000000000
51
90.000000000000
0
ARC
5
b01
100
AcDbEntity
8
1-1_2_16
6
CONTINUOUS
62
7
100
AcDbCircle
10
697.510000000000
20
1093.470000000000
30
0.0
40
1.200000023382
100
AcDbArc
50
225.000000000000
51
270.000000000000
0
ARC
5
b02
100
AcDbEntity
8
1-1_2_16
6
CONTINUOUS
62
7
100
AcDbCircle
10
636.010000000000
20
1098.670000000000
30
0.0
40
1.200000023382
100
AcDbArc
50
180.000000000000
51
270.000000000000
0
ARC
5
b03
100
AcDbEntity
8
1-1_2_16
6
CONTINUOUS
62
7
100
AcDbCircle
10
627.610000000000
20
1098.670000000000
30
0.0
40
1.200000023382
100
AcDbArc
50
270.000000000000
51
0.000000000000
0
ARC
5
b04
100
AcDbEntity
8
1-1_2_16
6
CONTINUOUS
62
7
100
AcDbCircle
10
630.010000000000
20
1094.670000000000
30
0.0
40
1.200000023382
100
AcDbArc
50
270.000000000000
51
0.000000000000
0
ARC
5
b05
100
AcDbEntity
8
1-1_2_16
6
CONTINUOUS
62
7
100
AcDbCircle
10
627.610000000000
20
1098.670000000000
30
0.0
40
2.400000046763
100
AcDbArc
50
270.000000000000
51
0.000000000000
0
ARC
5
b06
100
AcDbEntity
8
1-1_2_16
6
CONTINUOUS
62
7
100
AcDbCircle
10
630.010000000000
20
1094.670000000000
30
0.0
40
2.400000046763
100
AcDbArc
50
270.000000000000
51
0.000000000000
0
ARC
5
b07
100
AcDbEntity
8
1-1_2_16
6
CONTINUOUS
62
7
100
AcDbCircle
10
636.010000000000
20
1098.670000000000
30
0.0
40
2.400000046763
100
AcDbArc
50
180.000000000000
51
270.000000000000
0
ARC
5
b08
100
AcDbEntity
8
0-00
6
CONTINUOUS
62
7
100
AcDbCircle
10
807.870000000000
20
1318.910000000000
30
0.0
40
0.600000011691
100
AcDbArc
50
270.000000000000
51
0.000000000000
0
ARC
5
b09
100
AcDbEntity
8
0-00
6
CONTINUOUS
62
7
100
AcDbCircle
10
812.070000000000
20
1318.910000000000
30
0.0
40
0.600000011691
100
AcDbArc
50
180.000000000000
51
270.000000000000
0
ARC
5
b0a
100
AcDbEntity
8
0-00
6
CONTINUOUS
62
7
100
AcDbCircle
10
809.070000000000
20
1316.910000000000
30
0.0
40
0.600000011691
100
AcDbArc
50
270.000000000000
51
0.000000000000
0
ARC
5
b0b
100
AcDbEntity
8
0-00
6
CONTINUOUS
62
7
100
AcDbCircle
10
812.070000000000
20
1318.910000000000
30
0.0
40
1.200000023382
100
AcDbArc
50
180.000000000000
51
270.000000000000
0
ARC
5
b0c
100
AcDbEntity
8
0-00
6
CONTINUOUS
62
7
100
AcDbCircle
10
807.870000000000
20
1318.910000000000
30
0.0
40
1.200000023382
100
AcDbArc
50
270.000000000000
51
0.000000000000
0
ARC
5
b0d
100
AcDbEntity
8
0-00
6
CONTINUOUS
62
7
100
AcDbCircle
10
809.070000000000
20
1316.910000000000
30
0.0
40
1.200000023382
100
AcDbArc
50
270.000000000000
51
0.000000000000
0
ARC
5
b0e
100
AcDbEntity
8
0-00
6
CONTINUOUS
62
7
100
AcDbCircle
10
483.270000000000
20
1318.910000000000
30
0.0
40
0.600000011691
100
AcDbArc
50
180.000000000000
51
270.000000000000
0
ARC
5
b0f
100
AcDbEntity
8
0-00
6
CONTINUOUS
62
7
100
AcDbCircle
10
479.070000000000
20
1318.910000000000
30
0.0
40
0.600000011691
100
AcDbArc
50
270.000000000000
51
0.000000000000
0
ARC
5
b10
100
AcDbEntity
8
0-00
6
CONTINUOUS
62
7
100
AcDbCircle
10
480.270000000000
20
1316.910000000000
30
0.0
40
0.600000011691
100
AcDbArc
50
270.000000000000
51
0.000000000000
0
ARC
5
b11
100
AcDbEntity
8
0-00
6
CONTINUOUS
62
7
100
AcDbCircle
10
479.070000000000
20
1318.910000000000
30
0.0
40
1.200000023382
100
AcDbArc
50
270.000000000000
51
0.000000000000
0
ARC
5
b12
100
AcDbEntity
8
0-00
6
CONTINUOUS
62
7
100
AcDbCircle
10
483.270000000000
20
1318.910000000000
30
0.0
40
1.200000023382
100
AcDbArc
50
180.000000000000
51
270.000000000000
0
ARC
5
b13
100
AcDbEntity
8
0-00
6
CONTINUOUS
62
7
100
AcDbCircle
10
480.270000000000
20
1316.910000000000
30
0.0
40
1.200000023382
100
AcDbArc
50
270.000000000000
51
0.000000000000
0
ARC
5
b14
100
AcDbEntity
8
0-1_2_0
6
DOT
62
7
100
AcDbCircle
10
652.390000000000
20
756.070000000000
30
0.0
40
0.600000011691
100
AcDbArc
50
281.309936523438
51
11.310394287109
0
ARC
5
b15
100
AcDbEntity
8
0-1_2_0
6
DOT
62
7
100
AcDbCircle
10
652.390000000000
20
756.070000000000
30
0.0
40
1.100000032834
100
AcDbArc
50
281.309936523438
51
11.310394287109
0
ARC
5
b16
100
AcDbEntity
8
0-1_2_0
6
CONTINUOUS
62
7
100
AcDbCircle
10
779.750000000000
20
737.740000000000
30
0.0
40
0.600000011691
100
AcDbArc
50
191.692245483398
51
348.694702148438
0
ARC
5
b17
100
AcDbEntity
8
0-1_2_0
6
CONTINUOUS
62
7
100
AcDbCircle
10
779.750000000000
20
737.740000000000
30
0.0
40
1.200000023382
100
AcDbArc
50
191.692245483398
51
348.694702148438
0
ARC
5
b18
100
AcDbEntity
8
0-1_2_0
6
CONTINUOUS
62
7
100
AcDbCircle
10
661.440000000000
20
758.950000000000
30
0.0
40
1.999999947760
100
AcDbArc
50
168.690628051758
51
-101.309371948242
0
ARC
5
b19
100
AcDbEntity
8
0-1_2_0
6
CONTINUOUS
62
7
100
AcDbCircle
10
661.440000000000
20
758.950000000000
30
0.0
40
1.400000004476
100
AcDbArc
50
168.690628051758
51
-101.309371948242
0
ARC
5
b1a
100
AcDbEntity
8
0-1_2_0
6
CONTINUOUS
62
7
100
AcDbCircle
10
664.620000000000
20
774.880000000000
30
0.0
40
1.400000004476
100
AcDbArc
50
135.641403198242
51
168.690902709961
0
ARC
5
b1b
100
AcDbEntity
8
0-1_2_0
6
CONTINUOUS
62
7
100
AcDbCircle
10
664.620000000000
20
774.880000000000
30
0.0
40
1.999999947760
100
AcDbArc
50
90.228530883789
51
168.690902709961
0
ARC
5
b1c
100
AcDbEntity
8
0-1_2_0
6
DOT
62
7
100
AcDbCircle
10
664.620000000000
20
774.880000000000
30
0.0
40
1.999999947760
100
AcDbArc
50
78.690063476563
51
89.410156250000
0
ARC
5
b1d
100
AcDbEntity
8
0-1_2_0
6
CONTINUOUS
62
7
100
AcDbCircle
10
664.620000000000
20
774.880000000000
30
0.0
40
1.400000004476
100
AcDbArc
50
95.293746948242
51
135.641403198242
0
ARC
5
b1e
100
AcDbEntity
8
0-1_2_0
6
DOT
62
7
100
AcDbCircle
10
664.620000000000
20
774.880000000000
30
0.0
40
1.400000004476
100
AcDbArc
50
78.690063476563
51
93.761138916016
0
ARC
5
b1f
100
AcDbEntity
8
0-1_2_0
6
DOT
62
7
100
AcDbCircle
10
660.040000000000
20
756.070000000000
30
0.0
40
0.600000011691
100
AcDbArc
50
168.689605712891
51
-101.309936523438
0
ARC
5
b20
100
AcDbEntity
8
0-1_2_0
6
DOT
62
7
100
AcDbCircle
10
660.040000000000
20
756.070000000000
30
0.0
40
1.100000032834
100
AcDbArc
50
168.689605712891
51
-101.309936523438
0
ARC
5
b21
100
AcDbEntity
8
0-6_2_5
6
CONTINUOUS
62
7
100
AcDbCircle
10
1781.760000000000
20
1205.620000000000
30
0.0
40
1.999999947760
100
AcDbArc
50
281.309371948242
51
11.309371948242
0
ARC
5
b22
100
AcDbEntity
8
0-6_2_5
6
CONTINUOUS
62
7
100
AcDbCircle
10
1781.760000000000
20
1205.620000000000
30
0.0
40
1.400000004476
100
AcDbArc
50
281.309371948242
51
11.309371948242
0
ARC
5
b23
100
AcDbEntity
8
0-6_2_5
6
CONTINUOUS
62
7
100
AcDbCircle
10
1778.580000000000
20
1221.540000000000
30
0.0
40
1.400000004476
100
AcDbArc
50
11.309097290039
51
44.358596801758
0
ARC
5
b24
100
AcDbEntity
8
0-6_2_5
6
CONTINUOUS
62
7
100
AcDbCircle
10
1778.580000000000
20
1221.540000000000
30
0.0
40
1.999999947760
100
AcDbArc
50
11.309097290039
51
89.771469116211
0
ARC
5
b25
100
AcDbEntity
8
0-6_2_5
6
DOT
62
7
100
AcDbCircle
10
1778.580000000000
20
1221.540000000000
30
0.0
40
1.999999947760
100
AcDbArc
50
90.589843750000
51
101.309936523438
0
ARC
5
b26
100
AcDbEntity
8
0-6_2_5
6
CONTINUOUS
62
7
100
AcDbCircle
10
1778.580000000000
20
1221.540000000000
30
0.0
40
1.400000004476
100
AcDbArc
50
44.358596801758
51
84.706253051758
0
ARC
5
b27
100
AcDbEntity
8
0-6_2_5
6
DOT
62
7
100
AcDbCircle
10
1778.580000000000
20
1221.540000000000
30
0.0
40
1.400000004476
100
AcDbArc
50
86.238861083984
51
101.309936523438
0
ARC
5
b28
100
AcDbEntity
8
0-6_2_5
6
DOT
62
7
100
AcDbCircle
10
1783.150000000000
20
1202.740000000000
30
0.0
40
0.600000011691
100
AcDbArc
50
281.309936523438
51
11.310394287109
0
ARC
5
b29
100
AcDbEntity
8
0-6_2_5
6
DOT
62
7
100
AcDbCircle
10
1783.150000000000
20
1202.740000000000
30
0.0
40
1.100000032834
100
AcDbArc
50
281.309936523438
51
11.310394287109
0
ARC
5
b2a
100
AcDbEntity
8
0-6_2_5
6
CONTINUOUS
62
7
100
AcDbCircle
10
1646.310000000000
20
1180.970000000000
30
0.0
40
0.600000011691
100
AcDbArc
50
191.305282592773
51
348.307754516602
0
ARC
5
b2b
100
AcDbEntity
8
0-6_2_5
6
CONTINUOUS
62
7
100
AcDbCircle
10
1646.310000000000
20
1180.970000000000
30
0.0
40
1.200000023382
100
AcDbArc
50
191.305282592773
51
348.307754516602
0
ARC
5
b2c
100
AcDbEntity
8
0-4_2_3
6
CONTINUOUS
62
7
100
AcDbCircle
10
1197.330000000000
20
762.750000000000
30
0.0
40
3.900028978058
100
AcDbArc
50
360.000000000000
51
540.000000000000
0
ARC
5
b2d
100
AcDbEntity
8
0-4_2_3
6
CONTINUOUS
62
7
100
AcDbCircle
10
1197.330000000000
20
762.750000000000
30
0.0
40
3.300024519895
100
AcDbArc
50
360.000000000000
51
540.000000000000
0
ARC
5
b2e
100
AcDbEntity
8
0-4_2_3
6
CONTINUOUS
62
7
100
AcDbCircle
10
1197.330000000000
20
762.750000000000
30
0.0
40
2.700020061732
100
AcDbArc
50
360.000000000000
51
540.000000000000
0
ARC
5
b2f
100
AcDbEntity
8
0-4_2_3
6
CONTINUOUS
62
7
100
AcDbCircle
10
1197.330000000000
20
762.750000000000
30
0.0
40
2.100015603570
100
AcDbArc
50
360.000000000000
51
540.000000000000
0
ARC
5
b30
100
AcDbEntity
8
0-4_2_3
6
CONTINUOUS
62
7
100
AcDbCircle
10
1197.330000000000
20
762.750000000000
30
0.0
40
1.500011145407
100
AcDbArc
50
360.000000000000
51
540.000000000000
0
ARC
5
b31
100
AcDbEntity
8
0-4_2_3
6
CONTINUOUS
62
7
100
AcDbCircle
10
1197.330000000000
20
762.750000000000
30
0.0
40
0.900006687244
100
AcDbArc
50
360.000000000000
51
540.000000000000
0
ARC
5
b32
100
AcDbEntity
8
0-4_2_3
6
CONTINUOUS
62
7
100
AcDbCircle
10
1199.130000000000
20
755.750000000000
30
0.0
40
2.100015603570
100
AcDbArc
50
180.000000000000
51
0.000000000000
0
ARC
5
b33
100
AcDbEntity
8
0-4_2_3
6
CONTINUOUS
62
7
100
AcDbCircle
10
1199.130000000000
20
755.750000000000
30
0.0
40
1.500011145407
100
AcDbArc
50
180.000000000000
51
0.000000000000
0
ARC
5
b34
100
AcDbEntity
8
0-4_2_3
6
CONTINUOUS
62
7
100
AcDbCircle
10
1199.130000000000
20
755.750000000000
30
0.0
40
0.900006687244
100
AcDbArc
50
180.000000000000
51
0.000000000000
0
ARC
5
b35
100
AcDbEntity
8
0-4_2_3
6
CONTINUOUS
62
7
100
AcDbCircle
10
1199.130000000000
20
755.750000000000
30
0.0
40
0.300002194878
100
AcDbArc
50
180.000000000000
51
0.000000000000
0
ARC
5
b36
100
AcDbEntity
8
0-4_2_3
6
CONTINUOUS
62
7
100
AcDbCircle
10
1176.230000000000
20
746.450000000000
30
0.0
40
0.400011215183
100
AcDbArc
50
90.000000000000
51
270.000000000000
0
ARC
5
b37
100
AcDbEntity
8
0-4_2_3
6
CONTINUOUS
62
7
100
AcDbCircle
10
1176.230000000000
20
746.450000000000
30
0.0
40
1.000003189021
100
AcDbArc
50
90.000000000000
51
270.000000000000
0
ARC
5
b38
100
AcDbEntity
8
0-4_2_3
6
CONTINUOUS
62
7
100
AcDbCircle
10
1163.680000000000
20
747.450000000000
30
0.0
40
0.600000011691
100
AcDbArc
50
90.000000000000
51
135.000000000000
0
ARC
5
b39
100
AcDbEntity
8
0-4_2_3
6
CONTINUOUS
62
7
100
AcDbCircle
10
1161.440000000000
20
746.050000000000
30
0.0
40
0.600000011691
100
AcDbArc
50
270.000000000000
51
315.000000000000
0
ARC
5
b3a
100
AcDbEntity
8
0-4_2_3
6
CONTINUOUS
62
7
100
AcDbCircle
10
1225.530000000000
20
747.450000000000
30
0.0
40
0.600000011691
100
AcDbArc
50
45.000000000000
51
90.000000000000
0
ARC
5
b3b
100
AcDbEntity
8
0-4_2_3
6
CONTINUOUS
62
7
100
AcDbCircle
10
1227.780000000000
20
746.050000000000
30
0.0
40
0.600000011691
100
AcDbArc
50
225.000000000000
51
270.000000000000
0
ARC
5
b3c
100
AcDbEntity
8
0-4_2_3
6
CONTINUOUS
62
7
100
AcDbCircle
10
1192.830000000000
20
748.650000000000
30
0.0
40
0.600000011691
100
AcDbArc
50
270.000000000000
51
0.000000000000
0
ARC
5
b3d
100
AcDbEntity
8
0-4_2_3
6
CONTINUOUS
62
7
100
AcDbCircle
10
1197.030000000000
20
748.650000000000
30
0.0
40
0.600000011691
100
AcDbArc
50
180.000000000000
51
270.000000000000
0
ARC
5
b3e
100
AcDbEntity
8
0-4_2_3
6
CONTINUOUS
62
7
100
AcDbCircle
10
1194.030000000000
20
746.650000000000
30
0.0
40
0.600000011691
100
AcDbArc
50
270.000000000000
51
0.000000000000
0
ARC
5
b3f
100
AcDbEntity
8
0-4_2_3
6
CONTINUOUS
62
7
100
AcDbCircle
10
1197.030000000000
20
748.650000000000
30
0.0
40
1.200000023382
100
AcDbArc
50
180.000000000000
51
270.000000000000
0
ARC
5
b40
100
AcDbEntity
8
0-4_2_3
6
CONTINUOUS
62
7
100
AcDbCircle
10
1192.830000000000
20
748.650000000000
30
0.0
40
1.200000023382
100
AcDbArc
50
270.000000000000
51
0.000000000000
0
ARC
5
b41
100
AcDbEntity
8
0-4_2_3
6
CONTINUOUS
62
7
100
AcDbCircle
10
1194.030000000000
20
746.650000000000
30
0.0
40
1.200000023382
100
AcDbArc
50
270.000000000000
51
0.000000000000
0
ARC
5
b42
100
AcDbEntity
8
0-4_2_3
6
CONTINUOUS
62
7
100
AcDbCircle
10
1135.290000000000
20
536.680000000000
30
0.0
40
210.995800234301
100
AcDbArc
50
82.881973266602
51
90.900909423828
0
ARC
5
b43
100
AcDbEntity
8
0-4_2_3
6
CONTINUOUS
62
7
100
AcDbCircle
10
1135.290000000000
20
536.680000000000
30
0.0
40
210.395812741139
100
AcDbArc
50
82.881973266602
51
90.900909423828
0
ARC
5
b44
100
AcDbEntity
8
0-8_2_7
6
CONTINUOUS
62
7
100
AcDbCircle
10
1645.630000000000
20
715.410000000000
30
0.0
40
3.900028978058
100
AcDbArc
50
360.000000000000
51
540.000000000000
0
ARC
5
b45
100
AcDbEntity
8
0-8_2_7
6
CONTINUOUS
62
7
100
AcDbCircle
10
1645.630000000000
20
715.410000000000
30
0.0
40
3.300024519895
100
AcDbArc
50
360.000000000000
51
540.000000000000
0
ARC
5
b46
100
AcDbEntity
8
0-8_2_7
6
CONTINUOUS
62
7
100
AcDbCircle
10
1645.630000000000
20
715.410000000000
30
0.0
40
2.700020061732
100
AcDbArc
50
360.000000000000
51
540.000000000000
0
ARC
5
b47
100
AcDbEntity
8
0-8_2_7
6
CONTINUOUS
62
7
100
AcDbCircle
10
1645.630000000000
20
715.410000000000
30
0.0
40
2.100015603570
100
AcDbArc
50
360.000000000000
51
540.000000000000
0
ARC
5
b48
100
AcDbEntity
8
0-8_2_7
6
CONTINUOUS
62
7
100
AcDbCircle
10
1645.630000000000
20
715.410000000000
30
0.0
40
1.500011145407
100
AcDbArc
50
360.000000000000
51
540.000000000000
0
ARC
5
b49
100
AcDbEntity
8
0-8_2_7
6
CONTINUOUS
62
7
100
AcDbCircle
10
1645.630000000000
20
715.410000000000
30
0.0
40
0.900006687244
100
AcDbArc
50
360.000000000000
51
540.000000000000
0
ARC
5
b4a
100
AcDbEntity
8
0-8_2_7
6
CONTINUOUS
62
7
100
AcDbCircle
10
1647.430000000000
20
708.410000000000
30
0.0
40
2.100015603570
100
AcDbArc
50
180.000000000000
51
0.000000000000
0
ARC
5
b4b
100
AcDbEntity
8
0-8_2_7
6
CONTINUOUS
62
7
100
AcDbCircle
10
1647.430000000000
20
708.410000000000
30
0.0
40
1.500011145407
100
AcDbArc
50
180.000000000000
51
0.000000000000
0
ARC
5
b4c
100
AcDbEntity
8
0-8_2_7
6
CONTINUOUS
62
7
100
AcDbCircle
10
1647.430000000000
20
708.410000000000
30
0.0
40
0.900006687244
100
AcDbArc
50
180.000000000000
51
0.000000000000
0
ARC
5
b4d
100
AcDbEntity
8
0-8_2_7
6
CONTINUOUS
62
7
100
AcDbCircle
10
1647.430000000000
20
708.410000000000
30
0.0
40
0.300002194878
100
AcDbArc
50
180.000000000000
51
0.000000000000
0
ARC
5
b4e
100
AcDbEntity
8
0-8_2_7
6
CONTINUOUS
62
7
100
AcDbCircle
10
1624.530000000000
20
699.110000000000
30
0.0
40
0.400011215183
100
AcDbArc
50
90.000000000000
51
270.000000000000
0
ARC
5
b4f
100
AcDbEntity
8
0-8_2_7
6
CONTINUOUS
62
7
100
AcDbCircle
10
1624.530000000000
20
699.110000000000
30
0.0
40
1.000003189021
100
AcDbArc
50
90.000000000000
51
270.000000000000
0
ARC
5
b50
100
AcDbEntity
8
0-8_2_7
6
CONTINUOUS
62
7
100
AcDbCircle
10
1611.980000000000
20
700.110000000000
30
0.0
40
0.600000011691
100
AcDbArc
50
90.000000000000
51
135.000000000000
0
ARC
5
b51
100
AcDbEntity
8
0-8_2_7
6
CONTINUOUS
62
7
100
AcDbCircle
10
1609.740000000000
20
698.710000000000
30
0.0
40
0.600000011691
100
AcDbArc
50
270.000000000000
51
315.000000000000
0
ARC
5
b52
100
AcDbEntity
8
0-8_2_7
6
CONTINUOUS
62
7
100
AcDbCircle
10
1673.830000000000
20
700.110000000000
30
0.0
40
0.600000011691
100
AcDbArc
50
45.000000000000
51
90.000000000000
0
ARC
5
b53
100
AcDbEntity
8
0-8_2_7
6
CONTINUOUS
62
7
100
AcDbCircle
10
1676.080000000000
20
698.710000000000
30
0.0
40
0.600000011691
100
AcDbArc
50
225.000000000000
51
270.000000000000
0
ARC
5
b54
100
AcDbEntity
8
0-8_2_7
6
CONTINUOUS
62
7
100
AcDbCircle
10
1641.130000000000
20
701.310000000000
30
0.0
40
0.600000011691
100
AcDbArc
50
270.000000000000
51
0.000000000000
0
ARC
5
b55
100
AcDbEntity
8
0-8_2_7
6
CONTINUOUS
62
7
100
AcDbCircle
10
1645.330000000000
20
701.310000000000
30
0.0
40
0.600000011691
100
AcDbArc
50
180.000000000000
51
270.000000000000
0
ARC
5
b56
100
AcDbEntity
8
0-8_2_7
6
CONTINUOUS
62
7
100
AcDbCircle
10
1642.330000000000
20
699.310000000000
30
0.0
40
0.600000011691
100
AcDbArc
50
270.000000000000
51
0.000000000000
0
ARC
5
b57
100
AcDbEntity
8
0-8_2_7
6
CONTINUOUS
62
7
100
AcDbCircle
10
1645.330000000000
20
701.310000000000
30
0.0
40
1.200000023382
100
AcDbArc
50
180.000000000000
51
270.000000000000
0
ARC
5
b58
100
AcDbEntity
8
0-8_2_7
6
CONTINUOUS
62
7
100
AcDbCircle
10
1641.130000000000
20
701.310000000000
30
0.0
40
1.200000023382
100
AcDbArc
50
270.000000000000
51
0.000000000000
0
ARC
5
b59
100
AcDbEntity
8
0-8_2_7
6
CONTINUOUS
62
7
100
AcDbCircle
10
1642.330000000000
20
699.310000000000
30
0.0
40
1.200000023382
100
AcDbArc
50
270.000000000000
51
0.000000000000
0
TEXT
5
b5a
100
AcDbEntity
8
0-4_2_3
62
3
370
-3
100
AcDbText
10
1114.074
20
794.035
30
0.0
40
8.205
41
0.942
50
0.000
1
２００以内
72
1
11
1140.886
21
793.124
31
0.0
100
AcDbText
73
1
0
TEXT
5
b5b
100
AcDbEntity
8
0-2_2_1
62
3
370
-3
100
AcDbText
10
1076.044
20
1341.362
30
0.0
40
8.205
41
0.942
50
11.310
1
１５０以内
72
1
11
1102.515
21
1345.726
31
0.0
100
AcDbText
73
1
0
TEXT
5
b5c
100
AcDbEntity
8
0-6_2_5
62
3
370
-3
100
AcDbText
10
1645.507
20
1333.846
30
0.0
40
8.205
41
0.942
50
11.310
1
１５０～２００
72
1
11
1682.495
21
1340.314
31
0.0
100
AcDbText
73
1
0
TEXT
5
b5d
100
AcDbEntity
8
0-6_2_5
62
3
370
-3
100
AcDbText
10
1564.851
20
1241.792
30
0.0
40
8.205
1
通し唐草（エプロン）
41
0.942
50
0.000
100
AcDbText
0
TEXT
5
b5e
100
AcDbEntity
8
0-6_2_5
62
3
370
-3
100
AcDbText
10
1708.583
20
1302.491
30
0.0
40
8.205
1
外壁材
41
0.942
50
0.000
100
AcDbText
0
TEXT
5
b5f
100
AcDbEntity
8
0-2_2_1
62
3
370
-3
100
AcDbText
10
1218.529
20
1214.521
30
0.0
40
8.205
1
野地板材
41
0.942
50
0.000
100
AcDbText
0
TEXT
5
b60
100
AcDbEntity
8
0-2_2_1
62
3
370
-3
100
AcDbText
10
1034.710
20
1179.711
30
0.0
40
8.205
1
軒先唐草
41
0.942
50
0.000
100
AcDbText
0
TEXT
5
b61
100
AcDbEntity
8
0-2_2_1
62
3
370
-3
100
AcDbText
10
1106.929
20
1081.699
30
0.0
40
8.205
1
鼻隠し
41
0.942
50
0.000
100
AcDbText
0
TEXT
5
b62
100
AcDbEntity
8
0-2_2_1
62
3
370
-3
100
AcDbText
10
1240.211
20
1081.944
30
0.0
40
8.205
1
軒天
41
0.942
50
0.000
100
AcDbText
0
TEXT
5
b63
100
AcDbEntity
8
0-4_2_3
62
3
370
-3
100
AcDbText
10
1274.679
20
706.129
30
0.0
40
8.205
1
野地板材
41
0.942
50
0.000
100
AcDbText
0
TEXT
5
b64
100
AcDbEntity
8
0-4_2_3
62
3
370
-3
100
AcDbText
10
1032.048
20
682.634
30
0.0
40
8.205
1
けらば唐草
41
0.942
50
0.000
100
AcDbText
0
TEXT
5
b65
100
AcDbEntity
8
0-4_2_3
62
3
370
-3
100
AcDbText
10
1091.222
20
598.406
30
0.0
40
8.205
1
外壁材
41
0.942
50
0.000
100
AcDbText
0
TEXT
5
b66
100
AcDbEntity
8
0-8_2_7
62
3
370
-3
100
AcDbText
10
1747.687
20
708.720
30
0.0
40
4.923
1
木下地２４×６０
41
0.999
50
0.000
100
AcDbText
0
TEXT
5
b67
100
AcDbEntity
8
0-8_2_7
62
3
370
-3
100
AcDbText
10
1738.743
20
830.394
30
0.0
40
8.205
1
外壁材
41
0.942
50
0.000
100
AcDbText
0
TEXT
5
b68
100
AcDbEntity
8
0-8_2_7
62
3
370
-3
100
AcDbText
10
1673.709
20
775.713
30
0.0
40
8.205
1
壁取合雨押（流れ）
41
0.942
50
0.000
100
AcDbText
0
TEXT
5
b69
100
AcDbEntity
8
0-2_2_1
62
3
370
-3
100
AcDbText
10
1179.373
20
1320.210
30
0.0
40
8.205
1
アスファルトルーフィング９４０
41
0.942
50
0.000
100
AcDbText
0
TEXT
5
b6a
100
AcDbEntity
8
0-1_2_0
62
3
370
-3
100
AcDbText
10
672.544
20
801.051
30
0.0
40
8.205
1
アスファルトルーフィング９４０
41
0.942
50
0.000
100
AcDbText
0
TEXT
5
b6b
100
AcDbEntity
8
0-6_2_5
62
3
370
-3
100
AcDbText
10
1699.096
20
1255.109
30
0.0
40
8.205
1
八千代折り
41
0.942
50
0.000
100
AcDbText
0
TEXT
5
b6c
100
AcDbEntity
8
0-6_2_5
62
3
370
-3
100
AcDbText
10
1739.574
20
1138.709
30
0.0
40
8.205
1
野地板材
41
0.942
50
0.000
100
AcDbText
0
TEXT
5
b6d
100
AcDbEntity
8
0-6_2_5
62
3
370
-3
100
AcDbText
10
1682.493
20
1109.863
30
0.0
40
8.205
1
アスファルトルーフィング９４０
41
0.942
50
0.000
100
AcDbText
0
TEXT
5
b6e
100
AcDbEntity
8
0-8_2_7
62
3
370
-3
100
AcDbText
10
1557.182
20
631.411
30
0.0
40
8.205
1
アスファルトルーフィング９４０
41
0.942
50
0.000
100
AcDbText
0
TEXT
5
b6f
100
AcDbEntity
8
0-8_2_7
62
3
370
-3
100
AcDbText
10
1700.677
20
658.438
30
0.0
40
8.205
1
野地板材
41
0.942
50
0.000
100
AcDbText
0
TEXT
5
b70
100
AcDbEntity
8
0-4_2_3
62
3
370
-3
100
AcDbText
10
1224.198
20
676.267
30
0.0
40
8.205
1
アスファルトルーフィング９４０
41
0.942
50
0.000
100
AcDbText
0
TEXT
5
b71
100
AcDbEntity
8
0-1_2_0
62
3
370
-3
100
AcDbText
10
604.301
20
694.477
30
0.0
40
8.205
1
野地板材
41
0.942
50
0.000
100
AcDbText
0
TEXT
5
b72
100
AcDbEntity
8
0-1_2_0
62
3
370
-3
100
AcDbText
10
777.557
20
778.024
30
0.0
40
8.205
1
通し唐草（エプロン）
41
0.942
50
0.000
100
AcDbText
0
TEXT
5
b73
100
AcDbEntity
8
0-1_2_0
62
3
370
-3
100
AcDbText
10
566.404
20
807.035
30
0.0
40
8.205
1
棟　包　み
41
0.942
50
0.000
100
AcDbText
0
TEXT
5
b74
100
AcDbEntity
8
0-1_2_0
62
3
370
-3
100
AcDbText
10
602.902
20
792.160
30
0.0
40
8.205
1
八千代折り
41
0.942
50
0.000
100
AcDbText
0
TEXT
5
b75
100
AcDbEntity
8
F-F
62
3
370
-3
100
AcDbText
10
494.664
20
390.600
30
0.0
40
6.564
1
静岡県静岡市流通センター１６番
41
0.963
50
0.000
100
AcDbText
0
TEXT
5
b76
100
AcDbEntity
8
F-F
62
3
370
-3
100
AcDbText
10
494.668
20
375.767
30
0.0
40
6.564
1
電話（０５４）２６３－２２８０（代表）
41
0.963
50
0.000
100
AcDbText
0
TEXT
5
b77
100
AcDbEntity
8
F-F
62
3
370
-3
100
AcDbText
10
860.090
20
422.752
30
0.0
40
4.923
1
変　　　　　　更　　　　　　記　　　　　　事
41
0.999
50
0.000
100
AcDbText
0
TEXT
5
b78
100
AcDbEntity
8
F-F
62
3
370
-3
100
AcDbText
10
1143.825
20
421.952
30
0.0
40
4.923
1
受領　　日附
41
0.999
50
0.000
100
AcDbText
0
TEXT
5
b79
100
AcDbEntity
8
F-F
62
3
370
-3
100
AcDbText
10
1342.042
20
392.520
30
0.0
40
4.923
1
施工者
41
0.999
50
0.000
100
AcDbText
0
TEXT
5
b7a
100
AcDbEntity
8
F-F
62
3
370
-3
100
AcDbText
10
1342.042
20
422.150
30
0.0
40
4.923
1
設計者
41
0.999
50
0.000
100
AcDbText
0
TEXT
5
b7b
100
AcDbEntity
8
F-F
62
3
370
-3
100
AcDbText
10
1547.526
20
391.977
30
0.0
40
4.923
1
作図
41
0.999
50
0.000
100
AcDbText
0
TEXT
5
b7c
100
AcDbEntity
8
F-F
62
3
370
-3
100
AcDbText
10
1619.352
20
392.508
30
0.0
40
4.923
1
図面名
41
0.999
50
0.000
100
AcDbText
0
TEXT
5
b7d
100
AcDbEntity
8
F-F
62
3
370
-3
100
AcDbText
10
1547.526
20
421.607
30
0.0
40
4.923
1
日附
41
0.999
50
0.000
100
AcDbText
0
TEXT
5
b7e
100
AcDbEntity
8
F-F
62
3
370
-3
100
AcDbText
10
1619.352
20
422.137
30
0.0
40
4.923
1
工事件名
41
0.999
50
0.000
100
AcDbText
0
TEXT
5
b7f
100
AcDbEntity
8
F-F
62
3
370
-3
100
AcDbText
10
1569.661
20
421.355
30
0.0
40
4.923
1
年　月　日
41
0.999
50
0.000
100
AcDbText
0
TEXT
5
b80
100
AcDbEntity
8
F-F
62
3
370
-3
100
AcDbText
10
1569.661
20
391.725
30
0.0
40
4.923
1
年　月　日
41
0.999
50
0.000
100
AcDbText
0
TEXT
5
b81
100
AcDbEntity
8
F-F
62
3
370
-3
100
AcDbText
10
1871.695
20
422.137
30
0.0
40
4.923
1
設計番号
41
0.999
50
0.000
100
AcDbText
0
TEXT
5
b82
100
AcDbEntity
8
F-F
62
3
370
-3
100
AcDbText
10
1871.695
20
392.508
30
0.0
40
4.923
1
縮　尺
41
0.999
50
0.000
100
AcDbText
0
MTEXT
5
b83
100
AcDbEntity
8
F-F
62
3
370
-3
100
AcDbMText
10
715.012
20
414.821
30
0.0
40
4.649
41
0.000
71
7
72
1
1
\W1.134;{\W0.817;. }　{\W0.817;.}　{\W0.817; }
7
STANDARD
11
1.00000
21
0.00000
31
0.0
0
MTEXT
5
b84
100
AcDbEntity
8
F-F
62
3
370
-3
100
AcDbMText
10
715.012
20
404.945
30
0.0
40
4.649
41
0.000
71
7
72
1
1
\W1.134;{\W0.817;. }　{\W0.817;.}　{\W0.817; }
7
STANDARD
11
1.00000
21
0.00000
31
0.0
0
MTEXT
5
b85
100
AcDbEntity
8
F-F
62
3
370
-3
100
AcDbMText
10
715.012
20
395.068
30
0.0
40
4.649
41
0.000
71
7
72
1
1
\W1.134;{\W0.817;. }　{\W0.817;.}　{\W0.817; }
7
STANDARD
11
1.00000
21
0.00000
31
0.0
0
MTEXT
5
b86
100
AcDbEntity
8
F-F
62
3
370
-3
100
AcDbMText
10
715.012
20
385.191
30
0.0
40
4.649
41
0.000
71
7
72
1
1
\W1.134;{\W0.817;. }　{\W0.817;.}　{\W0.817; }
7
STANDARD
11
1.00000
21
0.00000
31
0.0
0
MTEXT
5
b87
100
AcDbEntity
8
F-F
62
3
370
-3
100
AcDbMText
10
715.012
20
375.314
30
0.0
40
4.649
41
0.000
71
7
72
1
1
\W1.134;{\W0.817;. }　{\W0.817;.}　{\W0.817; }
7
STANDARD
11
1.00000
21
0.00000
31
0.0
0
TEXT
5
b88
100
AcDbEntity
8
F-F
62
3
370
-3
100
AcDbText
10
1362.383
20
409.373
30
0.0
40
6.564
1
　　　　　　　　　　
41
0.963
50
0.000
100
AcDbText
0
TEXT
5
b89
100
AcDbEntity
8
F-F
62
3
370
-3
100
AcDbText
10
1362.383
20
379.743
30
0.0
40
6.564
1
　　　　　　　　　　
41
0.963
50
0.000
100
AcDbText
0
TEXT
5
b8a
100
AcDbEntity
8
F-F
62
3
370
-3
100
AcDbText
10
1645.846
20
410.920
30
0.0
40
6.564
1
　　　　　　　　　　　　　
41
0.963
50
0.000
100
AcDbText
0
TEXT
5
b8b
100
AcDbEntity
8
F-F
62
3
370
-3
100
AcDbText
10
706.040
20
422.687
30
0.0
40
4.923
1
年　月　日
41
0.999
50
0.000
100
AcDbText
0
TEXT
5
b8c
100
AcDbEntity
8
F-F
62
3
370
-3
100
AcDbText
10
1200.996
20
421.368
30
0.0
40
4.923
1
年　　月　　日
41
0.999
50
0.000
100
AcDbText
0
MTEXT
5
b8d
100
AcDbEntity
8
F-F
62
3
370
-3
100
AcDbMText
10
1213.548
20
410.398
30
0.0
40
4.649
41
0.000
71
7
72
1
1
\W1.134;{\W0.817;.}　{\W0.817; }　{\W0.817;.}
7
STANDARD
11
1.00000
21
0.00000
31
0.0
0
TEXT
5
b8e
100
AcDbEntity
8
F-F
62
3
370
-3
100
AcDbText
10
1143.825
20
392.323
30
0.0
40
4.923
1
受領　　日附
41
0.999
50
0.000
100
AcDbText
0
TEXT
5
b8f
100
AcDbEntity
8
F-F
62
3
370
-3
100
AcDbText
10
1200.996
20
391.738
30
0.0
40
4.923
1
年　　月　　日
41
0.999
50
0.000
100
AcDbText
0
MTEXT
5
b90
100
AcDbEntity
8
F-F
62
3
370
-3
100
AcDbMText
10
1213.548
20
380.769
30
0.0
40
4.649
41
0.000
71
7
72
1
1
\W1.134;{\W0.817;.}　{\W0.817; }　{\W0.817;.}
7
STANDARD
11
1.00000
21
0.00000
31
0.0
0
MTEXT
5
b91
100
AcDbEntity
8
F-F
62
3
370
-3
100
AcDbMText
10
1576.433
20
408.685
30
0.0
40
4.649
41
0.000
71
7
72
1
1
\W1.134;{\W0.817;.}　　{\W0.817;.}　
7
STANDARD
11
1.00000
21
0.00000
31
0.0
0
TEXT
5
b92
100
AcDbEntity
8
F-F
62
2
370
-3
100
AcDbText
10
442.770
20
408.158
30
0.0
40
13.127
1
小　池　弥　太　郎　商　店
41
0.963
50
0.000
100
AcDbText
0
TEXT
5
b93
100
AcDbEntity
8
1-1_2_16
62
3
370
-3
100
AcDbText
10
701.227
20
1104.907
30
0.0
40
8.205
41
0.942
50
90.000
1
２０
72
1
11
702.139
21
1115.632
31
0.0
100
AcDbText
73
1
0
TEXT
5
b94
100
AcDbEntity
8
0-8_2_7
62
3
370
-3
100
AcDbText
10
1852.943
20
743.252
30
0.0
40
8.205
41
0.942
50
90.000
1
１３０内外
72
1
11
1853.854
21
770.065
31
0.0
100
AcDbText
73
1
0
TEXT
5
b95
100
AcDbEntity
8
0-6_2_5
62
3
370
-3
100
AcDbText
10
1832.572
20
1250.545
30
0.0
40
8.205
41
0.942
50
90.000
1
１００内外
72
1
11
1833.484
21
1277.358
31
0.0
100
AcDbText
73
1
0
TEXT
5
b96
100
AcDbEntity
8
0-6_2_5
62
3
370
-3
100
AcDbText
10
1628.595
20
1273.148
30
0.0
40
8.205
1
壁取合雨押（水上）
41
0.942
50
0.000
100
AcDbText
0
TEXT
5
b97
100
AcDbEntity
8
0-00
62
3
370
-3
100
AcDbText
10
605.857
20
1343.263
30
0.0
40
8.205
1
アスファルトルーフィング９４０
41
0.942
50
0.000
100
AcDbText
0
TEXT
5
b98
100
AcDbEntity
8
0-00
62
3
370
-3
100
AcDbText
10
593.503
20
1258.952
30
0.0
40
8.205
1
野地板材
41
0.942
50
0.000
100
AcDbText
0
TEXT
5
b99
100
AcDbEntity
8
0-00
62
3
370
-3
100
AcDbText
10
602.212
20
1404.129
30
0.0
40
8.205
41
0.942
50
0.000
1
３３０（３２８．８）
72
1
11
655.837
21
1403.217
31
0.0
100
AcDbText
73
1
0
TEXT
5
b9a
100
AcDbEntity
8
0-00
62
3
370
-3
100
AcDbText
10
527.852
20
1317.652
30
0.0
40
8.205
41
0.942
50
90.000
1
２０
72
1
11
528.764
21
1328.377
31
0.0
100
AcDbText
73
1
0
TEXT
5
b9b
100
AcDbEntity
8
1-1_2_16
62
3
370
-3
100
AcDbText
10
676.256
20
1104.907
30
0.0
40
8.205
41
0.942
50
90.000
1
１８
72
1
11
677.167
21
1115.632
31
0.0
100
AcDbText
73
1
0
TEXT
5
b9c
100
AcDbEntity
8
0-1_2_0
62
3
370
-3
100
AcDbText
10
438.869
20
768.165
30
0.0
40
8.205
1
ＤＫライン３３０
41
0.942
50
0.000
100
AcDbText
0
TEXT
5
b9d
100
AcDbEntity
8
0-00
62
3
370
-3
100
AcDbText
10
542.690
20
1359.277
30
0.0
40
8.205
1
ＤＫライン３３０
41
0.942
50
0.000
100
AcDbText
0
TEXT
5
b9e
100
AcDbEntity
8
0-00
62
3
370
-3
100
AcDbText
10
824.865
20
1404.701
30
0.0
40
8.205
41
0.942
50
0.000
1
＠３３０
72
1
11
846.315
21
1403.790
31
0.0
100
AcDbText
73
1
0
TEXT
5
b9f
100
AcDbEntity
8
F-F
62
3
370
-3
100
AcDbText
10
559.386
20
936.080
30
0.0
40
8.205
1
ＤＫライン３３０　棟部納め図
41
0.942
50
0.000
100
AcDbText
0
TEXT
5
ba0
100
AcDbEntity
8
0-2_2_1
62
3
370
-3
100
AcDbText
10
1060.903
20
1296.896
30
0.0
40
8.205
1
ＤＫライン３３０
41
0.942
50
0.000
100
AcDbText
0
TEXT
5
ba1
100
AcDbEntity
8
F-F
62
3
370
-3
100
AcDbText
10
1085.016
20
1466.453
30
0.0
40
8.205
1
ＤＫライン３３０　軒先部納め図
41
0.942
50
0.000
100
AcDbText
0
TEXT
5
ba2
100
AcDbEntity
8
0-6_2_5
62
3
370
-3
100
AcDbText
10
1524.884
20
1200.291
30
0.0
40
8.205
1
ＤＫライン３３０
41
0.942
50
0.000
100
AcDbText
0
TEXT
5
ba3
100
AcDbEntity
8
F-F
62
3
370
-3
100
AcDbText
10
1610.646
20
1466.453
30
0.0
40
8.205
1
ＤＫライン３３０　壁取合部（水上）納め図
41
0.942
50
0.000
100
AcDbText
0
TEXT
5
ba4
100
AcDbEntity
8
0-4_2_3
62
3
370
-3
100
AcDbText
10
1224.099
20
769.680
30
0.0
40
8.205
1
ＤＫライン３３０
41
0.942
50
0.000
100
AcDbText
0
TEXT
5
ba5
100
AcDbEntity
8
0-4_2_3
62
3
370
-3
100
AcDbText
10
1223.111
20
795.152
30
0.0
40
8.205
41
0.942
50
0.000
1
＠３３０
72
1
11
1244.561
21
794.240
31
0.0
100
AcDbText
73
1
0
TEXT
5
ba6
100
AcDbEntity
8
F-F
62
3
370
-3
100
AcDbText
10
1085.016
20
936.080
30
0.0
40
8.205
1
ＤＫライン３３０　けらば部納め図
41
0.942
50
0.000
100
AcDbText
0
TEXT
5
ba7
100
AcDbEntity
8
F-F
62
3
370
-3
100
AcDbText
10
1610.646
20
936.080
30
0.0
40
8.205
1
ＤＫライン３３０　壁取合部（流れ）納め図
41
0.942
50
0.000
100
AcDbText
0
TEXT
5
ba8
100
AcDbEntity
8
0-8_2_7
62
3
370
-3
100
AcDbText
10
1546.966
20
750.575
30
0.0
40
8.205
1
ＤＫライン３３０
41
0.942
50
0.000
100
AcDbText
0
TEXT
5
ba9
100
AcDbEntity
8
0-00
62
3
370
-3
100
AcDbText
10
424.059
20
1404.701
30
0.0
40
8.205
41
0.942
50
0.000
1
＠３３０
72
1
11
445.509
21
1403.790
31
0.0
100
AcDbText
73
1
0
TEXT
5
baa
100
AcDbEntity
8
0-1_2_0
62
3
370
-3
100
AcDbText
10
550.818
20
842.194
30
0.0
40
8.205
41
0.942
50
11.310
1
１５０
72
1
11
566.772
21
844.455
31
0.0
100
AcDbText
73
1
0
TEXT
5
bab
100
AcDbEntity
8
0-1_2_0
62
3
370
-3
100
AcDbText
10
731.000
20
848.317
30
0.0
40
8.205
41
0.942
50
348.690
1
１５０
72
1
11
746.597
21
844.268
31
0.0
100
AcDbText
73
1
0
TEXT
5
bac
100
AcDbEntity
8
F-F
62
3
370
-3
100
AcDbText
10
1895.012
20
388.647
30
0.0
40
6.564
1
Ａ１－１／２　
41
0.963
50
0.000
100
AcDbText
0
TEXT
5
bad
100
AcDbEntity
8
F-F
62
3
370
-3
100
AcDbText
10
1895.012
20
373.832
30
0.0
40
6.564
1
Ａ３－１／４　
41
0.963
50
0.000
100
AcDbText
0
TEXT
5
bae
100
AcDbEntity
8
F-F
62
3
370
-3
100
AcDbText
10
559.386
20
1466.453
30
0.0
40
8.205
1
ＤＫライン３３０　嵌合断面図
41
0.942
50
0.000
100
AcDbText
0
TEXT
5
baf
100
AcDbEntity
8
F-F
62
3
370
-3
100
AcDbText
10
1550.716
20
378.565
30
0.0
40
4.923
1
MA 2015-06-06  
41
0.696
50
0.000
100
AcDbText
0
TEXT
5
bb0
100
AcDbEntity
8
F-F
62
3
370
-3
100
AcDbText
10
1645.846
20
381.290
30
0.0
40
6.564
1
コイケルーフ　ＤＫライン３３０　納め図
41
0.963
50
0.000
100
AcDbText
0
TEXT
5
bb1
100
AcDbEntity
8
F-F
62
3
370
-3
100
AcDbText
10
1885.857
20
409.052
30
0.0
40
6.564
1
ＫＲ－ＤＫ－０２
41
0.963
50
0.000
100
AcDbText
0
POLYLINE
5
bb2
100
AcDbEntity
  8
0-4_2_3
6
CONTINUOUS
62
3
100
AcDb2dPolyline
66
1
10
0
20
0
70
1
40
0.800
41
0.800
0
VERTEX
5
bb3
100
AcDbEntity
  8
0-4_2_3
6
CONTINUOUS
62
3
100
AcDbVertex
100
AcDb2dVertex
10
1062.033
20
791.539
30
0.0
42
1.000
0
VERTEX
5
bb4
100
AcDbEntity
  8
0-4_2_3
6
CONTINUOUS
62
3
100
AcDbVertex
100
AcDb2dVertex
10
1062.833
20
791.539
30
0.0
42
1.000
0
SEQEND
5
bb5
100
AcDbEntity
  8
0-4_2_3
0
POLYLINE
5
bb6
100
AcDbEntity
  8
0-4_2_3
6
CONTINUOUS
62
3
100
AcDb2dPolyline
66
1
10
0
20
0
70
1
40
0.800
41
0.800
0
VERTEX
5
bb7
100
AcDbEntity
  8
0-4_2_3
6
CONTINUOUS
62
3
100
AcDbVertex
100
AcDb2dVertex
10
1194.534
20
791.539
30
0.0
42
1.000
0
VERTEX
5
bb8
100
AcDbEntity
  8
0-4_2_3
6
CONTINUOUS
62
3
100
AcDbVertex
100
AcDb2dVertex
10
1195.334
20
791.539
30
0.0
42
1.000
0
SEQEND
5
bb9
100
AcDbEntity
  8
0-4_2_3
0
POLYLINE
5
bba
100
AcDbEntity
  8
0-2_2_1
6
CONTINUOUS
62
3
100
AcDb2dPolyline
66
1
10
0
20
0
70
1
40
0.800
41
0.800
0
VERTEX
5
bbb
100
AcDbEntity
  8
0-2_2_1
6
CONTINUOUS
62
3
100
AcDbVertex
100
AcDb2dVertex
10
1034.806
20
1330.028
30
0.0
42
1.000
0
VERTEX
5
bbc
100
AcDbEntity
  8
0-2_2_1
6
CONTINUOUS
62
3
100
AcDbVertex
100
AcDb2dVertex
10
1035.606
20
1330.028
30
0.0
42
1.000
0
SEQEND
5
bbd
100
AcDbEntity
  8
0-2_2_1
0
POLYLINE
5
bbe
100
AcDbEntity
  8
0-2_2_1
6
CONTINUOUS
62
3
100
AcDb2dPolyline
66
1
10
0
20
0
70
1
40
0.800
41
0.800
0
VERTEX
5
bbf
100
AcDbEntity
  8
0-2_2_1
6
CONTINUOUS
62
3
100
AcDbVertex
100
AcDb2dVertex
10
1154.486
20
1353.963
30
0.0
42
1.000
0
VERTEX
5
bc0
100
AcDbEntity
  8
0-2_2_1
6
CONTINUOUS
62
3
100
AcDbVertex
100
AcDb2dVertex
10
1155.286
20
1353.963
30
0.0
42
1.000
0
SEQEND
5
bc1
100
AcDbEntity
  8
0-2_2_1
0
POLYLINE
5
bc2
100
AcDbEntity
  8
0-6_2_5
6
CONTINUOUS
62
3
100
AcDb2dPolyline
66
1
10
0
20
0
70
1
40
0.800
41
0.800
0
VERTEX
5
bc3
100
AcDbEntity
  8
0-6_2_5
6
CONTINUOUS
62
3
100
AcDbVertex
100
AcDb2dVertex
10
1597.088
20
1321.074
30
0.0
42
1.000
0
VERTEX
5
bc4
100
AcDbEntity
  8
0-6_2_5
6
CONTINUOUS
62
3
100
AcDbVertex
100
AcDb2dVertex
10
1597.888
20
1321.074
30
0.0
42
1.000
0
SEQEND
5
bc5
100
AcDbEntity
  8
0-6_2_5
0
POLYLINE
5
bc6
100
AcDbEntity
  8
0-6_2_5
6
CONTINUOUS
62
3
100
AcDb2dPolyline
66
1
10
0
20
0
70
1
40
0.800
41
0.800
0
VERTEX
5
bc7
100
AcDbEntity
  8
0-6_2_5
6
CONTINUOUS
62
3
100
AcDbVertex
100
AcDb2dVertex
10
1761.866
20
1354.029
30
0.0
42
1.000
0
VERTEX
5
bc8
100
AcDbEntity
  8
0-6_2_5
6
CONTINUOUS
62
3
100
AcDbVertex
100
AcDb2dVertex
10
1762.666
20
1354.029
30
0.0
42
1.000
0
SEQEND
5
bc9
100
AcDbEntity
  8
0-6_2_5
0
POLYLINE
5
bca
100
AcDbEntity
  8
0-6_2_5
6
CONTINUOUS
62
3
100
AcDb2dPolyline
66
1
10
0
20
0
70
1
40
0.800
41
0.800
0
VERTEX
5
bcb
100
AcDbEntity
  8
0-6_2_5
6
CONTINUOUS
62
3
100
AcDbVertex
100
AcDb2dVertex
10
1834.669
20
1325.905
30
0.0
42
1.000
0
VERTEX
5
bcc
100
AcDbEntity
  8
0-6_2_5
6
CONTINUOUS
62
3
100
AcDbVertex
100
AcDb2dVertex
10
1835.469
20
1325.905
30
0.0
42
1.000
0
SEQEND
5
bcd
100
AcDbEntity
  8
0-6_2_5
0
POLYLINE
5
bce
100
AcDbEntity
  8
0-6_2_5
6
CONTINUOUS
62
3
100
AcDb2dPolyline
66
1
10
0
20
0
70
1
40
0.800
41
0.800
0
VERTEX
5
bcf
100
AcDbEntity
  8
0-6_2_5
6
CONTINUOUS
62
3
100
AcDbVertex
100
AcDb2dVertex
10
1834.669
20
1225.905
30
0.0
42
1.000
0
VERTEX
5
bd0
100
AcDbEntity
  8
0-6_2_5
6
CONTINUOUS
62
3
100
AcDbVertex
100
AcDb2dVertex
10
1835.469
20
1225.905
30
0.0
42
1.000
0
SEQEND
5
bd1
100
AcDbEntity
  8
0-6_2_5
0
POLYLINE
5
bd2
100
AcDbEntity
  8
0-1_2_0
6
CONTINUOUS
62
3
100
AcDb2dPolyline
66
1
10
0
20
0
70
1
40
0.800
41
0.800
0
VERTEX
5
bd3
100
AcDbEntity
  8
0-1_2_0
6
CONTINUOUS
62
3
100
AcDbVertex
100
AcDb2dVertex
10
640.358
20
858.226
30
0.0
42
1.000
0
VERTEX
5
bd4
100
AcDbEntity
  8
0-1_2_0
6
CONTINUOUS
62
3
100
AcDbVertex
100
AcDb2dVertex
10
641.158
20
858.226
30
0.0
42
1.000
0
SEQEND
5
bd5
100
AcDbEntity
  8
0-1_2_0
0
POLYLINE
5
bd6
100
AcDbEntity
  8
0-1_2_0
6
CONTINUOUS
62
3
100
AcDb2dPolyline
66
1
10
0
20
0
70
1
40
0.800
41
0.800
0
VERTEX
5
bd7
100
AcDbEntity
  8
0-1_2_0
6
CONTINUOUS
62
3
100
AcDbVertex
100
AcDb2dVertex
10
491.306
20
828.416
30
0.0
42
1.000
0
VERTEX
5
bd8
100
AcDbEntity
  8
0-1_2_0
6
CONTINUOUS
62
3
100
AcDbVertex
100
AcDb2dVertex
10
492.106
20
828.416
30
0.0
42
1.000
0
SEQEND
5
bd9
100
AcDbEntity
  8
0-1_2_0
0
POLYLINE
5
bda
100
AcDbEntity
  8
0-8_2_7
6
CONTINUOUS
62
3
100
AcDb2dPolyline
66
1
10
0
20
0
70
1
40
0.800
41
0.800
0
VERTEX
5
bdb
100
AcDbEntity
  8
0-8_2_7
6
CONTINUOUS
62
3
100
AcDbVertex
100
AcDb2dVertex
10
1855.039
20
826.612
30
0.0
42
1.000
0
VERTEX
5
bdc
100
AcDbEntity
  8
0-8_2_7
6
CONTINUOUS
62
3
100
AcDbVertex
100
AcDb2dVertex
10
1855.839
20
826.612
30
0.0
42
1.000
0
SEQEND
5
bdd
100
AcDbEntity
  8
0-8_2_7
0
POLYLINE
5
bde
100
AcDbEntity
  8
0-8_2_7
6
CONTINUOUS
62
3
100
AcDb2dPolyline
66
1
10
0
20
0
70
1
40
0.800
41
0.800
0
VERTEX
5
bdf
100
AcDbEntity
  8
0-8_2_7
6
CONTINUOUS
62
3
100
AcDbVertex
100
AcDb2dVertex
10
1855.039
20
696.612
30
0.0
42
1.000
0
VERTEX
5
be0
100
AcDbEntity
  8
0-8_2_7
6
CONTINUOUS
62
3
100
AcDbVertex
100
AcDb2dVertex
10
1855.839
20
696.612
30
0.0
42
1.000
0
SEQEND
5
be1
100
AcDbEntity
  8
0-8_2_7
0
POLYLINE
5
be2
100
AcDbEntity
  8
0-1_2_0
6
CONTINUOUS
62
3
100
AcDb2dPolyline
66
1
10
0
20
0
70
1
40
0.800
41
0.800
0
VERTEX
5
be3
100
AcDbEntity
  8
0-1_2_0
6
CONTINUOUS
62
3
100
AcDbVertex
100
AcDb2dVertex
10
671.274
20
858.226
30
0.0
42
1.000
0
VERTEX
5
be4
100
AcDbEntity
  8
0-1_2_0
6
CONTINUOUS
62
3
100
AcDbVertex
100
AcDb2dVertex
10
672.074
20
858.226
30
0.0
42
1.000
0
SEQEND
5
be5
100
AcDbEntity
  8
0-1_2_0
0
POLYLINE
5
be6
100
AcDbEntity
  8
0-1_2_0
6
CONTINUOUS
62
3
100
AcDb2dPolyline
66
1
10
0
20
0
70
1
40
0.800
41
0.800
0
VERTEX
5
be7
100
AcDbEntity
  8
0-1_2_0
6
CONTINUOUS
62
3
100
AcDbVertex
100
AcDb2dVertex
10
820.326
20
828.416
30
0.0
42
1.000
0
VERTEX
5
be8
100
AcDbEntity
  8
0-1_2_0
6
CONTINUOUS
62
3
100
AcDbVertex
100
AcDb2dVertex
10
821.126
20
828.416
30
0.0
42
1.000
0
SEQEND
5
be9
100
AcDbEntity
  8
0-1_2_0
0
POLYLINE
5
bea
100
AcDbEntity
  8
1-1_2_16
6
CONTINUOUS
62
3
100
AcDb2dPolyline
66
1
10
0
20
0
70
1
40
0.800
41
0.800
0
VERTEX
5
beb
100
AcDbEntity
  8
1-1_2_16
6
CONTINUOUS
62
3
100
AcDbVertex
100
AcDb2dVertex
10
703.324
20
1093.467
30
0.0
42
1.000
0
VERTEX
5
bec
100
AcDbEntity
  8
1-1_2_16
6
CONTINUOUS
62
3
100
AcDbVertex
100
AcDb2dVertex
10
704.124
20
1093.467
30
0.0
42
1.000
0
SEQEND
5
bed
100
AcDbEntity
  8
1-1_2_16
0
POLYLINE
5
bee
100
AcDbEntity
  8
1-1_2_16
6
CONTINUOUS
62
3
100
AcDb2dPolyline
66
1
10
0
20
0
70
1
40
0.800
41
0.800
0
VERTEX
5
bef
100
AcDbEntity
  8
1-1_2_16
6
CONTINUOUS
62
3
100
AcDbVertex
100
AcDb2dVertex
10
703.324
20
1134.067
30
0.0
42
1.000
0
VERTEX
5
bf0
100
AcDbEntity
  8
1-1_2_16
6
CONTINUOUS
62
3
100
AcDbVertex
100
AcDb2dVertex
10
704.124
20
1134.067
30
0.0
42
1.000
0
SEQEND
5
bf1
100
AcDbEntity
  8
1-1_2_16
0
POLYLINE
5
bf2
100
AcDbEntity
  8
0-00
6
CONTINUOUS
62
3
100
AcDb2dPolyline
66
1
10
0
20
0
70
1
40
0.800
41
0.800
0
VERTEX
5
bf3
100
AcDbEntity
  8
0-00
6
CONTINUOUS
62
3
100
AcDbVertex
100
AcDb2dVertex
10
480.772
20
1401.632
30
0.0
42
1.000
0
VERTEX
5
bf4
100
AcDbEntity
  8
0-00
6
CONTINUOUS
62
3
100
AcDbVertex
100
AcDb2dVertex
10
481.572
20
1401.632
30
0.0
42
1.000
0
SEQEND
5
bf5
100
AcDbEntity
  8
0-00
0
POLYLINE
5
bf6
100
AcDbEntity
  8
0-00
6
CONTINUOUS
62
3
100
AcDb2dPolyline
66
1
10
0
20
0
70
1
40
0.800
41
0.800
0
VERTEX
5
bf7
100
AcDbEntity
  8
0-00
6
CONTINUOUS
62
3
100
AcDbVertex
100
AcDb2dVertex
10
809.572
20
1401.632
30
0.0
42
1.000
0
VERTEX
5
bf8
100
AcDbEntity
  8
0-00
6
CONTINUOUS
62
3
100
AcDbVertex
100
AcDb2dVertex
10
810.372
20
1401.632
30
0.0
42
1.000
0
SEQEND
5
bf9
100
AcDbEntity
  8
0-00
0
POLYLINE
5
bfa
100
AcDbEntity
  8
0-00
6
CONTINUOUS
62
3
100
AcDb2dPolyline
66
1
10
0
20
0
70
1
40
0.800
41
0.800
0
VERTEX
5
bfb
100
AcDbEntity
  8
0-00
6
CONTINUOUS
62
3
100
AcDbVertex
100
AcDb2dVertex
10
529.772
20
1316.308
30
0.0
42
1.000
0
VERTEX
5
bfc
100
AcDbEntity
  8
0-00
6
CONTINUOUS
62
3
100
AcDbVertex
100
AcDb2dVertex
10
530.572
20
1316.308
30
0.0
42
1.000
0
SEQEND
5
bfd
100
AcDbEntity
  8
0-00
0
POLYLINE
5
bfe
100
AcDbEntity
  8
0-00
6
CONTINUOUS
62
3
100
AcDb2dPolyline
66
1
10
0
20
0
70
1
40
0.800
41
0.800
0
VERTEX
5
bff
100
AcDbEntity
  8
0-00
6
CONTINUOUS
62
3
100
AcDbVertex
100
AcDb2dVertex
10
529.772
20
1336.908
30
0.0
42
1.000
0
VERTEX
5
c00
100
AcDbEntity
  8
0-00
6
CONTINUOUS
62
3
100
AcDbVertex
100
AcDb2dVertex
10
530.572
20
1336.908
30
0.0
42
1.000
0
SEQEND
5
c01
100
AcDbEntity
  8
0-00
0
POLYLINE
5
c02
100
AcDbEntity
  8
1-1_2_16
6
CONTINUOUS
62
3
100
AcDb2dPolyline
66
1
10
0
20
0
70
1
40
0.800
41
0.800
0
VERTEX
5
c03
100
AcDbEntity
  8
1-1_2_16
6
CONTINUOUS
62
3
100
AcDbVertex
100
AcDb2dVertex
10
678.352
20
1097.467
30
0.0
42
1.000
0
VERTEX
5
c04
100
AcDbEntity
  8
1-1_2_16
6
CONTINUOUS
62
3
100
AcDbVertex
100
AcDb2dVertex
10
679.152
20
1097.467
30
0.0
42
1.000
0
SEQEND
5
c05
100
AcDbEntity
  8
1-1_2_16
0
POLYLINE
5
c06
100
AcDbEntity
  8
1-1_2_16
6
CONTINUOUS
62
3
100
AcDb2dPolyline
66
1
10
0
20
0
70
1
40
0.800
41
0.800
0
VERTEX
5
c07
100
AcDbEntity
  8
1-1_2_16
6
CONTINUOUS
62
3
100
AcDbVertex
100
AcDb2dVertex
10
678.352
20
1134.067
30
0.0
42
1.000
0
VERTEX
5
c08
100
AcDbEntity
  8
1-1_2_16
6
CONTINUOUS
62
3
100
AcDbVertex
100
AcDb2dVertex
10
679.152
20
1134.067
30
0.0
42
1.000
0
SEQEND
5
c09
100
AcDbEntity
  8
1-1_2_16
0
ENDSEC
 0
SECTION
  2
OBJECTS
 0
DICTIONARY
  5
C
100
AcDbDictionary
  3
ACAD_GROUP
350
D
  3
ACAD_MLINESTYLE
350
E
 0
DICTIONARY
  5
D
102
{ACAD_REACTORS
102
}
100
AcDbDictionary
 0
DICTIONARY
  5
E
102
{ACAD_REACTORS
102
}
100
AcDbDictionary
  3
STANDARD
350
13
0
MLINESTYLE
  5
13
102
{ACAD_REACTORS
102
}
100
AcDbMlineStyle
  2
STANDARD
 70
    0
3

62
256
51
90.0
52
90.0
71
0
0
ACDBPLACEHOLDER
  5
14
102
{ACAD_REACTORS
102
}
0
ENDSEC
0
EOF
