0
SECTION
2
HEADER
9
$ACADVER
1
AC1015
9
$ACADMAINTVER
 70
6
9
$DWGCODEPAGE
3
ANSI_932
9
$EXTMIN
10
0.000
20
0.000
30
0.0
9
$EXTMAX
10
420.500
20
297.000
30
0.0
9
$LIMMIN
10
0.000
20
0.000
9
$LIMMAX
10
420.500
20
297.000
9
$DIMSCALE
40
0.500000
9
$LTSCALE
40
2.000
9
$PDMODE
70
0
9
$PDSIZE
40
40.0
9
$HANDSEED
5
61dee
9
$UNITMODE
70
0
9
$VISRETAIN
70
0
9
$PLINEGEN
70
0
9
$PSLTSCALE
70
1
9
$TREEDEPTH
70
3020
9
$CMLSTYLE
2
STANDARD
9
$CMLJUST
70
0
9
$CMLSCALE
40
1.0
9
$PROXYGRAPHICS
70
1
9
$MEASUREMENT
70
0
9
$CELWEIGHT
370
-1
9
$ENDCAPS
280
0
9
$JOINSTYLE
280
0
9
$LWDISPLAY
290
0
9
$INSUNITS
70
0
9
$HYPERLINKBASE
1

9
$STYLESHEET
1

9
$XEDIT
290
1
9
$CEPSNTYPE
380
0
9
$PSTYLEMODE
290
1
9
$FINGERPRINTGUID
2
{5F082321-0195-11D3-BDFB-0060B0CD5109}
9
$VERSIONGUID
2
{12943756-294D-11D3-98C2-0060B087942D}
9
$EXTNAMES
290
1
9
$PSVPSCALE
40
0.0
9
$OLESTARTUP
290
0
0
ENDSEC
0
SECTION
  2
CLASSES
0
ENDSEC
0
SECTION
2
TABLES
0
TABLE
2
VPORT
5
190
100
AcDbSymbolTable
70
2
0
VPORT
5
191
100
AcDbSymbolTableRecord
100
AcDbViewportTableRecord
2
*ACTIVE
70
0
10
0.0
20
0.0
11
1.0
21
1.0
12
210.250
22
148.500
13
0.0
23
0.0
14
1.0
24
1.0
15
0.0
25
0.0
16
0.0
26
0.0
36
1.0
17
0.0
27
0.0
37
0.0
40
304.710
41
2.0
42
50.0
43
0.0
44
0.0
50
0.0
51
0.0
71
0
72
1000
73
1
74
1
75
0
76
0
77
0
78
0
0
ENDTAB
0
TABLE
2
LTYPE
5
1f4
100
AcDbSymbolTable
70
9
0
LTYPE
5
1f5
100
AcDbSymbolTableRecord
100
AcDbLinetypeTableRecord
2
BYBLOCK
70
 64
3

72
 65
73
  0
40
0.0
0
LTYPE
5
1f6
100
AcDbSymbolTableRecord
100
AcDbLinetypeTableRecord
2
BYLAYER
70
 64
3

72
 65
73
  0
40
0.0
0
LTYPE
5
1f7
100
AcDbSymbolTableRecord
100
AcDbLinetypeTableRecord
2
CONTINUOUS
70
64
3
SolidLine
72
65
73
0
40
0.0
0
LTYPE
5
1f8
100
AcDbSymbolTableRecord
100
AcDbLinetypeTableRecord
2
DOT
70
64
3
--  --  --  --  --  --  --  --     
72
65
73
2
40
3.000
49
1.000
74
0
49
-2.000
74
0
0
LTYPE
5
1f9
100
AcDbSymbolTableRecord
100
AcDbLinetypeTableRecord
2
DASHED
70
64
3
----    ----    ----    ----    
72
65
73
2
40
5.000
49
2.000
74
0
49
-3.000
74
0
0
LTYPE
5
1fa
100
AcDbSymbolTableRecord
100
AcDbLinetypeTableRecord
2
DASHED2
70
64
3
------  ------  ------  ------ 
72
65
73
2
40
10.000
49
4.000
74
0
49
-6.000
74
0
0
LTYPE
5
1fb
100
AcDbSymbolTableRecord
100
AcDbLinetypeTableRecord
2
CENTER
70
64
3
----- - ----- - ----- - ----- - 
72
65
73
4
40
10.000
49
6.000
74
0
49
-3.000
74
0
49
1.000
74
0
49
-3.000
74
0
0
LTYPE
5
1fc
100
AcDbSymbolTableRecord
100
AcDbLinetypeTableRecord
2
CENTER2
70
64
3
----------  --  ----------  -- 
72
65
73
4
40
17.000
49
12.000
74
0
49
-5.000
74
0
49
2.000
74
0
49
-5.000
74
0
0
LTYPE
5
1fd
100
AcDbSymbolTableRecord
100
AcDbLinetypeTableRecord
2
PHANTOM
70
64
3
--- - - --- - - --- - - --- - -
72
65
73
6
40
13.000
49
5.000
74
0
49
-3.000
74
0
49
1.000
74
0
49
-3.000
74
0
49
1.000
74
0
49
-3.000
74
0
0
LTYPE
5
1fe
100
AcDbSymbolTableRecord
100
AcDbLinetypeTableRecord
2
PHANTOM2
70
64
3
--------  -  -  --------  -  -
72
65
73
6
40
20.000
49
6.000
74
0
49
-5.000
74
0
49
2.000
74
0
49
-5.000
74
0
49
2.000
74
0
49
-5.000
74
0
0
LTYPE
5
1ff
100
AcDbSymbolTableRecord
100
AcDbLinetypeTableRecord
2
HIDDEN
70
64
3
-   -   -   -   -   -   -   -   
72
65
73
2
40
3.000
49
0.500
74
0
49
-2.500
74
0
0
ENDTAB
0
TABLE
2
STYLE
5
200
100
AcDbSymbolTable
70
1
0
STYLE
5
201
100
AcDbSymbolTableRecord
100
AcDbTextStyleTableRecord
2
STANDARD
70
0
40
0.0
41
1.0
50
0.0
71
0
42
0.0
3
txt.shx
4
extfont.shx
0
STYLE
5
202
100
AcDbSymbolTableRecord
100
AcDbTextStyleTableRecord
2
TATEGAKI
70
4
40
0.0
41
1.0
50
0.0
71
0
42
0.0
3
txt.shx
4
extfont.shx
0
STYLE
5
203
100
AcDbSymbolTableRecord
100
AcDbTextStyleTableRecord
2
DIM
70
0
40
0.0
41
0.75
50
0.0
71
0
42
0.0
3
txt.shx
4
extfont.shx
0
STYLE
5
204
100
AcDbSymbolTableRecord
100
AcDbTextStyleTableRecord
2
_Gothic_
70
0
40
1.0
41
1.0
50
0.0
71
0
42
10.0
3

4

1001
ACAD
1000
MS Gothic
1071
32817
0
STYLE
5
205
100
AcDbSymbolTableRecord
100
AcDbTextStyleTableRecord
2
_TateGothic_
70
4
40
0.0
41
1.0
50
0.0
71
0
42
0.0
3
@MS Gothic
4

0
ENDTAB
0
TABLE
2
VIEW
5
206
100
AcDbSymbolTable
70
0
0
ENDTAB
0
TABLE
2
UCS
5
207
100
AcDbSymbolTable
70
0
0
ENDTAB
0
TABLE
2
APPID
5
208
100
AcDbSymbolTable
70
1
0
APPID
5
209
100
AcDbSymbolTableRecord
100
AcDbRegAppTableRecord
2
ACAD
70
0
0
ENDTAB
0
TABLE
2
DIMSTYLE
5
403
330
0
100
AcDbSymbolTable
70
1
100
AcDbDimStyleTable
71
0
0
DIMSTYLE
105
404
330
402
100
AcDbSymbolTableRecord
100
AcDbDimStyleTableRecord
2
JAC_DIM
70
0
41
1.000
42
0.000
44
0.0
73
0
74
0
77
1
78
8
79
2
140
0.000
170
0
171
2
172
0
173
0
174
0
175
0
176
0
177
0
178
0
270
2
271
0
272
0
273
2
274
2
340
201
275
0
280
0
281
0
282
0
283
0
284
0
285
0
286
0
287
3
288
0
0
ENDTAB
0
TABLE
2
BLOCK_RECORD
5
405
100
AcDbSymbolTable
70
0
0
BLOCK_RECORD
5
406
100
AcDbSymbolTableRecord
100
AcDbBlockTableRecord
2
*MODEL_SPACE
0
BLOCK_RECORD
5
407
100
AcDbSymbolTableRecord
100
AcDbBlockTableRecord
2
*PAPER_SPACE
0
BLOCK_RECORD
5
408
100
AcDbSymbolTableRecord
100
AcDbBlockTableRecord
2
_JACCONVERT_
0
ENDTAB
0
TABLE
2
LAYER
5
409
100
AcDbSymbolTable
70
10
0
LAYER
5
40a
100
AcDbSymbolTableRecord
100
AcDbLayerTableRecord
2
0
70
0
62
7
6
CONTINUOUS
370
-3
390
14
0
LAYER
5
40b
100
AcDbSymbolTableRecord
100
AcDbLayerTableRecord
2
0-00-0
70
0
62
7
6
CONTINUOUS
370
-3
390
14
0
LAYER
5
40c
100
AcDbSymbolTableRecord
100
AcDbLayerTableRecord
2
0-10-2
70
0
62
7
6
CONTINUOUS
370
-3
390
14
0
LAYER
5
40d
100
AcDbSymbolTableRecord
100
AcDbLayerTableRecord
2
0-20-4
70
0
62
7
6
CONTINUOUS
370
-3
390
14
0
LAYER
5
40e
100
AcDbSymbolTableRecord
100
AcDbLayerTableRecord
2
F-E_J_ADD
70
0
62
-7
6
CONTINUOUS
290
0
370
-3
390
14
0
LAYER
5
40f
100
AcDbSymbolTableRecord
100
AcDbLayerTableRecord
2
F-F
70
0
62
7
6
CONTINUOUS
370
-3
390
14
0
ENDTAB
0
ENDSEC
0
SECTION
2
BLOCKS
0
BLOCK
5
410
100
AcDbEntity
67
1
8
0
100
AcDbBlockBegin
2
*MODEL_SPACE
70
0
10
0.0
20
0.0
30
0.0
3
*MODEL_SPACE
1

0
ENDBLK
5
411
100
AcDbEntity
8
0
100
AcDbBlockEnd
0
BLOCK
5
412
100
AcDbEntity
67
1
8
0
100
AcDbBlockBegin
2
*PAPER_SPACE
70
0
10
0.0
20
0.0
30
0.0
3
*PAPER_SPACE
1

0
ENDBLK
5
413
100
AcDbEntity
67
1
8
0
100
AcDbBlockEnd
0
BLOCK
5
414
100
AcDbEntity
8
0
100
AcDbBlockBegin
2
_JACCONVERT_
70
2
10
0.0
20
0.0
30
0.0
3
_JACCONVERT_
1
_JACCONVERT_
0
ATTDEF
5
415
100
AcDbEntity
8
0
62
0
100
AcDbText
10
0.0
20
0.0
30
0.0
40
1.0
1
User:460950EB0890EC0964308A
100
AcDbAttributeDefinition
3

2
USER
70
8
0
ATTDEF
5
416
100
AcDbEntity
8
0
62
0
100
AcDbText
10
0.0
20
2.0
30
0.0
40
1.0
1
Date:15/06/06 14:01
100
AcDbAttributeDefinition
3

2
REVDATE
70
8
0
ATTDEF
5
417
100
AcDbEntity
8
0
62
0
100
AcDbText
10
0.0
20
4.0
30
0.0
40
1.0
1
File:DKライン330　断面図.dxf
100
AcDbAttributeDefinition
3

2
FNAME
70
8
0
ATTDEF
5
418
100
AcDbEntity
8
0
62
0
100
AcDbText
10
0.0
20
6.0
30
0.0
40
1.0
1
JacConvert Version3.09 copyright (c) 2001-2013 K.Nakahara
100
AcDbAttributeDefinition
3

2
VER
70
8
0
ENDBLK
5
419
100
AcDbEntity
67
1
8
0
100
AcDbBlockEnd
0
ENDSEC
0
SECTION
2
ENTITIES
0
LINE
5
41a
100
AcDbEntity
8
0-10-2
6
CONTINUOUS
62
7
100
AcDbLine
10
314.680000000000
20
153.400000000000
30
0.0
11
313.400000000000
21
152.110000000000
31
0.0
0
LINE
5
41b
100
AcDbEntity
8
0-10-2
6
CONTINUOUS
62
7
100
AcDbLine
10
313.700000000000
20
151.810000000000
30
0.0
11
314.980000000000
21
153.100000000000
31
0.0
0
LINE
5
41c
100
AcDbEntity
8
0-10-2
6
CONTINUOUS
62
7
100
AcDbLine
10
335.770000000000
20
153.100000000000
30
0.0
11
314.980000000000
21
153.100000000000
31
0.0
0
LINE
5
41d
100
AcDbEntity
8
0-10-2
6
CONTINUOUS
62
7
100
AcDbLine
10
336.190000000000
20
153.520000000000
30
0.0
11
336.190000000000
21
166.250000000000
31
0.0
0
LINE
5
41e
100
AcDbEntity
8
0-10-2
6
CONTINUOUS
62
7
100
AcDbLine
10
347.080000000000
20
166.670000000000
30
0.0
11
336.190000000000
21
166.670000000000
31
0.0
0
LINE
5
41f
100
AcDbEntity
8
0-10-2
6
CONTINUOUS
62
7
100
AcDbLine
10
347.500000000000
20
166.250000000000
30
0.0
11
347.500000000000
21
157.760000000000
31
0.0
0
POLYLINE
5
420
100
AcDbEntity
8
0-10-2
6
CONTINUOUS
62
  7
100
AcDb2dPolyline
66
1
10
0.0
20
0.0
30
0.0
70
0
0
VERTEX
5
421
100
AcDbEntity
8
0-10-2
6
CONTINUOUS
62
  7
100
AcDbVertex
100
AcDb2dVertex
10
336.190000000000
20
166.250000000000
30
0.0
0
VERTEX
5
422
100
AcDbEntity
8
0-10-2
6
CONTINUOUS
62
  7
100
AcDbVertex
100
AcDb2dVertex
10
347.080000000000
20
166.250000000000
30
0.0
0
VERTEX
5
423
100
AcDbEntity
8
0-10-2
6
CONTINUOUS
62
  7
100
AcDbVertex
100
AcDb2dVertex
10
347.080000000000
20
157.760000000000
30
0.0
0
VERTEX
5
424
100
AcDbEntity
8
0-10-2
6
CONTINUOUS
62
  7
100
AcDbVertex
100
AcDb2dVertex
10
347.500000000000
20
157.760000000000
30
0.0
0
SEQEND
5
425
100
AcDbEntity
8
0-10-2
0
LINE
5
426
100
AcDbEntity
8
0-10-2
6
CONTINUOUS
62
7
100
AcDbLine
10
335.770000000000
20
166.250000000000
30
0.0
11
335.770000000000
21
153.520000000000
31
0.0
0
LINE
5
427
100
AcDbEntity
8
0-10-2
6
CONTINUOUS
62
7
100
AcDbLine
10
125.910000000000
20
153.400000000000
30
0.0
11
127.200000000000
21
152.110000000000
31
0.0
0
LINE
5
428
100
AcDbEntity
8
0-10-2
6
CONTINUOUS
62
7
100
AcDbLine
10
126.900000000000
20
151.810000000000
30
0.0
11
125.610000000000
21
153.100000000000
31
0.0
0
LINE
5
429
100
AcDbEntity
8
0-10-2
6
CONTINUOUS
62
7
100
AcDbLine
10
104.820000000000
20
153.100000000000
30
0.0
11
125.610000000000
21
153.100000000000
31
0.0
0
LINE
5
42a
100
AcDbEntity
8
0-10-2
6
CONTINUOUS
62
7
100
AcDbLine
10
125.610000000000
20
153.520000000000
30
0.0
11
104.820000000000
21
153.520000000000
31
0.0
0
POLYLINE
5
42b
100
AcDbEntity
8
0-10-2
6
CONTINUOUS
62
  7
100
AcDb2dPolyline
66
1
10
0.0
20
0.0
30
0.0
70
0
0
VERTEX
5
42c
100
AcDbEntity
8
0-10-2
6
CONTINUOUS
62
  7
100
AcDbVertex
100
AcDb2dVertex
10
112.180000000000
20
164.480000000000
30
0.0
0
VERTEX
5
42d
100
AcDbEntity
8
0-10-2
6
CONTINUOUS
62
  7
100
AcDbVertex
100
AcDb2dVertex
10
104.820000000000
20
164.480000000000
30
0.0
0
VERTEX
5
42e
100
AcDbEntity
8
0-10-2
6
CONTINUOUS
62
  7
100
AcDbVertex
100
AcDb2dVertex
10
104.820000000000
20
153.520000000000
30
0.0
0
SEQEND
5
42f
100
AcDbEntity
8
0-10-2
0
LINE
5
430
100
AcDbEntity
8
0-10-2
6
CONTINUOUS
62
7
100
AcDbLine
10
112.180000000000
20
165.470000000000
30
0.0
11
103.760000000000
21
165.470000000000
31
0.0
0
LINE
5
431
100
AcDbEntity
8
0-10-2
6
CONTINUOUS
62
7
100
AcDbLine
10
103.760000000000
20
165.890000000000
30
0.0
11
112.180000000000
21
165.890000000000
31
0.0
0
LINE
5
432
100
AcDbEntity
8
0-10-2
6
CONTINUOUS
62
7
100
AcDbLine
10
104.820000000000
20
164.900000000000
30
0.0
11
112.180000000000
21
164.900000000000
31
0.0
0
LINE
5
433
100
AcDbEntity
8
0-10-2
6
CONTINUOUS
62
7
100
AcDbLine
10
104.400000000000
20
164.480000000000
30
0.0
11
104.400000000000
21
153.520000000000
31
0.0
0
LINE
5
434
100
AcDbEntity
8
0-10-2
6
CONTINUOUS
62
7
100
AcDbLine
10
103.760000000000
20
152.110000000000
30
0.0
11
103.760000000000
21
165.470000000000
31
0.0
0
LINE
5
435
100
AcDbEntity
8
0-10-2
6
CONTINUOUS
62
7
100
AcDbLine
10
103.340000000000
20
151.680000000000
30
0.0
11
90.330000000000
21
151.680000000000
31
0.0
0
LINE
5
436
100
AcDbEntity
8
0-10-2
6
CONTINUOUS
62
7
100
AcDbLine
10
91.750000000000
20
153.100000000000
30
0.0
11
90.330000000000
21
153.100000000000
31
0.0
0
LINE
5
437
100
AcDbEntity
8
0-10-2
6
CONTINUOUS
62
7
100
AcDbLine
10
91.750000000000
20
152.670000000000
30
0.0
11
91.750000000000
21
153.100000000000
31
0.0
0
LINE
5
438
100
AcDbEntity
8
0-10-2
6
CONTINUOUS
62
7
100
AcDbLine
10
91.750000000000
20
152.670000000000
30
0.0
11
90.330000000000
21
152.670000000000
31
0.0
0
LINE
5
439
100
AcDbEntity
8
0-20-4
6
CONTINUOUS
62
7
100
AcDbLine
10
130.180000000000
20
93.840000000000
30
0.0
11
131.470000000000
21
92.550000000000
31
0.0
0
LINE
5
43a
100
AcDbEntity
8
0-20-4
6
CONTINUOUS
62
7
100
AcDbLine
10
131.170000000000
20
92.250000000000
30
0.0
11
129.880000000000
21
93.540000000000
31
0.0
0
LINE
5
43b
100
AcDbEntity
8
0-20-4
6
CONTINUOUS
62
7
100
AcDbLine
10
109.100000000000
20
93.540000000000
30
0.0
11
129.880000000000
21
93.540000000000
31
0.0
0
LINE
5
43c
100
AcDbEntity
8
0-20-4
6
CONTINUOUS
62
7
100
AcDbLine
10
129.880000000000
20
93.970000000000
30
0.0
11
109.100000000000
21
93.970000000000
31
0.0
0
POLYLINE
5
43d
100
AcDbEntity
8
0-20-4
6
CONTINUOUS
62
  7
100
AcDb2dPolyline
66
1
10
0.0
20
0.0
30
0.0
70
0
0
VERTEX
5
43e
100
AcDbEntity
8
0-20-4
6
CONTINUOUS
62
  7
100
AcDbVertex
100
AcDb2dVertex
10
116.450000000000
20
104.920000000000
30
0.0
0
VERTEX
5
43f
100
AcDbEntity
8
0-20-4
6
CONTINUOUS
62
  7
100
AcDbVertex
100
AcDb2dVertex
10
109.100000000000
20
104.920000000000
30
0.0
0
VERTEX
5
440
100
AcDbEntity
8
0-20-4
6
CONTINUOUS
62
  7
100
AcDbVertex
100
AcDb2dVertex
10
109.100000000000
20
93.970000000000
30
0.0
0
SEQEND
5
441
100
AcDbEntity
8
0-20-4
0
LINE
5
442
100
AcDbEntity
8
0-20-4
6
CONTINUOUS
62
7
100
AcDbLine
10
116.450000000000
20
105.910000000000
30
0.0
11
108.040000000000
21
105.910000000000
31
0.0
0
LINE
5
443
100
AcDbEntity
8
0-20-4
6
CONTINUOUS
62
7
100
AcDbLine
10
108.040000000000
20
106.340000000000
30
0.0
11
116.450000000000
21
106.340000000000
31
0.0
0
LINE
5
444
100
AcDbEntity
8
0-20-4
6
CONTINUOUS
62
7
100
AcDbLine
10
109.100000000000
20
105.350000000000
30
0.0
11
116.450000000000
21
105.350000000000
31
0.0
0
LINE
5
445
100
AcDbEntity
8
0-20-4
6
CONTINUOUS
62
7
100
AcDbLine
10
108.670000000000
20
104.920000000000
30
0.0
11
108.670000000000
21
93.970000000000
31
0.0
0
LINE
5
446
100
AcDbEntity
8
0-20-4
6
CONTINUOUS
62
7
100
AcDbLine
10
107.610000000000
20
105.910000000000
30
0.0
11
107.610000000000
21
92.550000000000
31
0.0
0
LINE
5
447
100
AcDbEntity
8
0-20-4
6
CONTINUOUS
62
7
100
AcDbLine
10
108.040000000000
20
92.550000000000
30
0.0
11
108.040000000000
21
105.910000000000
31
0.0
0
LINE
5
448
100
AcDbEntity
8
0-20-4
6
CONTINUOUS
62
7
100
AcDbLine
10
107.610000000000
20
92.550000000000
30
0.0
11
94.600000000000
21
92.550000000000
31
0.0
0
LINE
5
449
100
AcDbEntity
8
0-20-4
6
CONTINUOUS
62
7
100
AcDbLine
10
107.610000000000
20
92.130000000000
30
0.0
11
94.600000000000
21
92.130000000000
31
0.0
0
LINE
5
44a
100
AcDbEntity
8
0-20-4
6
CONTINUOUS
62
7
100
AcDbLine
10
96.020000000000
20
93.540000000000
30
0.0
11
94.600000000000
21
93.540000000000
31
0.0
0
LINE
5
44b
100
AcDbEntity
8
0-20-4
6
CONTINUOUS
62
7
100
AcDbLine
10
96.020000000000
20
93.120000000000
30
0.0
11
96.020000000000
21
93.540000000000
31
0.0
0
LINE
5
44c
100
AcDbEntity
8
0-20-4
6
CONTINUOUS
62
7
100
AcDbLine
10
96.020000000000
20
93.120000000000
30
0.0
11
94.600000000000
21
93.120000000000
31
0.0
0
LINE
5
44d
100
AcDbEntity
8
0-20-4
6
CONTINUOUS
62
7
100
AcDbLine
10
85.430000000000
20
93.840000000000
30
0.0
11
84.140000000000
21
92.550000000000
31
0.0
0
LINE
5
44e
100
AcDbEntity
8
0-20-4
6
CONTINUOUS
62
7
100
AcDbLine
10
84.440000000000
20
92.250000000000
30
0.0
11
85.730000000000
21
93.540000000000
31
0.0
0
LINE
5
44f
100
AcDbEntity
8
0-20-4
6
CONTINUOUS
62
7
100
AcDbLine
10
106.520000000000
20
93.540000000000
30
0.0
11
85.730000000000
21
93.540000000000
31
0.0
0
LINE
5
450
100
AcDbEntity
8
0-20-4
6
CONTINUOUS
62
7
100
AcDbLine
10
106.940000000000
20
93.970000000000
30
0.0
11
106.940000000000
21
106.690000000000
31
0.0
0
LINE
5
451
100
AcDbEntity
8
0-20-4
6
CONTINUOUS
62
7
100
AcDbLine
10
117.830000000000
20
107.120000000000
30
0.0
11
106.940000000000
21
107.120000000000
31
0.0
0
LINE
5
452
100
AcDbEntity
8
0-20-4
6
CONTINUOUS
62
7
100
AcDbLine
10
118.250000000000
20
106.690000000000
30
0.0
11
118.250000000000
21
98.210000000000
31
0.0
0
POLYLINE
5
453
100
AcDbEntity
8
0-20-4
6
CONTINUOUS
62
  7
100
AcDb2dPolyline
66
1
10
0.0
20
0.0
30
0.0
70
0
0
VERTEX
5
454
100
AcDbEntity
8
0-20-4
6
CONTINUOUS
62
  7
100
AcDbVertex
100
AcDb2dVertex
10
106.940000000000
20
106.690000000000
30
0.0
0
VERTEX
5
455
100
AcDbEntity
8
0-20-4
6
CONTINUOUS
62
  7
100
AcDbVertex
100
AcDb2dVertex
10
117.830000000000
20
106.690000000000
30
0.0
0
VERTEX
5
456
100
AcDbEntity
8
0-20-4
6
CONTINUOUS
62
  7
100
AcDbVertex
100
AcDb2dVertex
10
117.830000000000
20
98.210000000000
30
0.0
0
VERTEX
5
457
100
AcDbEntity
8
0-20-4
6
CONTINUOUS
62
  7
100
AcDbVertex
100
AcDb2dVertex
10
118.250000000000
20
98.210000000000
30
0.0
0
SEQEND
5
458
100
AcDbEntity
8
0-20-4
0
LINE
5
459
100
AcDbEntity
8
0-20-4
6
CONTINUOUS
62
7
100
AcDbLine
10
85.730000000000
20
93.970000000000
30
0.0
11
106.520000000000
21
93.970000000000
31
0.0
0
LINE
5
45a
100
AcDbEntity
8
0-20-4
6
CONTINUOUS
62
7
100
AcDbLine
10
106.520000000000
20
106.690000000000
30
0.0
11
106.520000000000
21
93.970000000000
31
0.0
0
LINE
5
45b
100
AcDbEntity
8
0-10-2
6
CONTINUOUS
62
7
100
AcDbLine
10
219.550000000000
20
152.110000000000
30
0.0
11
127.200000000000
21
152.110000000000
31
0.0
0
LINE
5
45c
100
AcDbEntity
8
0-10-2
6
CONTINUOUS
62
7
100
AcDbLine
10
127.200000000000
20
151.680000000000
30
0.0
11
219.550000000000
21
151.680000000000
31
0.0
0
LINE
5
45d
100
AcDbEntity
8
0-10-2
6
CONTINUOUS
62
7
100
AcDbLine
10
219.550000000000
20
152.110000000000
30
0.0
11
313.400000000000
21
152.110000000000
31
0.0
0
LINE
5
45e
100
AcDbEntity
8
0-10-2
6
CONTINUOUS
62
7
100
AcDbLine
10
313.400000000000
20
151.680000000000
30
0.0
11
219.550000000000
21
151.680000000000
31
0.0
0
LINE
5
45f
100
AcDbEntity
8
0-20-4
6
CONTINUOUS
62
7
100
AcDbLine
10
90.300000000000
20
31.820000000000
30
0.0
11
88.890000000000
21
31.820000000000
31
0.0
0
LINE
5
460
100
AcDbEntity
8
0-20-4
6
CONTINUOUS
62
7
100
AcDbLine
10
90.300000000000
20
31.400000000000
30
0.0
11
90.300000000000
21
31.820000000000
31
0.0
0
LINE
5
461
100
AcDbEntity
8
0-20-4
6
CONTINUOUS
62
7
100
AcDbLine
10
90.300000000000
20
31.400000000000
30
0.0
11
88.890000000000
21
31.400000000000
31
0.0
0
LINE
5
462
100
AcDbEntity
8
0-20-4
6
CONTINUOUS
62
7
100
AcDbLine
10
79.720000000000
20
32.120000000000
30
0.0
11
78.430000000000
21
30.830000000000
31
0.0
0
LINE
5
463
100
AcDbEntity
8
0-20-4
6
CONTINUOUS
62
7
100
AcDbLine
10
78.730000000000
20
30.530000000000
30
0.0
11
80.020000000000
21
31.820000000000
31
0.0
0
LINE
5
464
100
AcDbEntity
8
0-20-4
6
CONTINUOUS
62
7
100
AcDbLine
10
78.430000000000
20
30.830000000000
30
0.0
11
47.780000000000
21
30.830000000000
31
0.0
0
LINE
5
465
100
AcDbEntity
8
0-20-4
6
CONTINUOUS
62
7
100
AcDbLine
10
47.780000000000
20
30.410000000000
30
0.0
11
78.430000000000
21
30.410000000000
31
0.0
0
LINE
5
466
100
AcDbEntity
8
0-20-4
6
CONTINUOUS
62
7
100
AcDbLine
10
124.040000000000
20
32.120000000000
30
0.0
11
125.330000000000
21
30.830000000000
31
0.0
0
LINE
5
467
100
AcDbEntity
8
0-20-4
6
CONTINUOUS
62
7
100
AcDbLine
10
125.030000000000
20
30.530000000000
30
0.0
11
123.740000000000
21
31.820000000000
31
0.0
0
LINE
5
468
100
AcDbEntity
8
0-20-4
6
CONTINUOUS
62
7
100
AcDbLine
10
101.890000000000
20
30.830000000000
30
0.0
11
88.890000000000
21
30.830000000000
31
0.0
0
LINE
5
469
100
AcDbEntity
8
0-20-4
6
CONTINUOUS
62
7
100
AcDbLine
10
80.020000000000
20
32.250000000000
30
0.0
11
101.050000000000
21
32.250000000000
31
0.0
0
LINE
5
46a
100
AcDbEntity
8
0-20-4
6
CONTINUOUS
62
7
100
AcDbLine
10
101.470000000000
20
31.820000000000
30
0.0
11
80.020000000000
21
31.820000000000
31
0.0
0
LINE
5
46b
100
AcDbEntity
8
0-20-4
6
CONTINUOUS
62
7
100
AcDbLine
10
102.320000000000
20
30.410000000000
30
0.0
11
88.890000000000
21
30.410000000000
31
0.0
0
LINE
5
46c
100
AcDbEntity
8
0-20-4
6
CONTINUOUS
62
7
100
AcDbLine
10
123.740000000000
20
32.250000000000
30
0.0
11
103.170000000000
21
32.250000000000
31
0.0
0
LINE
5
46d
100
AcDbEntity
8
0-20-4
6
CONTINUOUS
62
7
100
AcDbLine
10
102.740000000000
20
31.820000000000
30
0.0
11
123.740000000000
21
31.820000000000
31
0.0
0
LINE
5
46e
100
AcDbEntity
8
0-20-4
6
DASHED
62
7
100
AcDbLine
10
47.780000000000
20
30.060000000000
30
0.0
11
377.180000000000
21
30.060000000000
31
0.0
0
LINE
5
46f
100
AcDbEntity
8
0-20-4
6
CONTINUOUS
62
3
100
AcDbLine
10
47.780000000000
20
29.700000000000
30
0.0
11
377.180000000000
21
29.700000000000
31
0.0
0
LINE
5
470
100
AcDbEntity
8
0-20-4
6
CONTINUOUS
62
7
100
AcDbLine
10
336.020000000000
20
42.640000000000
30
0.0
11
336.440000000000
21
42.640000000000
31
0.0
0
LINE
5
471
100
AcDbEntity
8
0-20-4
6
CONTINUOUS
62
7
100
AcDbLine
10
322.730000000000
20
31.820000000000
30
0.0
11
321.310000000000
21
31.820000000000
31
0.0
0
LINE
5
472
100
AcDbEntity
8
0-20-4
6
CONTINUOUS
62
7
100
AcDbLine
10
322.730000000000
20
31.400000000000
30
0.0
11
322.730000000000
21
31.820000000000
31
0.0
0
LINE
5
473
100
AcDbEntity
8
0-20-4
6
CONTINUOUS
62
7
100
AcDbLine
10
322.730000000000
20
31.400000000000
30
0.0
11
321.310000000000
21
31.400000000000
31
0.0
0
LINE
5
474
100
AcDbEntity
8
0-20-4
6
CONTINUOUS
62
7
100
AcDbLine
10
312.140000000000
20
32.120000000000
30
0.0
11
310.850000000000
21
30.830000000000
31
0.0
0
LINE
5
475
100
AcDbEntity
8
0-20-4
6
CONTINUOUS
62
7
100
AcDbLine
10
311.150000000000
20
30.530000000000
30
0.0
11
312.440000000000
21
31.820000000000
31
0.0
0
LINE
5
476
100
AcDbEntity
8
0-20-4
6
CONTINUOUS
62
7
100
AcDbLine
10
388.400000000000
20
30.830000000000
30
0.0
11
357.750000000000
21
30.830000000000
31
0.0
0
LINE
5
477
100
AcDbEntity
8
0-20-4
6
CONTINUOUS
62
7
100
AcDbLine
10
356.460000000000
20
32.120000000000
30
0.0
11
357.750000000000
21
30.830000000000
31
0.0
0
LINE
5
478
100
AcDbEntity
8
0-20-4
6
CONTINUOUS
62
7
100
AcDbLine
10
357.450000000000
20
30.530000000000
30
0.0
11
356.160000000000
21
31.820000000000
31
0.0
0
LINE
5
479
100
AcDbEntity
8
0-20-4
6
CONTINUOUS
62
7
100
AcDbLine
10
357.750000000000
20
30.410000000000
30
0.0
11
388.400000000000
21
30.410000000000
31
0.0
0
LINE
5
47a
100
AcDbEntity
8
0-20-4
6
CONTINUOUS
62
7
100
AcDbLine
10
334.320000000000
20
30.830000000000
30
0.0
11
321.310000000000
21
30.830000000000
31
0.0
0
LINE
5
47b
100
AcDbEntity
8
0-20-4
6
CONTINUOUS
62
7
100
AcDbLine
10
334.320000000000
20
42.640000000000
30
0.0
11
334.320000000000
21
30.830000000000
31
0.0
0
LINE
5
47c
100
AcDbEntity
8
0-20-4
6
CONTINUOUS
62
7
100
AcDbLine
10
312.440000000000
20
32.250000000000
30
0.0
11
333.470000000000
21
32.250000000000
31
0.0
0
LINE
5
47d
100
AcDbEntity
8
0-20-4
6
CONTINUOUS
62
7
100
AcDbLine
10
333.470000000000
20
42.640000000000
30
0.0
11
333.470000000000
21
32.250000000000
31
0.0
0
LINE
5
47e
100
AcDbEntity
8
0-20-4
6
CONTINUOUS
62
7
100
AcDbLine
10
333.900000000000
20
31.820000000000
30
0.0
11
312.440000000000
21
31.820000000000
31
0.0
0
LINE
5
47f
100
AcDbEntity
8
0-20-4
6
CONTINUOUS
62
7
100
AcDbLine
10
333.900000000000
20
42.640000000000
30
0.0
11
333.900000000000
21
31.820000000000
31
0.0
0
LINE
5
480
100
AcDbEntity
8
0-20-4
6
CONTINUOUS
62
7
100
AcDbLine
10
334.750000000000
20
30.410000000000
30
0.0
11
321.310000000000
21
30.410000000000
31
0.0
0
LINE
5
481
100
AcDbEntity
8
0-20-4
6
CONTINUOUS
62
7
100
AcDbLine
10
334.750000000000
20
42.640000000000
30
0.0
11
334.750000000000
21
30.410000000000
31
0.0
0
LINE
5
482
100
AcDbEntity
8
0-20-4
6
CONTINUOUS
62
7
100
AcDbLine
10
335.590000000000
20
42.640000000000
30
0.0
11
335.590000000000
21
32.250000000000
31
0.0
0
LINE
5
483
100
AcDbEntity
8
0-20-4
6
CONTINUOUS
62
7
100
AcDbLine
10
356.160000000000
20
32.250000000000
30
0.0
11
335.590000000000
21
32.250000000000
31
0.0
0
POLYLINE
5
484
100
AcDbEntity
8
0-20-4
6
CONTINUOUS
62
  7
100
AcDb2dPolyline
66
1
10
0.0
20
0.0
30
0.0
70
0
0
VERTEX
5
485
100
AcDbEntity
8
0-20-4
6
CONTINUOUS
62
  7
100
AcDbVertex
100
AcDb2dVertex
10
335.170000000000
20
42.640000000000
30
0.0
0
VERTEX
5
486
100
AcDbEntity
8
0-20-4
6
CONTINUOUS
62
  7
100
AcDbVertex
100
AcDb2dVertex
10
335.170000000000
20
31.820000000000
30
0.0
0
VERTEX
5
487
100
AcDbEntity
8
0-20-4
6
CONTINUOUS
62
  7
100
AcDbVertex
100
AcDb2dVertex
10
356.160000000000
20
31.820000000000
30
0.0
0
SEQEND
5
488
100
AcDbEntity
8
0-20-4
0
LINE
5
489
100
AcDbEntity
8
0-20-4
6
CONTINUOUS
62
7
100
AcDbLine
10
338.990000000000
20
42.640000000000
30
0.0
11
338.990000000000
21
37.690000000000
31
0.0
0
LINE
5
48a
100
AcDbEntity
8
0-20-4
6
CONTINUOUS
62
7
100
AcDbLine
10
338.560000000000
20
42.640000000000
30
0.0
11
338.560000000000
21
37.690000000000
31
0.0
0
LINE
5
48b
100
AcDbEntity
8
0-20-4
6
CONTINUOUS
62
7
100
AcDbLine
10
338.140000000000
20
42.640000000000
30
0.0
11
338.140000000000
21
37.690000000000
31
0.0
0
LINE
5
48c
100
AcDbEntity
8
0-20-4
6
CONTINUOUS
62
7
100
AcDbLine
10
337.710000000000
20
42.640000000000
30
0.0
11
337.710000000000
21
37.690000000000
31
0.0
0
LINE
5
48d
100
AcDbEntity
8
0-20-4
6
CONTINUOUS
62
7
100
AcDbLine
10
337.290000000000
20
42.640000000000
30
0.0
11
337.290000000000
21
37.690000000000
31
0.0
0
LINE
5
48e
100
AcDbEntity
8
0-20-4
6
CONTINUOUS
62
7
100
AcDbLine
10
336.870000000000
20
42.640000000000
30
0.0
11
336.870000000000
21
37.690000000000
31
0.0
0
LINE
5
48f
100
AcDbEntity
8
0-20-4
6
CONTINUOUS
62
7
100
AcDbLine
10
336.440000000000
20
42.640000000000
30
0.0
11
336.440000000000
21
37.690000000000
31
0.0
0
LINE
5
490
100
AcDbEntity
8
0-20-4
6
CONTINUOUS
62
7
100
AcDbLine
10
336.020000000000
20
42.640000000000
30
0.0
11
336.020000000000
21
37.690000000000
31
0.0
0
LINE
5
491
100
AcDbEntity
8
0-20-4
6
CONTINUOUS
62
7
100
AcDbLine
10
218.320000000000
20
30.830000000000
30
0.0
11
125.330000000000
21
30.830000000000
31
0.0
0
LINE
5
492
100
AcDbEntity
8
0-20-4
6
CONTINUOUS
62
7
100
AcDbLine
10
125.330000000000
20
30.410000000000
30
0.0
11
218.320000000000
21
30.410000000000
31
0.0
0
LINE
5
493
100
AcDbEntity
8
0-20-4
6
CONTINUOUS
62
7
100
AcDbLine
10
310.850000000000
20
30.830000000000
30
0.0
11
218.320000000000
21
30.830000000000
31
0.0
0
LINE
5
494
100
AcDbEntity
8
0-20-4
6
CONTINUOUS
62
7
100
AcDbLine
10
218.320000000000
20
30.410000000000
30
0.0
11
310.850000000000
21
30.410000000000
31
0.0
0
LINE
5
495
100
AcDbEntity
8
0-10-2
6
CONTINUOUS
62
4
100
AcDbLine
10
103.340000000000
20
176.500000000000
30
0.0
11
112.880000000000
21
176.500000000000
31
0.0
0
LINE
5
496
100
AcDbEntity
8
0-10-2
6
CONTINUOUS
62
4
100
AcDbLine
10
112.880000000000
20
169.430000000000
30
0.0
11
112.880000000000
21
176.500000000000
31
0.0
0
LINE
5
497
100
AcDbEntity
8
0-10-2
6
CONTINUOUS
62
4
100
AcDbLine
10
103.340000000000
20
187.100000000000
30
0.0
11
335.770000000000
21
187.100000000000
31
0.0
0
LINE
5
498
100
AcDbEntity
8
0-10-2
6
CONTINUOUS
62
4
100
AcDbLine
10
103.340000000000
20
169.430000000000
30
0.0
11
103.340000000000
21
187.100000000000
31
0.0
0
LINE
5
499
100
AcDbEntity
8
0-10-2
6
CONTINUOUS
62
4
100
AcDbLine
10
335.770000000000
20
169.430000000000
30
0.0
11
335.770000000000
21
187.100000000000
31
0.0
0
LINE
5
49a
100
AcDbEntity
8
0-10-2
6
CONTINUOUS
62
4
100
AcDbLine
10
335.770000000000
20
176.500000000000
30
0.0
11
347.500000000000
21
176.500000000000
31
0.0
0
LINE
5
49b
100
AcDbEntity
8
0-10-2
6
CONTINUOUS
62
4
100
AcDbLine
10
347.500000000000
20
169.430000000000
30
0.0
11
347.500000000000
21
176.500000000000
31
0.0
0
LINE
5
49c
100
AcDbEntity
8
0-10-2
6
CONTINUOUS
62
4
100
AcDbLine
10
295.720000000000
20
152.110000000000
30
0.0
11
295.720000000000
21
166.670000000000
31
0.0
0
POLYLINE
5
49d
100
AcDbEntity
8
0-10-2
6
CONTINUOUS
62
  4
100
AcDb2dPolyline
66
1
10
0.0
20
0.0
30
0.0
70
0
0
VERTEX
5
49e
100
AcDbEntity
8
0-10-2
6
CONTINUOUS
62
  4
100
AcDbVertex
100
AcDb2dVertex
10
306.330000000000
20
151.680000000000
30
0.0
0
VERTEX
5
49f
100
AcDbEntity
8
0-10-2
6
CONTINUOUS
62
  4
100
AcDbVertex
100
AcDb2dVertex
10
306.330000000000
20
153.520000000000
30
0.0
0
VERTEX
5
4a0
100
AcDbEntity
8
0-10-2
6
CONTINUOUS
62
  4
100
AcDbVertex
100
AcDb2dVertex
10
306.330000000000
20
166.670000000000
30
0.0
0
SEQEND
5
4a1
100
AcDbEntity
8
0-10-2
0
LINE
5
4a2
100
AcDbEntity
8
0-10-2
6
CONTINUOUS
62
4
100
AcDbLine
10
332.230000000000
20
166.670000000000
30
0.0
11
295.720000000000
21
166.670000000000
31
0.0
0
LINE
5
4a3
100
AcDbEntity
8
0-10-2
6
CONTINUOUS
62
7
100
AcDbLine
10
314.980000000000
20
153.520000000000
30
0.0
11
335.770000000000
21
153.520000000000
31
0.0
0
LINE
5
4a4
100
AcDbEntity
8
0-10-2
6
CONTINUOUS
62
4
100
AcDbLine
10
311.150000000000
20
153.520000000000
30
0.0
11
306.330000000000
21
153.520000000000
31
0.0
0
LINE
5
4a5
100
AcDbEntity
8
0-10-2
6
CONTINUOUS
62
4
100
AcDbLine
10
358.110000000000
20
157.760000000000
30
0.0
11
358.110000000000
21
166.670000000000
31
0.0
0
LINE
5
4a6
100
AcDbEntity
8
0-10-2
6
CONTINUOUS
62
4
100
AcDbLine
10
351.040000000000
20
157.760000000000
30
0.0
11
358.110000000000
21
157.760000000000
31
0.0
0
LINE
5
4a7
100
AcDbEntity
8
0-10-2
6
CONTINUOUS
62
4
100
AcDbLine
10
351.040000000000
20
166.670000000000
30
0.0
11
358.110000000000
21
166.670000000000
31
0.0
0
LINE
5
4a8
100
AcDbEntity
8
0-10-2
6
CONTINUOUS
62
4
100
AcDbLine
10
89.630000000000
20
141.080000000000
30
0.0
11
103.760000000000
21
141.080000000000
31
0.0
0
LINE
5
4a9
100
AcDbEntity
8
0-10-2
6
CONTINUOUS
62
4
100
AcDbLine
10
89.630000000000
20
148.150000000000
30
0.0
11
89.630000000000
21
141.080000000000
31
0.0
0
LINE
5
4aa
100
AcDbEntity
8
0-10-2
6
CONTINUOUS
62
4
100
AcDbLine
10
103.760000000000
20
148.150000000000
30
0.0
11
103.760000000000
21
141.080000000000
31
0.0
0
LINE
5
4ab
100
AcDbEntity
8
0-10-2
6
CONTINUOUS
62
4
100
AcDbLine
10
99.810000000000
20
165.890000000000
30
0.0
11
82.560000000000
21
165.890000000000
31
0.0
0
LINE
5
4ac
100
AcDbEntity
8
0-10-2
6
CONTINUOUS
62
4
100
AcDbLine
10
132.780000000000
20
151.680000000000
30
0.0
11
132.780000000000
21
153.520000000000
31
0.0
0
LINE
5
4ad
100
AcDbEntity
8
0-10-2
6
CONTINUOUS
62
4
100
AcDbLine
10
127.960000000000
20
153.520000000000
30
0.0
11
132.780000000000
21
153.520000000000
31
0.0
0
LINE
5
4ae
100
AcDbEntity
8
0-10-2
6
CONTINUOUS
62
4
100
AcDbLine
10
116.420000000000
20
165.890000000000
30
0.0
11
143.380000000000
21
165.890000000000
31
0.0
0
LINE
5
4af
100
AcDbEntity
8
0-10-2
6
CONTINUOUS
62
4
100
AcDbLine
10
132.780000000000
20
153.520000000000
30
0.0
11
132.780000000000
21
165.890000000000
31
0.0
0
LINE
5
4b0
100
AcDbEntity
8
0-10-2
6
CONTINUOUS
62
4
100
AcDbLine
10
143.380000000000
20
152.110000000000
30
0.0
11
143.380000000000
21
165.890000000000
31
0.0
0
LINE
5
4b1
100
AcDbEntity
8
0-10-2
6
CONTINUOUS
62
4
100
AcDbLine
10
82.560000000000
20
152.110000000000
30
0.0
11
82.560000000000
21
165.890000000000
31
0.0
0
LINE
5
4b2
100
AcDbEntity
8
0-10-2
6
CONTINUOUS
62
4
100
AcDbLine
10
86.090000000000
20
152.110000000000
30
0.0
11
82.560000000000
21
152.110000000000
31
0.0
0
LINE
5
4b3
100
AcDbEntity
8
0-00-0
6
CONTINUOUS
62
7
100
AcDbLine
10
186.380000000000
20
508.540000000000
30
0.0
11
187.230000000000
21
508.540000000000
31
0.0
0
LINE
5
4b4
100
AcDbEntity
8
0-00-0
6
CONTINUOUS
62
7
100
AcDbLine
10
159.810000000000
20
486.910000000000
30
0.0
11
156.980000000000
21
486.910000000000
31
0.0
0
LINE
5
4b5
100
AcDbEntity
8
0-00-0
6
CONTINUOUS
62
7
100
AcDbLine
10
159.810000000000
20
486.060000000000
30
0.0
11
159.810000000000
21
486.910000000000
31
0.0
0
LINE
5
4b6
100
AcDbEntity
8
0-00-0
6
CONTINUOUS
62
7
100
AcDbLine
10
159.810000000000
20
486.060000000000
30
0.0
11
156.980000000000
21
486.060000000000
31
0.0
0
LINE
5
4b7
100
AcDbEntity
8
0-00-0
6
CONTINUOUS
62
7
100
AcDbLine
10
138.640000000000
20
487.510000000000
30
0.0
11
136.060000000000
21
484.930000000000
31
0.0
0
LINE
5
4b8
100
AcDbEntity
8
0-00-0
6
CONTINUOUS
62
7
100
AcDbLine
10
136.660000000000
20
484.330000000000
30
0.0
11
139.230000000000
21
486.910000000000
31
0.0
0
LINE
5
4b9
100
AcDbEntity
8
0-00-0
6
CONTINUOUS
62
7
100
AcDbLine
10
227.280000000000
20
487.510000000000
30
0.0
11
229.860000000000
21
484.930000000000
31
0.0
0
LINE
5
4ba
100
AcDbEntity
8
0-00-0
6
CONTINUOUS
62
7
100
AcDbLine
10
229.260000000000
20
484.330000000000
30
0.0
11
226.680000000000
21
486.910000000000
31
0.0
0
LINE
5
4bb
100
AcDbEntity
8
0-00-0
6
CONTINUOUS
62
7
100
AcDbLine
10
182.990000000000
20
484.930000000000
30
0.0
11
156.980000000000
21
484.930000000000
31
0.0
0
LINE
5
4bc
100
AcDbEntity
8
0-00-0
6
CONTINUOUS
62
7
100
AcDbLine
10
182.990000000000
20
508.540000000000
30
0.0
11
182.990000000000
21
484.930000000000
31
0.0
0
LINE
5
4bd
100
AcDbEntity
8
0-00-0
6
CONTINUOUS
62
7
100
AcDbLine
10
139.230000000000
20
487.760000000000
30
0.0
11
181.300000000000
21
487.760000000000
31
0.0
0
LINE
5
4be
100
AcDbEntity
8
0-00-0
6
CONTINUOUS
62
7
100
AcDbLine
10
181.300000000000
20
508.540000000000
30
0.0
11
181.300000000000
21
487.760000000000
31
0.0
0
LINE
5
4bf
100
AcDbEntity
8
0-00-0
6
CONTINUOUS
62
7
100
AcDbLine
10
182.140000000000
20
486.910000000000
30
0.0
11
139.230000000000
21
486.910000000000
31
0.0
0
LINE
5
4c0
100
AcDbEntity
8
0-00-0
6
CONTINUOUS
62
7
100
AcDbLine
10
182.140000000000
20
508.540000000000
30
0.0
11
182.140000000000
21
486.910000000000
31
0.0
0
LINE
5
4c1
100
AcDbEntity
8
0-00-0
6
CONTINUOUS
62
7
100
AcDbLine
10
183.840000000000
20
484.080000000000
30
0.0
11
156.980000000000
21
484.080000000000
31
0.0
0
LINE
5
4c2
100
AcDbEntity
8
0-00-0
6
CONTINUOUS
62
7
100
AcDbLine
10
183.840000000000
20
508.540000000000
30
0.0
11
183.840000000000
21
484.080000000000
31
0.0
0
LINE
5
4c3
100
AcDbEntity
8
0-00-0
6
CONTINUOUS
62
7
100
AcDbLine
10
185.540000000000
20
508.540000000000
30
0.0
11
185.540000000000
21
487.760000000000
31
0.0
0
LINE
5
4c4
100
AcDbEntity
8
0-00-0
6
CONTINUOUS
62
7
100
AcDbLine
10
226.680000000000
20
487.760000000000
30
0.0
11
185.540000000000
21
487.760000000000
31
0.0
0
POLYLINE
5
4c5
100
AcDbEntity
8
0-00-0
6
CONTINUOUS
62
  7
100
AcDb2dPolyline
66
1
10
0.0
20
0.0
30
0.0
70
0
0
VERTEX
5
4c6
100
AcDbEntity
8
0-00-0
6
CONTINUOUS
62
  7
100
AcDbVertex
100
AcDb2dVertex
10
184.690000000000
20
508.540000000000
30
0.0
0
VERTEX
5
4c7
100
AcDbEntity
8
0-00-0
6
CONTINUOUS
62
  7
100
AcDbVertex
100
AcDb2dVertex
10
184.690000000000
20
486.910000000000
30
0.0
0
VERTEX
5
4c8
100
AcDbEntity
8
0-00-0
6
CONTINUOUS
62
  7
100
AcDbVertex
100
AcDb2dVertex
10
226.680000000000
20
486.910000000000
30
0.0
0
SEQEND
5
4c9
100
AcDbEntity
8
0-00-0
0
LINE
5
4ca
100
AcDbEntity
8
0-00-0
6
CONTINUOUS
62
7
100
AcDbLine
10
192.320000000000
20
508.540000000000
30
0.0
11
192.320000000000
21
498.640000000000
31
0.0
0
LINE
5
4cb
100
AcDbEntity
8
0-00-0
6
CONTINUOUS
62
7
100
AcDbLine
10
191.470000000000
20
508.540000000000
30
0.0
11
191.470000000000
21
498.640000000000
31
0.0
0
LINE
5
4cc
100
AcDbEntity
8
0-00-0
6
CONTINUOUS
62
7
100
AcDbLine
10
190.630000000000
20
508.540000000000
30
0.0
11
190.630000000000
21
498.640000000000
31
0.0
0
LINE
5
4cd
100
AcDbEntity
8
0-00-0
6
CONTINUOUS
62
7
100
AcDbLine
10
189.780000000000
20
508.540000000000
30
0.0
11
189.780000000000
21
498.640000000000
31
0.0
0
LINE
5
4ce
100
AcDbEntity
8
0-00-0
6
CONTINUOUS
62
7
100
AcDbLine
10
188.930000000000
20
508.540000000000
30
0.0
11
188.930000000000
21
498.640000000000
31
0.0
0
LINE
5
4cf
100
AcDbEntity
8
0-00-0
6
CONTINUOUS
62
7
100
AcDbLine
10
188.080000000000
20
508.540000000000
30
0.0
11
188.080000000000
21
498.640000000000
31
0.0
0
LINE
5
4d0
100
AcDbEntity
8
0-00-0
6
CONTINUOUS
62
7
100
AcDbLine
10
187.230000000000
20
508.540000000000
30
0.0
11
187.230000000000
21
498.640000000000
31
0.0
0
LINE
5
4d1
100
AcDbEntity
8
0-00-0
6
CONTINUOUS
62
7
100
AcDbLine
10
186.380000000000
20
508.540000000000
30
0.0
11
186.380000000000
21
498.640000000000
31
0.0
0
LINE
5
4d2
100
AcDbEntity
8
0-00-0
6
CONTINUOUS
62
7
100
AcDbLine
10
136.060000000000
20
484.930000000000
30
0.0
11
112.730000000000
21
484.930000000000
31
0.0
0
LINE
5
4d3
100
AcDbEntity
8
0-00-0
6
CONTINUOUS
62
7
100
AcDbLine
10
112.730000000000
20
484.080000000000
30
0.0
11
136.060000000000
21
484.080000000000
31
0.0
0
LINE
5
4d4
100
AcDbEntity
8
0-00-0
6
CONTINUOUS
62
7
100
AcDbLine
10
254.110000000000
20
484.930000000000
30
0.0
11
229.860000000000
21
484.930000000000
31
0.0
0
LINE
5
4d5
100
AcDbEntity
8
0-00-0
6
CONTINUOUS
62
7
100
AcDbLine
10
229.860000000000
20
484.080000000000
30
0.0
11
254.110000000000
21
484.080000000000
31
0.0
0
LINE
5
4d6
100
AcDbEntity
8
0-00-0
6
DASHED
62
7
100
AcDbLine
10
112.730000000000
20
483.380000000000
30
0.0
11
254.110000000000
21
483.380000000000
31
0.0
0
LINE
5
4d7
100
AcDbEntity
8
0-00-0
6
CONTINUOUS
62
3
100
AcDbLine
10
112.730000000000
20
482.670000000000
30
0.0
11
254.110000000000
21
482.670000000000
31
0.0
0
LINE
5
4d8
100
AcDbEntity
8
0-00-0
6
CONTINUOUS
62
4
100
AcDbLine
10
187.230000000000
20
508.540000000000
30
0.0
11
188.080000000000
21
508.540000000000
31
0.0
0
LINE
5
4d9
100
AcDbEntity
8
0-00-0
6
CONTINUOUS
62
4
100
AcDbLine
10
182.990000000000
20
493.980000000000
30
0.0
11
182.140000000000
21
493.980000000000
31
0.0
0
LINE
5
4da
100
AcDbEntity
8
0-00-0
6
CONTINUOUS
62
4
100
AcDbLine
10
189.320000000000
20
496.520000000000
30
0.0
11
191.470000000000
21
498.670000000000
31
0.0
0
LINE
5
4db
100
AcDbEntity
8
0-00-0
6
CONTINUOUS
62
4
100
AcDbLine
10
188.500000000000
20
496.700000000000
30
0.0
11
189.180000000000
21
497.380000000000
31
0.0
0
LINE
5
4dc
100
AcDbEntity
8
0-00-0
6
CONTINUOUS
62
4
100
AcDbLine
10
190.630000000000
20
498.830000000000
30
0.0
11
191.470000000000
21
499.670000000000
31
0.0
0
LINE
5
4dd
100
AcDbEntity
8
0-00-0
6
CONTINUOUS
62
4
100
AcDbLine
10
187.900000000000
20
497.100000000000
30
0.0
11
188.500000000000
21
497.700000000000
31
0.0
0
LINE
5
4de
100
AcDbEntity
8
0-00-0
6
CONTINUOUS
62
4
100
AcDbLine
10
190.630000000000
20
499.830000000000
30
0.0
11
191.470000000000
21
500.670000000000
31
0.0
0
LINE
5
4df
100
AcDbEntity
8
0-00-0
6
CONTINUOUS
62
4
100
AcDbLine
10
187.470000000000
20
497.670000000000
30
0.0
11
188.120000000000
21
498.320000000000
31
0.0
0
LINE
5
4e0
100
AcDbEntity
8
0-00-0
6
CONTINUOUS
62
4
100
AcDbLine
10
190.630000000000
20
500.830000000000
30
0.0
11
191.470000000000
21
501.670000000000
31
0.0
0
LINE
5
4e1
100
AcDbEntity
8
0-00-0
6
CONTINUOUS
62
4
100
AcDbLine
10
182.780000000000
20
493.980000000000
30
0.0
11
182.990000000000
21
494.190000000000
31
0.0
0
LINE
5
4e2
100
AcDbEntity
8
0-00-0
6
CONTINUOUS
62
4
100
AcDbLine
10
187.240000000000
20
498.440000000000
30
0.0
11
188.080000000000
21
499.280000000000
31
0.0
0
LINE
5
4e3
100
AcDbEntity
8
0-00-0
6
CONTINUOUS
62
4
100
AcDbLine
10
190.630000000000
20
501.820000000000
30
0.0
11
191.470000000000
21
502.670000000000
31
0.0
0
LINE
5
4e4
100
AcDbEntity
8
0-00-0
6
CONTINUOUS
62
4
100
AcDbLine
10
182.140000000000
20
494.340000000000
30
0.0
11
182.990000000000
21
495.190000000000
31
0.0
0
LINE
5
4e5
100
AcDbEntity
8
0-00-0
6
CONTINUOUS
62
4
100
AcDbLine
10
187.230000000000
20
499.430000000000
30
0.0
11
188.080000000000
21
500.280000000000
31
0.0
0
LINE
5
4e6
100
AcDbEntity
8
0-00-0
6
CONTINUOUS
62
4
100
AcDbLine
10
190.630000000000
20
502.820000000000
30
0.0
11
191.470000000000
21
503.670000000000
31
0.0
0
LINE
5
4e7
100
AcDbEntity
8
0-00-0
6
CONTINUOUS
62
4
100
AcDbLine
10
182.140000000000
20
495.340000000000
30
0.0
11
182.990000000000
21
496.190000000000
31
0.0
0
LINE
5
4e8
100
AcDbEntity
8
0-00-0
6
CONTINUOUS
62
4
100
AcDbLine
10
187.230000000000
20
500.430000000000
30
0.0
11
188.080000000000
21
501.280000000000
31
0.0
0
LINE
5
4e9
100
AcDbEntity
8
0-00-0
6
CONTINUOUS
62
4
100
AcDbLine
10
190.630000000000
20
503.820000000000
30
0.0
11
191.470000000000
21
504.670000000000
31
0.0
0
LINE
5
4ea
100
AcDbEntity
8
0-00-0
6
CONTINUOUS
62
4
100
AcDbLine
10
182.140000000000
20
496.340000000000
30
0.0
11
182.990000000000
21
497.190000000000
31
0.0
0
LINE
5
4eb
100
AcDbEntity
8
0-00-0
6
CONTINUOUS
62
4
100
AcDbLine
10
187.230000000000
20
501.430000000000
30
0.0
11
188.080000000000
21
502.280000000000
31
0.0
0
LINE
5
4ec
100
AcDbEntity
8
0-00-0
6
CONTINUOUS
62
4
100
AcDbLine
10
190.630000000000
20
504.820000000000
30
0.0
11
191.470000000000
21
505.670000000000
31
0.0
0
LINE
5
4ed
100
AcDbEntity
8
0-00-0
6
CONTINUOUS
62
4
100
AcDbLine
10
182.140000000000
20
497.340000000000
30
0.0
11
182.990000000000
21
498.190000000000
31
0.0
0
LINE
5
4ee
100
AcDbEntity
8
0-00-0
6
CONTINUOUS
62
4
100
AcDbLine
10
187.230000000000
20
502.430000000000
30
0.0
11
188.080000000000
21
503.280000000000
31
0.0
0
LINE
5
4ef
100
AcDbEntity
8
0-00-0
6
CONTINUOUS
62
4
100
AcDbLine
10
190.630000000000
20
505.820000000000
30
0.0
11
191.470000000000
21
506.670000000000
31
0.0
0
LINE
5
4f0
100
AcDbEntity
8
0-00-0
6
CONTINUOUS
62
4
100
AcDbLine
10
182.140000000000
20
498.340000000000
30
0.0
11
182.990000000000
21
499.190000000000
31
0.0
0
LINE
5
4f1
100
AcDbEntity
8
0-00-0
6
CONTINUOUS
62
4
100
AcDbLine
10
187.230000000000
20
503.430000000000
30
0.0
11
188.080000000000
21
504.280000000000
31
0.0
0
LINE
5
4f2
100
AcDbEntity
8
0-00-0
6
CONTINUOUS
62
4
100
AcDbLine
10
190.630000000000
20
506.820000000000
30
0.0
11
191.470000000000
21
507.670000000000
31
0.0
0
LINE
5
4f3
100
AcDbEntity
8
0-00-0
6
CONTINUOUS
62
4
100
AcDbLine
10
182.140000000000
20
499.340000000000
30
0.0
11
182.990000000000
21
500.190000000000
31
0.0
0
LINE
5
4f4
100
AcDbEntity
8
0-00-0
6
CONTINUOUS
62
4
100
AcDbLine
10
187.230000000000
20
504.430000000000
30
0.0
11
188.080000000000
21
505.280000000000
31
0.0
0
LINE
5
4f5
100
AcDbEntity
8
0-00-0
6
CONTINUOUS
62
4
100
AcDbLine
10
190.630000000000
20
507.820000000000
30
0.0
11
191.470000000000
21
508.670000000000
31
0.0
0
LINE
5
4f6
100
AcDbEntity
8
0-00-0
6
CONTINUOUS
62
4
100
AcDbLine
10
182.140000000000
20
500.340000000000
30
0.0
11
182.990000000000
21
501.190000000000
31
0.0
0
LINE
5
4f7
100
AcDbEntity
8
0-00-0
6
CONTINUOUS
62
4
100
AcDbLine
10
187.230000000000
20
505.430000000000
30
0.0
11
188.080000000000
21
506.280000000000
31
0.0
0
LINE
5
4f8
100
AcDbEntity
8
0-00-0
6
CONTINUOUS
62
4
100
AcDbLine
10
190.620000000000
20
508.810000000000
30
0.0
11
191.360000000000
21
509.560000000000
31
0.0
0
LINE
5
4f9
100
AcDbEntity
8
0-00-0
6
CONTINUOUS
62
4
100
AcDbLine
10
182.140000000000
20
501.340000000000
30
0.0
11
182.990000000000
21
502.190000000000
31
0.0
0
LINE
5
4fa
100
AcDbEntity
8
0-00-0
6
CONTINUOUS
62
4
100
AcDbLine
10
187.230000000000
20
506.430000000000
30
0.0
11
188.080000000000
21
507.280000000000
31
0.0
0
LINE
5
4fb
100
AcDbEntity
8
0-00-0
6
CONTINUOUS
62
4
100
AcDbLine
10
190.460000000000
20
509.660000000000
30
0.0
11
191.120000000000
21
510.320000000000
31
0.0
0
LINE
5
4fc
100
AcDbEntity
8
0-00-0
6
CONTINUOUS
62
4
100
AcDbLine
10
182.140000000000
20
502.340000000000
30
0.0
11
182.990000000000
21
503.190000000000
31
0.0
0
LINE
5
4fd
100
AcDbEntity
8
0-00-0
6
CONTINUOUS
62
4
100
AcDbLine
10
187.230000000000
20
507.430000000000
30
0.0
11
188.080000000000
21
508.280000000000
31
0.0
0
LINE
5
4fe
100
AcDbEntity
8
0-00-0
6
CONTINUOUS
62
4
100
AcDbLine
10
190.160000000000
20
510.360000000000
30
0.0
11
190.790000000000
21
510.980000000000
31
0.0
0
LINE
5
4ff
100
AcDbEntity
8
0-00-0
6
CONTINUOUS
62
4
100
AcDbLine
10
182.140000000000
20
503.340000000000
30
0.0
11
182.990000000000
21
504.190000000000
31
0.0
0
LINE
5
500
100
AcDbEntity
8
0-00-0
6
CONTINUOUS
62
4
100
AcDbLine
10
187.230000000000
20
508.430000000000
30
0.0
11
187.350000000000
21
508.540000000000
31
0.0
0
LINE
5
501
100
AcDbEntity
8
0-00-0
6
CONTINUOUS
62
4
100
AcDbLine
10
189.760000000000
20
510.960000000000
30
0.0
11
190.370000000000
21
511.560000000000
31
0.0
0
LINE
5
502
100
AcDbEntity
8
0-00-0
6
CONTINUOUS
62
4
100
AcDbLine
10
182.140000000000
20
504.340000000000
30
0.0
11
182.990000000000
21
505.190000000000
31
0.0
0
LINE
5
503
100
AcDbEntity
8
0-00-0
6
CONTINUOUS
62
4
100
AcDbLine
10
189.270000000000
20
511.460000000000
30
0.0
11
189.870000000000
21
512.060000000000
31
0.0
0
LINE
5
504
100
AcDbEntity
8
0-00-0
6
CONTINUOUS
62
4
100
AcDbLine
10
182.140000000000
20
505.340000000000
30
0.0
11
182.990000000000
21
506.190000000000
31
0.0
0
LINE
5
505
100
AcDbEntity
8
0-00-0
6
CONTINUOUS
62
4
100
AcDbLine
10
188.680000000000
20
511.870000000000
30
0.0
11
189.290000000000
21
512.490000000000
31
0.0
0
LINE
5
506
100
AcDbEntity
8
0-00-0
6
CONTINUOUS
62
4
100
AcDbLine
10
182.140000000000
20
506.340000000000
30
0.0
11
182.990000000000
21
507.190000000000
31
0.0
0
LINE
5
507
100
AcDbEntity
8
0-00-0
6
CONTINUOUS
62
4
100
AcDbLine
10
187.980000000000
20
512.170000000000
30
0.0
11
188.640000000000
21
512.830000000000
31
0.0
0
LINE
5
508
100
AcDbEntity
8
0-00-0
6
CONTINUOUS
62
4
100
AcDbLine
10
182.140000000000
20
507.340000000000
30
0.0
11
182.990000000000
21
508.190000000000
31
0.0
0
LINE
5
509
100
AcDbEntity
8
0-00-0
6
CONTINUOUS
62
4
100
AcDbLine
10
187.150000000000
20
512.340000000000
30
0.0
11
187.890000000000
21
513.080000000000
31
0.0
0
LINE
5
50a
100
AcDbEntity
8
0-00-0
6
CONTINUOUS
62
4
100
AcDbLine
10
182.140000000000
20
508.340000000000
30
0.0
11
183.060000000000
21
509.250000000000
31
0.0
0
LINE
5
50b
100
AcDbEntity
8
0-00-0
6
CONTINUOUS
62
4
100
AcDbLine
10
186.100000000000
20
512.290000000000
30
0.0
11
187.010000000000
21
513.200000000000
31
0.0
0
LINE
5
50c
100
AcDbEntity
8
0-00-0
6
CONTINUOUS
62
4
100
AcDbLine
10
182.230000000000
20
509.420000000000
30
0.0
11
185.930000000000
21
513.120000000000
31
0.0
0
LINE
5
50d
100
AcDbEntity
8
0-00-0
6
CONTINUOUS
62
4
100
AcDbLine
10
182.910000000000
20
511.100000000000
30
0.0
11
184.250000000000
21
512.440000000000
31
0.0
0
LINE
5
50e
100
AcDbEntity
8
0-00-0
6
CONTINUOUS
62
4
100
AcDbLine
10
182.140000000000
20
494.240000000000
30
0.0
11
182.400000000000
21
493.980000000000
31
0.0
0
LINE
5
50f
100
AcDbEntity
8
0-00-0
6
CONTINUOUS
62
4
100
AcDbLine
10
182.140000000000
20
495.240000000000
30
0.0
11
182.990000000000
21
494.390000000000
31
0.0
0
LINE
5
510
100
AcDbEntity
8
0-00-0
6
CONTINUOUS
62
4
100
AcDbLine
10
182.140000000000
20
496.240000000000
30
0.0
11
182.990000000000
21
495.390000000000
31
0.0
0
LINE
5
511
100
AcDbEntity
8
0-00-0
6
CONTINUOUS
62
4
100
AcDbLine
10
182.140000000000
20
497.240000000000
30
0.0
11
182.990000000000
21
496.390000000000
31
0.0
0
LINE
5
512
100
AcDbEntity
8
0-00-0
6
CONTINUOUS
62
4
100
AcDbLine
10
182.140000000000
20
498.240000000000
30
0.0
11
182.990000000000
21
497.390000000000
31
0.0
0
LINE
5
513
100
AcDbEntity
8
0-00-0
6
CONTINUOUS
62
4
100
AcDbLine
10
182.140000000000
20
499.240000000000
30
0.0
11
182.990000000000
21
498.390000000000
31
0.0
0
LINE
5
514
100
AcDbEntity
8
0-00-0
6
CONTINUOUS
62
4
100
AcDbLine
10
182.140000000000
20
500.240000000000
30
0.0
11
182.990000000000
21
499.390000000000
31
0.0
0
LINE
5
515
100
AcDbEntity
8
0-00-0
6
CONTINUOUS
62
4
100
AcDbLine
10
182.140000000000
20
501.240000000000
30
0.0
11
182.990000000000
21
500.390000000000
31
0.0
0
LINE
5
516
100
AcDbEntity
8
0-00-0
6
CONTINUOUS
62
4
100
AcDbLine
10
182.140000000000
20
502.230000000000
30
0.0
11
182.990000000000
21
501.390000000000
31
0.0
0
LINE
5
517
100
AcDbEntity
8
0-00-0
6
CONTINUOUS
62
4
100
AcDbLine
10
182.140000000000
20
503.230000000000
30
0.0
11
182.990000000000
21
502.390000000000
31
0.0
0
LINE
5
518
100
AcDbEntity
8
0-00-0
6
CONTINUOUS
62
4
100
AcDbLine
10
187.310000000000
20
498.060000000000
30
0.0
11
188.770000000000
21
496.600000000000
31
0.0
0
LINE
5
519
100
AcDbEntity
8
0-00-0
6
CONTINUOUS
62
4
100
AcDbLine
10
182.140000000000
20
504.230000000000
30
0.0
11
182.990000000000
21
503.390000000000
31
0.0
0
LINE
5
51a
100
AcDbEntity
8
0-00-0
6
CONTINUOUS
62
4
100
AcDbLine
10
187.230000000000
20
499.140000000000
30
0.0
11
188.150000000000
21
498.230000000000
31
0.0
0
LINE
5
51b
100
AcDbEntity
8
0-00-0
6
CONTINUOUS
62
4
100
AcDbLine
10
188.930000000000
20
497.440000000000
30
0.0
11
189.810000000000
21
496.570000000000
31
0.0
0
LINE
5
51c
100
AcDbEntity
8
0-00-0
6
CONTINUOUS
62
4
100
AcDbLine
10
182.140000000000
20
505.230000000000
30
0.0
11
182.990000000000
21
504.390000000000
31
0.0
0
LINE
5
51d
100
AcDbEntity
8
0-00-0
6
CONTINUOUS
62
4
100
AcDbLine
10
187.230000000000
20
500.140000000000
30
0.0
11
188.080000000000
21
499.300000000000
31
0.0
0
LINE
5
51e
100
AcDbEntity
8
0-00-0
6
CONTINUOUS
62
4
100
AcDbLine
10
189.890000000000
20
497.490000000000
30
0.0
11
190.510000000000
21
496.870000000000
31
0.0
0
LINE
5
51f
100
AcDbEntity
8
0-00-0
6
CONTINUOUS
62
4
100
AcDbLine
10
182.140000000000
20
506.230000000000
30
0.0
11
182.990000000000
21
505.390000000000
31
0.0
0
LINE
5
520
100
AcDbEntity
8
0-00-0
6
CONTINUOUS
62
4
100
AcDbLine
10
187.230000000000
20
501.140000000000
30
0.0
11
188.080000000000
21
500.300000000000
31
0.0
0
LINE
5
521
100
AcDbEntity
8
0-00-0
6
CONTINUOUS
62
4
100
AcDbLine
10
190.420000000000
20
497.950000000000
30
0.0
11
191.030000000000
21
497.350000000000
31
0.0
0
LINE
5
522
100
AcDbEntity
8
0-00-0
6
CONTINUOUS
62
4
100
AcDbLine
10
182.140000000000
20
507.230000000000
30
0.0
11
182.990000000000
21
506.390000000000
31
0.0
0
LINE
5
523
100
AcDbEntity
8
0-00-0
6
CONTINUOUS
62
4
100
AcDbLine
10
187.230000000000
20
502.140000000000
30
0.0
11
188.080000000000
21
501.300000000000
31
0.0
0
LINE
5
524
100
AcDbEntity
8
0-00-0
6
CONTINUOUS
62
4
100
AcDbLine
10
190.630000000000
20
498.750000000000
30
0.0
11
191.370000000000
21
498.000000000000
31
0.0
0
LINE
5
525
100
AcDbEntity
8
0-00-0
6
CONTINUOUS
62
4
100
AcDbLine
10
182.140000000000
20
508.230000000000
30
0.0
11
182.990000000000
21
507.380000000000
31
0.0
0
LINE
5
526
100
AcDbEntity
8
0-00-0
6
CONTINUOUS
62
4
100
AcDbLine
10
187.230000000000
20
503.140000000000
30
0.0
11
188.080000000000
21
502.300000000000
31
0.0
0
LINE
5
527
100
AcDbEntity
8
0-00-0
6
CONTINUOUS
62
4
100
AcDbLine
10
190.630000000000
20
499.750000000000
30
0.0
11
191.470000000000
21
498.900000000000
31
0.0
0
LINE
5
528
100
AcDbEntity
8
0-00-0
6
CONTINUOUS
62
4
100
AcDbLine
10
182.190000000000
20
509.190000000000
30
0.0
11
182.990000000000
21
508.380000000000
31
0.0
0
LINE
5
529
100
AcDbEntity
8
0-00-0
6
CONTINUOUS
62
4
100
AcDbLine
10
187.230000000000
20
504.140000000000
30
0.0
11
188.080000000000
21
503.290000000000
31
0.0
0
LINE
5
52a
100
AcDbEntity
8
0-00-0
6
CONTINUOUS
62
4
100
AcDbLine
10
190.630000000000
20
500.750000000000
30
0.0
11
191.470000000000
21
499.900000000000
31
0.0
0
LINE
5
52b
100
AcDbEntity
8
0-00-0
6
CONTINUOUS
62
4
100
AcDbLine
10
182.380000000000
20
510.000000000000
30
0.0
11
183.070000000000
21
509.310000000000
31
0.0
0
LINE
5
52c
100
AcDbEntity
8
0-00-0
6
CONTINUOUS
62
4
100
AcDbLine
10
187.230000000000
20
505.140000000000
30
0.0
11
188.080000000000
21
504.290000000000
31
0.0
0
LINE
5
52d
100
AcDbEntity
8
0-00-0
6
CONTINUOUS
62
4
100
AcDbLine
10
190.630000000000
20
501.750000000000
30
0.0
11
191.470000000000
21
500.900000000000
31
0.0
0
LINE
5
52e
100
AcDbEntity
8
0-00-0
6
CONTINUOUS
62
4
100
AcDbLine
10
182.670000000000
20
510.700000000000
30
0.0
11
183.310000000000
21
510.070000000000
31
0.0
0
LINE
5
52f
100
AcDbEntity
8
0-00-0
6
CONTINUOUS
62
4
100
AcDbLine
10
187.230000000000
20
506.140000000000
30
0.0
11
188.080000000000
21
505.290000000000
31
0.0
0
LINE
5
530
100
AcDbEntity
8
0-00-0
6
CONTINUOUS
62
4
100
AcDbLine
10
190.630000000000
20
502.750000000000
30
0.0
11
191.470000000000
21
501.900000000000
31
0.0
0
LINE
5
531
100
AcDbEntity
8
0-00-0
6
CONTINUOUS
62
4
100
AcDbLine
10
183.060000000000
20
511.320000000000
30
0.0
11
183.670000000000
21
510.710000000000
31
0.0
0
LINE
5
532
100
AcDbEntity
8
0-00-0
6
CONTINUOUS
62
4
100
AcDbLine
10
187.230000000000
20
507.140000000000
30
0.0
11
188.080000000000
21
506.290000000000
31
0.0
0
LINE
5
533
100
AcDbEntity
8
0-00-0
6
CONTINUOUS
62
4
100
AcDbLine
10
190.630000000000
20
503.750000000000
30
0.0
11
191.470000000000
21
502.900000000000
31
0.0
0
LINE
5
534
100
AcDbEntity
8
0-00-0
6
CONTINUOUS
62
4
100
AcDbLine
10
183.520000000000
20
511.850000000000
30
0.0
11
184.120000000000
21
511.250000000000
31
0.0
0
LINE
5
535
100
AcDbEntity
8
0-00-0
6
CONTINUOUS
62
4
100
AcDbLine
10
187.230000000000
20
508.140000000000
30
0.0
11
188.080000000000
21
507.290000000000
31
0.0
0
LINE
5
536
100
AcDbEntity
8
0-00-0
6
CONTINUOUS
62
4
100
AcDbLine
10
190.630000000000
20
504.750000000000
30
0.0
11
191.470000000000
21
503.900000000000
31
0.0
0
LINE
5
537
100
AcDbEntity
8
0-00-0
6
CONTINUOUS
62
4
100
AcDbLine
10
184.060000000000
20
512.310000000000
30
0.0
11
184.670000000000
21
511.700000000000
31
0.0
0
LINE
5
538
100
AcDbEntity
8
0-00-0
6
CONTINUOUS
62
4
100
AcDbLine
10
187.830000000000
20
508.540000000000
30
0.0
11
188.080000000000
21
508.290000000000
31
0.0
0
LINE
5
539
100
AcDbEntity
8
0-00-0
6
CONTINUOUS
62
4
100
AcDbLine
10
190.630000000000
20
505.750000000000
30
0.0
11
191.470000000000
21
504.900000000000
31
0.0
0
LINE
5
53a
100
AcDbEntity
8
0-00-0
6
CONTINUOUS
62
4
100
AcDbLine
10
184.680000000000
20
512.690000000000
30
0.0
11
185.320000000000
21
512.060000000000
31
0.0
0
LINE
5
53b
100
AcDbEntity
8
0-00-0
6
CONTINUOUS
62
4
100
AcDbLine
10
190.630000000000
20
506.750000000000
30
0.0
11
191.470000000000
21
505.900000000000
31
0.0
0
LINE
5
53c
100
AcDbEntity
8
0-00-0
6
CONTINUOUS
62
4
100
AcDbLine
10
185.390000000000
20
512.990000000000
30
0.0
11
186.090000000000
21
512.290000000000
31
0.0
0
LINE
5
53d
100
AcDbEntity
8
0-00-0
6
CONTINUOUS
62
4
100
AcDbLine
10
190.630000000000
20
507.750000000000
30
0.0
11
191.470000000000
21
506.900000000000
31
0.0
0
LINE
5
53e
100
AcDbEntity
8
0-00-0
6
CONTINUOUS
62
4
100
AcDbLine
10
186.210000000000
20
513.170000000000
30
0.0
11
187.020000000000
21
512.350000000000
31
0.0
0
LINE
5
53f
100
AcDbEntity
8
0-00-0
6
CONTINUOUS
62
4
100
AcDbLine
10
190.620000000000
20
508.750000000000
30
0.0
11
191.470000000000
21
507.900000000000
31
0.0
0
LINE
5
540
100
AcDbEntity
8
0-00-0
6
CONTINUOUS
62
4
100
AcDbLine
10
187.180000000000
20
513.190000000000
30
0.0
11
188.330000000000
21
512.040000000000
31
0.0
0
LINE
5
541
100
AcDbEntity
8
0-00-0
6
CONTINUOUS
62
4
100
AcDbLine
10
190.310000000000
20
510.060000000000
30
0.0
11
191.460000000000
21
508.910000000000
31
0.0
0
LINE
5
542
100
AcDbEntity
8
0-00-0
6
CONTINUOUS
62
4
100
AcDbLine
10
188.470000000000
20
512.900000000000
30
0.0
11
191.170000000000
21
510.210000000000
31
0.0
0
LINE
5
543
100
AcDbEntity
8
0-00-0
6
CONTINUOUS
62
7
100
AcDbLine
10
251.090000000000
20
447.320000000000
30
0.0
11
254.110000000000
21
450.340000000000
31
0.0
0
LINE
5
544
100
AcDbEntity
8
0-00-0
6
CONTINUOUS
62
7
100
AcDbLine
10
241.090000000000
20
447.320000000000
30
0.0
11
254.110000000000
21
460.340000000000
31
0.0
0
LINE
5
545
100
AcDbEntity
8
0-00-0
6
CONTINUOUS
62
7
100
AcDbLine
10
231.100000000000
20
447.320000000000
30
0.0
11
254.110000000000
21
470.330000000000
31
0.0
0
LINE
5
546
100
AcDbEntity
8
0-00-0
6
CONTINUOUS
62
7
100
AcDbLine
10
221.100000000000
20
447.320000000000
30
0.0
11
254.110000000000
21
480.330000000000
31
0.0
0
LINE
5
547
100
AcDbEntity
8
0-00-0
6
CONTINUOUS
62
7
100
AcDbLine
10
211.100000000000
20
447.320000000000
30
0.0
11
246.450000000000
21
482.670000000000
31
0.0
0
LINE
5
548
100
AcDbEntity
8
0-00-0
6
CONTINUOUS
62
7
100
AcDbLine
10
201.110000000000
20
447.320000000000
30
0.0
11
236.450000000000
21
482.670000000000
31
0.0
0
LINE
5
549
100
AcDbEntity
8
0-00-0
6
CONTINUOUS
62
7
100
AcDbLine
10
191.110000000000
20
447.320000000000
30
0.0
11
226.450000000000
21
482.670000000000
31
0.0
0
LINE
5
54a
100
AcDbEntity
8
0-00-0
6
CONTINUOUS
62
7
100
AcDbLine
10
181.110000000000
20
447.320000000000
30
0.0
11
216.460000000000
21
482.670000000000
31
0.0
0
LINE
5
54b
100
AcDbEntity
8
0-00-0
6
CONTINUOUS
62
7
100
AcDbLine
10
171.110000000000
20
447.320000000000
30
0.0
11
206.460000000000
21
482.670000000000
31
0.0
0
LINE
5
54c
100
AcDbEntity
8
0-00-0
6
CONTINUOUS
62
7
100
AcDbLine
10
161.120000000000
20
447.320000000000
30
0.0
11
196.460000000000
21
482.670000000000
31
0.0
0
LINE
5
54d
100
AcDbEntity
8
0-00-0
6
CONTINUOUS
62
7
100
AcDbLine
10
151.120000000000
20
447.320000000000
30
0.0
11
186.470000000000
21
482.670000000000
31
0.0
0
LINE
5
54e
100
AcDbEntity
8
0-00-0
6
CONTINUOUS
62
7
100
AcDbLine
10
141.120000000000
20
447.320000000000
30
0.0
11
176.470000000000
21
482.670000000000
31
0.0
0
LINE
5
54f
100
AcDbEntity
8
0-00-0
6
CONTINUOUS
62
7
100
AcDbLine
10
131.130000000000
20
447.320000000000
30
0.0
11
166.470000000000
21
482.670000000000
31
0.0
0
LINE
5
550
100
AcDbEntity
8
0-00-0
6
CONTINUOUS
62
7
100
AcDbLine
10
121.130000000000
20
447.320000000000
30
0.0
11
156.470000000000
21
482.670000000000
31
0.0
0
LINE
5
551
100
AcDbEntity
8
0-00-0
6
CONTINUOUS
62
7
100
AcDbLine
10
112.730000000000
20
448.920000000000
30
0.0
11
146.480000000000
21
482.670000000000
31
0.0
0
LINE
5
552
100
AcDbEntity
8
0-00-0
6
CONTINUOUS
62
7
100
AcDbLine
10
112.730000000000
20
458.910000000000
30
0.0
11
136.480000000000
21
482.670000000000
31
0.0
0
LINE
5
553
100
AcDbEntity
8
0-00-0
6
CONTINUOUS
62
7
100
AcDbLine
10
112.730000000000
20
468.910000000000
30
0.0
11
126.480000000000
21
482.670000000000
31
0.0
0
LINE
5
554
100
AcDbEntity
8
0-00-0
6
CONTINUOUS
62
7
100
AcDbLine
10
112.730000000000
20
478.910000000000
30
0.0
11
116.490000000000
21
482.670000000000
31
0.0
0
LINE
5
555
100
AcDbEntity
8
0-00-0
6
CONTINUOUS
62
7
100
AcDbLine
10
158.620000000000
20
487.760000000000
30
0.0
11
148.580000000000
21
505.150000000000
31
0.0
0
LINE
5
556
100
AcDbEntity
8
0-00-0
6
CONTINUOUS
62
7
100
AcDbLine
10
201.130000000000
20
483.380000000000
30
0.0
11
210.820000000000
21
500.150000000000
31
0.0
0
LINE
5
557
100
AcDbEntity
8
0-00-0
6
CONTINUOUS
62
7
100
AcDbLine
10
224.270000000000
20
473.970000000000
30
0.0
11
234.020000000000
21
490.860000000000
31
0.0
0
LINE
5
558
100
AcDbEntity
8
0-00-0
6
CONTINUOUS
62
7
100
AcDbLine
10
182.590000000000
20
503.790000000000
30
0.0
11
172.170000000000
21
521.840000000000
31
0.0
0
LINE
5
559
100
AcDbEntity
8
0-00-0
6
CONTINUOUS
62
7
100
AcDbLine
10
189.780000000000
20
513.190000000000
30
0.0
11
195.890000000000
21
523.780000000000
31
0.0
0
LINE
5
55a
100
AcDbEntity
8
0-00-0
6
CONTINUOUS
62
7
100
AcDbLine
10
314.680000000000
20
224.090000000000
30
0.0
11
313.400000000000
21
222.800000000000
31
0.0
0
LINE
5
55b
100
AcDbEntity
8
0-00-0
6
CONTINUOUS
62
7
100
AcDbLine
10
313.700000000000
20
222.500000000000
30
0.0
11
314.980000000000
21
223.790000000000
31
0.0
0
LINE
5
55c
100
AcDbEntity
8
0-00-0
6
CONTINUOUS
62
7
100
AcDbLine
10
335.770000000000
20
223.790000000000
30
0.0
11
314.980000000000
21
223.790000000000
31
0.0
0
LINE
5
55d
100
AcDbEntity
8
0-00-0
6
CONTINUOUS
62
7
100
AcDbLine
10
336.190000000000
20
224.210000000000
30
0.0
11
336.190000000000
21
236.940000000000
31
0.0
0
LINE
5
55e
100
AcDbEntity
8
0-00-0
6
CONTINUOUS
62
7
100
AcDbLine
10
347.080000000000
20
237.360000000000
30
0.0
11
336.190000000000
21
237.360000000000
31
0.0
0
LINE
5
55f
100
AcDbEntity
8
0-00-0
6
CONTINUOUS
62
7
100
AcDbLine
10
347.500000000000
20
236.940000000000
30
0.0
11
347.500000000000
21
228.450000000000
31
0.0
0
POLYLINE
5
560
100
AcDbEntity
8
0-00-0
6
CONTINUOUS
62
  7
100
AcDb2dPolyline
66
1
10
0.0
20
0.0
30
0.0
70
0
0
VERTEX
5
561
100
AcDbEntity
8
0-00-0
6
CONTINUOUS
62
  7
100
AcDbVertex
100
AcDb2dVertex
10
336.190000000000
20
236.940000000000
30
0.0
0
VERTEX
5
562
100
AcDbEntity
8
0-00-0
6
CONTINUOUS
62
  7
100
AcDbVertex
100
AcDb2dVertex
10
347.080000000000
20
236.940000000000
30
0.0
0
VERTEX
5
563
100
AcDbEntity
8
0-00-0
6
CONTINUOUS
62
  7
100
AcDbVertex
100
AcDb2dVertex
10
347.080000000000
20
228.450000000000
30
0.0
0
VERTEX
5
564
100
AcDbEntity
8
0-00-0
6
CONTINUOUS
62
  7
100
AcDbVertex
100
AcDb2dVertex
10
347.500000000000
20
228.450000000000
30
0.0
0
SEQEND
5
565
100
AcDbEntity
8
0-00-0
0
LINE
5
566
100
AcDbEntity
8
0-00-0
6
CONTINUOUS
62
7
100
AcDbLine
10
335.770000000000
20
236.940000000000
30
0.0
11
335.770000000000
21
224.210000000000
31
0.0
0
LINE
5
567
100
AcDbEntity
8
0-00-0
6
CONTINUOUS
62
7
100
AcDbLine
10
125.910000000000
20
224.090000000000
30
0.0
11
127.200000000000
21
222.800000000000
31
0.0
0
LINE
5
568
100
AcDbEntity
8
0-00-0
6
CONTINUOUS
62
7
100
AcDbLine
10
126.900000000000
20
222.500000000000
30
0.0
11
125.610000000000
21
223.790000000000
31
0.0
0
LINE
5
569
100
AcDbEntity
8
0-00-0
6
CONTINUOUS
62
7
100
AcDbLine
10
104.820000000000
20
223.790000000000
30
0.0
11
125.610000000000
21
223.790000000000
31
0.0
0
LINE
5
56a
100
AcDbEntity
8
0-00-0
6
CONTINUOUS
62
7
100
AcDbLine
10
125.610000000000
20
224.210000000000
30
0.0
11
104.820000000000
21
224.210000000000
31
0.0
0
POLYLINE
5
56b
100
AcDbEntity
8
0-00-0
6
CONTINUOUS
62
  7
100
AcDb2dPolyline
66
1
10
0.0
20
0.0
30
0.0
70
0
0
VERTEX
5
56c
100
AcDbEntity
8
0-00-0
6
CONTINUOUS
62
  7
100
AcDbVertex
100
AcDb2dVertex
10
112.180000000000
20
235.170000000000
30
0.0
0
VERTEX
5
56d
100
AcDbEntity
8
0-00-0
6
CONTINUOUS
62
  7
100
AcDbVertex
100
AcDb2dVertex
10
104.820000000000
20
235.170000000000
30
0.0
0
VERTEX
5
56e
100
AcDbEntity
8
0-00-0
6
CONTINUOUS
62
  7
100
AcDbVertex
100
AcDb2dVertex
10
104.820000000000
20
224.210000000000
30
0.0
0
SEQEND
5
56f
100
AcDbEntity
8
0-00-0
0
LINE
5
570
100
AcDbEntity
8
0-00-0
6
CONTINUOUS
62
7
100
AcDbLine
10
112.180000000000
20
236.160000000000
30
0.0
11
103.760000000000
21
236.160000000000
31
0.0
0
LINE
5
571
100
AcDbEntity
8
0-00-0
6
CONTINUOUS
62
7
100
AcDbLine
10
103.760000000000
20
236.580000000000
30
0.0
11
112.180000000000
21
236.580000000000
31
0.0
0
LINE
5
572
100
AcDbEntity
8
0-00-0
6
CONTINUOUS
62
7
100
AcDbLine
10
104.820000000000
20
235.590000000000
30
0.0
11
112.180000000000
21
235.590000000000
31
0.0
0
LINE
5
573
100
AcDbEntity
8
0-00-0
6
CONTINUOUS
62
7
100
AcDbLine
10
104.400000000000
20
235.170000000000
30
0.0
11
104.400000000000
21
224.210000000000
31
0.0
0
LINE
5
574
100
AcDbEntity
8
0-00-0
6
CONTINUOUS
62
7
100
AcDbLine
10
103.340000000000
20
236.160000000000
30
0.0
11
103.340000000000
21
222.800000000000
31
0.0
0
LINE
5
575
100
AcDbEntity
8
0-00-0
6
CONTINUOUS
62
7
100
AcDbLine
10
103.760000000000
20
222.800000000000
30
0.0
11
103.760000000000
21
236.160000000000
31
0.0
0
LINE
5
576
100
AcDbEntity
8
0-00-0
6
CONTINUOUS
62
7
100
AcDbLine
10
103.340000000000
20
222.800000000000
30
0.0
11
90.330000000000
21
222.800000000000
31
0.0
0
LINE
5
577
100
AcDbEntity
8
0-00-0
6
CONTINUOUS
62
7
100
AcDbLine
10
103.340000000000
20
222.370000000000
30
0.0
11
90.330000000000
21
222.370000000000
31
0.0
0
LINE
5
578
100
AcDbEntity
8
0-00-0
6
CONTINUOUS
62
7
100
AcDbLine
10
91.750000000000
20
223.790000000000
30
0.0
11
90.330000000000
21
223.790000000000
31
0.0
0
LINE
5
579
100
AcDbEntity
8
0-00-0
6
CONTINUOUS
62
7
100
AcDbLine
10
91.750000000000
20
223.360000000000
30
0.0
11
91.750000000000
21
223.790000000000
31
0.0
0
LINE
5
57a
100
AcDbEntity
8
0-00-0
6
CONTINUOUS
62
7
100
AcDbLine
10
91.750000000000
20
223.360000000000
30
0.0
11
90.330000000000
21
223.360000000000
31
0.0
0
LINE
5
57b
100
AcDbEntity
8
0-00-0
6
CONTINUOUS
62
7
100
AcDbLine
10
219.550000000000
20
222.800000000000
30
0.0
11
127.200000000000
21
222.800000000000
31
0.0
0
LINE
5
57c
100
AcDbEntity
8
0-00-0
6
CONTINUOUS
62
7
100
AcDbLine
10
127.200000000000
20
222.370000000000
30
0.0
11
219.550000000000
21
222.370000000000
31
0.0
0
LINE
5
57d
100
AcDbEntity
8
0-00-0
6
CONTINUOUS
62
7
100
AcDbLine
10
219.550000000000
20
222.800000000000
30
0.0
11
313.400000000000
21
222.800000000000
31
0.0
0
LINE
5
57e
100
AcDbEntity
8
0-00-0
6
CONTINUOUS
62
7
100
AcDbLine
10
313.400000000000
20
222.370000000000
30
0.0
11
219.550000000000
21
222.370000000000
31
0.0
0
LINE
5
57f
100
AcDbEntity
8
0-00-0
6
CONTINUOUS
62
4
100
AcDbLine
10
103.340000000000
20
247.190000000000
30
0.0
11
112.880000000000
21
247.190000000000
31
0.0
0
LINE
5
580
100
AcDbEntity
8
0-00-0
6
CONTINUOUS
62
4
100
AcDbLine
10
112.880000000000
20
240.120000000000
30
0.0
11
112.880000000000
21
247.190000000000
31
0.0
0
LINE
5
581
100
AcDbEntity
8
0-00-0
6
CONTINUOUS
62
4
100
AcDbLine
10
103.340000000000
20
257.790000000000
30
0.0
11
335.770000000000
21
257.790000000000
31
0.0
0
LINE
5
582
100
AcDbEntity
8
0-00-0
6
CONTINUOUS
62
4
100
AcDbLine
10
103.340000000000
20
240.120000000000
30
0.0
11
103.340000000000
21
257.790000000000
31
0.0
0
LINE
5
583
100
AcDbEntity
8
0-00-0
6
CONTINUOUS
62
4
100
AcDbLine
10
335.770000000000
20
240.120000000000
30
0.0
11
335.770000000000
21
257.790000000000
31
0.0
0
LINE
5
584
100
AcDbEntity
8
0-00-0
6
CONTINUOUS
62
4
100
AcDbLine
10
335.770000000000
20
247.190000000000
30
0.0
11
347.500000000000
21
247.190000000000
31
0.0
0
LINE
5
585
100
AcDbEntity
8
0-00-0
6
CONTINUOUS
62
4
100
AcDbLine
10
347.500000000000
20
240.120000000000
30
0.0
11
347.500000000000
21
247.190000000000
31
0.0
0
LINE
5
586
100
AcDbEntity
8
0-00-0
6
CONTINUOUS
62
4
100
AcDbLine
10
295.720000000000
20
222.800000000000
30
0.0
11
295.720000000000
21
237.360000000000
31
0.0
0
POLYLINE
5
587
100
AcDbEntity
8
0-00-0
6
CONTINUOUS
62
  4
100
AcDb2dPolyline
66
1
10
0.0
20
0.0
30
0.0
70
0
0
VERTEX
5
588
100
AcDbEntity
8
0-00-0
6
CONTINUOUS
62
  4
100
AcDbVertex
100
AcDb2dVertex
10
306.330000000000
20
222.370000000000
30
0.0
0
VERTEX
5
589
100
AcDbEntity
8
0-00-0
6
CONTINUOUS
62
  4
100
AcDbVertex
100
AcDb2dVertex
10
306.330000000000
20
224.210000000000
30
0.0
0
VERTEX
5
58a
100
AcDbEntity
8
0-00-0
6
CONTINUOUS
62
  4
100
AcDbVertex
100
AcDb2dVertex
10
306.330000000000
20
237.360000000000
30
0.0
0
SEQEND
5
58b
100
AcDbEntity
8
0-00-0
0
LINE
5
58c
100
AcDbEntity
8
0-00-0
6
CONTINUOUS
62
4
100
AcDbLine
10
332.230000000000
20
237.360000000000
30
0.0
11
295.720000000000
21
237.360000000000
31
0.0
0
LINE
5
58d
100
AcDbEntity
8
0-00-0
6
CONTINUOUS
62
7
100
AcDbLine
10
314.980000000000
20
224.210000000000
30
0.0
11
335.770000000000
21
224.210000000000
31
0.0
0
LINE
5
58e
100
AcDbEntity
8
0-00-0
6
CONTINUOUS
62
4
100
AcDbLine
10
311.150000000000
20
224.210000000000
30
0.0
11
306.330000000000
21
224.210000000000
31
0.0
0
LINE
5
58f
100
AcDbEntity
8
0-00-0
6
CONTINUOUS
62
4
100
AcDbLine
10
358.110000000000
20
228.450000000000
30
0.0
11
358.110000000000
21
237.360000000000
31
0.0
0
LINE
5
590
100
AcDbEntity
8
0-00-0
6
CONTINUOUS
62
4
100
AcDbLine
10
351.040000000000
20
228.450000000000
30
0.0
11
358.110000000000
21
228.450000000000
31
0.0
0
LINE
5
591
100
AcDbEntity
8
0-00-0
6
CONTINUOUS
62
4
100
AcDbLine
10
351.040000000000
20
237.360000000000
30
0.0
11
358.110000000000
21
237.360000000000
31
0.0
0
LINE
5
592
100
AcDbEntity
8
0-00-0
6
CONTINUOUS
62
4
100
AcDbLine
10
89.630000000000
20
211.770000000000
30
0.0
11
103.760000000000
21
211.770000000000
31
0.0
0
LINE
5
593
100
AcDbEntity
8
0-00-0
6
CONTINUOUS
62
4
100
AcDbLine
10
89.630000000000
20
218.840000000000
30
0.0
11
89.630000000000
21
211.770000000000
31
0.0
0
LINE
5
594
100
AcDbEntity
8
0-00-0
6
CONTINUOUS
62
4
100
AcDbLine
10
103.760000000000
20
218.840000000000
30
0.0
11
103.760000000000
21
211.770000000000
31
0.0
0
LINE
5
595
100
AcDbEntity
8
0-00-0
6
CONTINUOUS
62
4
100
AcDbLine
10
99.810000000000
20
236.580000000000
30
0.0
11
82.560000000000
21
236.580000000000
31
0.0
0
LINE
5
596
100
AcDbEntity
8
0-00-0
6
CONTINUOUS
62
4
100
AcDbLine
10
132.780000000000
20
222.370000000000
30
0.0
11
132.780000000000
21
224.210000000000
31
0.0
0
LINE
5
597
100
AcDbEntity
8
0-00-0
6
CONTINUOUS
62
4
100
AcDbLine
10
127.960000000000
20
224.210000000000
30
0.0
11
132.780000000000
21
224.210000000000
31
0.0
0
LINE
5
598
100
AcDbEntity
8
0-00-0
6
CONTINUOUS
62
4
100
AcDbLine
10
116.420000000000
20
236.580000000000
30
0.0
11
143.380000000000
21
236.580000000000
31
0.0
0
LINE
5
599
100
AcDbEntity
8
0-00-0
6
CONTINUOUS
62
4
100
AcDbLine
10
132.780000000000
20
224.210000000000
30
0.0
11
132.780000000000
21
236.580000000000
31
0.0
0
LINE
5
59a
100
AcDbEntity
8
0-00-0
6
CONTINUOUS
62
4
100
AcDbLine
10
143.380000000000
20
222.800000000000
30
0.0
11
143.380000000000
21
236.580000000000
31
0.0
0
LINE
5
59b
100
AcDbEntity
8
0-00-0
6
CONTINUOUS
62
4
100
AcDbLine
10
82.560000000000
20
222.800000000000
30
0.0
11
82.560000000000
21
236.580000000000
31
0.0
0
LINE
5
59c
100
AcDbEntity
8
0-00-0
6
CONTINUOUS
62
4
100
AcDbLine
10
86.090000000000
20
222.800000000000
30
0.0
11
82.560000000000
21
222.800000000000
31
0.0
0
LINE
5
59d
100
AcDbEntity
8
0-10-2
6
CONTINUOUS
62
7
100
AcDbLine
10
103.760000000000
20
166.600000000000
30
0.0
11
111.820000000000
21
166.600000000000
31
0.0
0
LINE
5
59e
100
AcDbEntity
8
0-10-2
6
CONTINUOUS
62
7
100
AcDbLine
10
110.890000000000
20
165.890000000000
30
0.0
11
111.600000000000
21
166.600000000000
31
0.0
0
LINE
5
59f
100
AcDbEntity
8
0-10-2
6
CONTINUOUS
62
7
100
AcDbLine
10
109.890000000000
20
165.890000000000
30
0.0
11
110.600000000000
21
166.600000000000
31
0.0
0
LINE
5
5a0
100
AcDbEntity
8
0-10-2
6
CONTINUOUS
62
7
100
AcDbLine
10
108.890000000000
20
165.890000000000
30
0.0
11
109.600000000000
21
166.600000000000
31
0.0
0
LINE
5
5a1
100
AcDbEntity
8
0-10-2
6
CONTINUOUS
62
7
100
AcDbLine
10
107.890000000000
20
165.890000000000
30
0.0
11
108.600000000000
21
166.600000000000
31
0.0
0
LINE
5
5a2
100
AcDbEntity
8
0-10-2
6
CONTINUOUS
62
7
100
AcDbLine
10
106.890000000000
20
165.890000000000
30
0.0
11
107.600000000000
21
166.600000000000
31
0.0
0
LINE
5
5a3
100
AcDbEntity
8
0-10-2
6
CONTINUOUS
62
7
100
AcDbLine
10
105.890000000000
20
165.890000000000
30
0.0
11
106.600000000000
21
166.600000000000
31
0.0
0
LINE
5
5a4
100
AcDbEntity
8
0-10-2
6
CONTINUOUS
62
7
100
AcDbLine
10
104.890000000000
20
165.890000000000
30
0.0
11
105.600000000000
21
166.600000000000
31
0.0
0
LINE
5
5a5
100
AcDbEntity
8
0-10-2
6
CONTINUOUS
62
7
100
AcDbLine
10
103.890000000000
20
165.890000000000
30
0.0
11
104.600000000000
21
166.600000000000
31
0.0
0
LINE
5
5a6
100
AcDbEntity
8
0-10-2
6
CONTINUOUS
62
7
100
AcDbLine
10
103.760000000000
20
165.890000000000
30
0.0
11
111.820000000000
21
165.890000000000
31
0.0
0
LINE
5
5a7
100
AcDbEntity
8
0-10-2
6
CONTINUOUS
62
7
100
AcDbLine
10
111.820000000000
20
166.600000000000
30
0.0
11
111.820000000000
21
165.890000000000
31
0.0
0
LINE
5
5a8
100
AcDbEntity
8
0-20-4
6
CONTINUOUS
62
7
100
AcDbLine
10
84.140000000000
20
92.550000000000
30
0.0
11
73.590000000000
21
92.550000000000
31
0.0
0
LINE
5
5a9
100
AcDbEntity
8
0-20-4
6
CONTINUOUS
62
7
100
AcDbLine
10
73.590000000000
20
92.130000000000
30
0.0
11
84.140000000000
21
92.130000000000
31
0.0
0
LINE
5
5aa
100
AcDbEntity
8
0-20-4
6
CONTINUOUS
62
7
100
AcDbLine
10
144.280000000000
20
92.550000000000
30
0.0
11
131.470000000000
21
92.550000000000
31
0.0
0
LINE
5
5ab
100
AcDbEntity
8
0-20-4
6
CONTINUOUS
62
7
100
AcDbLine
10
131.470000000000
20
92.130000000000
30
0.0
11
144.280000000000
21
92.130000000000
31
0.0
0
LINE
5
5ac
100
AcDbEntity
8
0-20-4
6
CONTINUOUS
62
7
100
AcDbLine
10
158.800000000000
20
101.950000000000
30
0.0
11
172.940000000000
21
99.120000000000
31
0.0
0
LINE
5
5ad
100
AcDbEntity
8
0-20-4
6
CONTINUOUS
62
7
100
AcDbLine
10
158.800000000000
20
99.120000000000
30
0.0
11
158.800000000000
21
101.950000000000
31
0.0
0
LINE
5
5ae
100
AcDbEntity
8
0-20-4
6
CONTINUOUS
62
7
100
AcDbLine
10
152.350000000000
20
99.120000000000
30
0.0
11
172.940000000000
21
99.120000000000
31
0.0
0
LINE
5
5af
100
AcDbEntity
8
0-20-4
6
CONTINUOUS
62
7
100
AcDbLine
10
236.210000000000
20
93.840000000000
30
0.0
11
237.500000000000
21
92.550000000000
31
0.0
0
LINE
5
5b0
100
AcDbEntity
8
0-20-4
6
CONTINUOUS
62
7
100
AcDbLine
10
237.200000000000
20
92.250000000000
30
0.0
11
235.910000000000
21
93.540000000000
31
0.0
0
LINE
5
5b1
100
AcDbEntity
8
0-20-4
6
CONTINUOUS
62
7
100
AcDbLine
10
215.130000000000
20
93.540000000000
30
0.0
11
235.910000000000
21
93.540000000000
31
0.0
0
LINE
5
5b2
100
AcDbEntity
8
0-20-4
6
CONTINUOUS
62
7
100
AcDbLine
10
235.910000000000
20
93.970000000000
30
0.0
11
215.130000000000
21
93.970000000000
31
0.0
0
POLYLINE
5
5b3
100
AcDbEntity
8
0-20-4
6
CONTINUOUS
62
  7
100
AcDb2dPolyline
66
1
10
0.0
20
0.0
30
0.0
70
0
0
VERTEX
5
5b4
100
AcDbEntity
8
0-20-4
6
CONTINUOUS
62
  7
100
AcDbVertex
100
AcDb2dVertex
10
222.480000000000
20
104.920000000000
30
0.0
0
VERTEX
5
5b5
100
AcDbEntity
8
0-20-4
6
CONTINUOUS
62
  7
100
AcDbVertex
100
AcDb2dVertex
10
215.130000000000
20
104.920000000000
30
0.0
0
VERTEX
5
5b6
100
AcDbEntity
8
0-20-4
6
CONTINUOUS
62
  7
100
AcDbVertex
100
AcDb2dVertex
10
215.130000000000
20
93.970000000000
30
0.0
0
SEQEND
5
5b7
100
AcDbEntity
8
0-20-4
0
LINE
5
5b8
100
AcDbEntity
8
0-20-4
6
CONTINUOUS
62
7
100
AcDbLine
10
222.480000000000
20
105.910000000000
30
0.0
11
214.070000000000
21
105.910000000000
31
0.0
0
LINE
5
5b9
100
AcDbEntity
8
0-20-4
6
CONTINUOUS
62
7
100
AcDbLine
10
214.070000000000
20
106.340000000000
30
0.0
11
222.480000000000
21
106.340000000000
31
0.0
0
LINE
5
5ba
100
AcDbEntity
8
0-20-4
6
CONTINUOUS
62
7
100
AcDbLine
10
215.130000000000
20
105.350000000000
30
0.0
11
222.480000000000
21
105.350000000000
31
0.0
0
LINE
5
5bb
100
AcDbEntity
8
0-20-4
6
CONTINUOUS
62
7
100
AcDbLine
10
214.710000000000
20
104.920000000000
30
0.0
11
214.710000000000
21
93.970000000000
31
0.0
0
LINE
5
5bc
100
AcDbEntity
8
0-20-4
6
CONTINUOUS
62
7
100
AcDbLine
10
213.650000000000
20
105.910000000000
30
0.0
11
213.650000000000
21
92.550000000000
31
0.0
0
LINE
5
5bd
100
AcDbEntity
8
0-20-4
6
CONTINUOUS
62
7
100
AcDbLine
10
214.070000000000
20
92.550000000000
30
0.0
11
214.070000000000
21
105.910000000000
31
0.0
0
LINE
5
5be
100
AcDbEntity
8
0-20-4
6
CONTINUOUS
62
7
100
AcDbLine
10
213.650000000000
20
92.550000000000
30
0.0
11
200.640000000000
21
92.550000000000
31
0.0
0
LINE
5
5bf
100
AcDbEntity
8
0-20-4
6
CONTINUOUS
62
7
100
AcDbLine
10
213.650000000000
20
92.130000000000
30
0.0
11
200.640000000000
21
92.130000000000
31
0.0
0
LINE
5
5c0
100
AcDbEntity
8
0-20-4
6
CONTINUOUS
62
7
100
AcDbLine
10
202.050000000000
20
93.540000000000
30
0.0
11
200.640000000000
21
93.540000000000
31
0.0
0
LINE
5
5c1
100
AcDbEntity
8
0-20-4
6
CONTINUOUS
62
7
100
AcDbLine
10
202.050000000000
20
93.120000000000
30
0.0
11
202.050000000000
21
93.540000000000
31
0.0
0
LINE
5
5c2
100
AcDbEntity
8
0-20-4
6
CONTINUOUS
62
7
100
AcDbLine
10
202.050000000000
20
93.120000000000
30
0.0
11
200.640000000000
21
93.120000000000
31
0.0
0
LINE
5
5c3
100
AcDbEntity
8
0-20-4
6
CONTINUOUS
62
7
100
AcDbLine
10
191.470000000000
20
93.840000000000
30
0.0
11
190.180000000000
21
92.550000000000
31
0.0
0
LINE
5
5c4
100
AcDbEntity
8
0-20-4
6
CONTINUOUS
62
7
100
AcDbLine
10
190.480000000000
20
92.250000000000
30
0.0
11
191.770000000000
21
93.540000000000
31
0.0
0
LINE
5
5c5
100
AcDbEntity
8
0-20-4
6
CONTINUOUS
62
7
100
AcDbLine
10
212.550000000000
20
93.540000000000
30
0.0
11
191.770000000000
21
93.540000000000
31
0.0
0
LINE
5
5c6
100
AcDbEntity
8
0-20-4
6
CONTINUOUS
62
7
100
AcDbLine
10
212.970000000000
20
93.970000000000
30
0.0
11
212.970000000000
21
106.690000000000
31
0.0
0
LINE
5
5c7
100
AcDbEntity
8
0-20-4
6
CONTINUOUS
62
7
100
AcDbLine
10
191.770000000000
20
93.970000000000
30
0.0
11
212.550000000000
21
93.970000000000
31
0.0
0
LINE
5
5c8
100
AcDbEntity
8
0-20-4
6
CONTINUOUS
62
7
100
AcDbLine
10
212.550000000000
20
106.690000000000
30
0.0
11
212.550000000000
21
93.970000000000
31
0.0
0
LINE
5
5c9
100
AcDbEntity
8
0-20-4
6
CONTINUOUS
62
7
100
AcDbLine
10
190.180000000000
20
92.550000000000
30
0.0
11
179.630000000000
21
92.550000000000
31
0.0
0
LINE
5
5ca
100
AcDbEntity
8
0-20-4
6
CONTINUOUS
62
7
100
AcDbLine
10
179.630000000000
20
92.130000000000
30
0.0
11
190.180000000000
21
92.130000000000
31
0.0
0
LINE
5
5cb
100
AcDbEntity
8
0-20-4
6
CONTINUOUS
62
7
100
AcDbLine
10
250.320000000000
20
92.550000000000
30
0.0
11
237.500000000000
21
92.550000000000
31
0.0
0
LINE
5
5cc
100
AcDbEntity
8
0-20-4
6
CONTINUOUS
62
7
100
AcDbLine
10
237.500000000000
20
92.130000000000
30
0.0
11
250.320000000000
21
92.130000000000
31
0.0
0
LINE
5
5cd
100
AcDbEntity
8
0-20-4
6
CONTINUOUS
62
7
100
AcDbLine
10
264.840000000000
20
101.950000000000
30
0.0
11
278.970000000000
21
99.120000000000
31
0.0
0
LINE
5
5ce
100
AcDbEntity
8
0-20-4
6
CONTINUOUS
62
7
100
AcDbLine
10
264.840000000000
20
99.120000000000
30
0.0
11
264.840000000000
21
101.950000000000
31
0.0
0
LINE
5
5cf
100
AcDbEntity
8
0-20-4
6
CONTINUOUS
62
7
100
AcDbLine
10
258.390000000000
20
99.120000000000
30
0.0
11
278.970000000000
21
99.120000000000
31
0.0
0
POLYLINE
5
5d0
100
AcDbEntity
8
0-20-4
6
CONTINUOUS
62
  7
100
AcDb2dPolyline
66
1
10
0.0
20
0.0
30
0.0
70
0
0
VERTEX
5
5d1
100
AcDbEntity
8
0-20-4
6
CONTINUOUS
62
  7
100
AcDbVertex
100
AcDb2dVertex
10
222.480000000000
20
104.570000000000
30
0.0
0
VERTEX
5
5d2
100
AcDbEntity
8
0-20-4
6
CONTINUOUS
62
  7
100
AcDbVertex
100
AcDb2dVertex
10
215.410000000000
20
104.570000000000
30
0.0
0
VERTEX
5
5d3
100
AcDbEntity
8
0-20-4
6
CONTINUOUS
62
  7
100
AcDbVertex
100
AcDb2dVertex
10
215.410000000000
20
104.150000000000
30
0.0
0
SEQEND
5
5d4
100
AcDbEntity
8
0-20-4
0
LINE
5
5d5
100
AcDbEntity
8
0-20-4
6
CONTINUOUS
62
7
100
AcDbLine
10
222.480000000000
20
104.150000000000
30
0.0
11
215.410000000000
21
104.150000000000
31
0.0
0
LINE
5
5d6
100
AcDbEntity
8
0-20-4
6
CONTINUOUS
62
7
100
AcDbLine
10
222.480000000000
20
107.120000000000
30
0.0
11
212.970000000000
21
107.120000000000
31
0.0
0
LINE
5
5d7
100
AcDbEntity
8
0-20-4
6
CONTINUOUS
62
7
100
AcDbLine
10
212.970000000000
20
106.690000000000
30
0.0
11
222.480000000000
21
106.690000000000
31
0.0
0
LINE
5
5d8
100
AcDbEntity
8
0-20-4
6
CONTINUOUS
62
7
100
AcDbLine
10
322.490000000000
20
104.360000000000
30
0.0
11
322.910000000000
21
104.360000000000
31
0.0
0
LINE
5
5d9
100
AcDbEntity
8
0-20-4
6
CONTINUOUS
62
7
100
AcDbLine
10
309.200000000000
20
93.540000000000
30
0.0
11
307.790000000000
21
93.540000000000
31
0.0
0
LINE
5
5da
100
AcDbEntity
8
0-20-4
6
CONTINUOUS
62
7
100
AcDbLine
10
309.200000000000
20
93.120000000000
30
0.0
11
309.200000000000
21
93.540000000000
31
0.0
0
LINE
5
5db
100
AcDbEntity
8
0-20-4
6
CONTINUOUS
62
7
100
AcDbLine
10
309.200000000000
20
93.120000000000
30
0.0
11
307.790000000000
21
93.120000000000
31
0.0
0
LINE
5
5dc
100
AcDbEntity
8
0-20-4
6
CONTINUOUS
62
7
100
AcDbLine
10
298.620000000000
20
93.840000000000
30
0.0
11
297.330000000000
21
92.550000000000
31
0.0
0
LINE
5
5dd
100
AcDbEntity
8
0-20-4
6
CONTINUOUS
62
7
100
AcDbLine
10
297.630000000000
20
92.250000000000
30
0.0
11
298.920000000000
21
93.540000000000
31
0.0
0
LINE
5
5de
100
AcDbEntity
8
0-20-4
6
CONTINUOUS
62
7
100
AcDbLine
10
342.940000000000
20
93.840000000000
30
0.0
11
344.230000000000
21
92.550000000000
31
0.0
0
LINE
5
5df
100
AcDbEntity
8
0-20-4
6
CONTINUOUS
62
7
100
AcDbLine
10
343.930000000000
20
92.250000000000
30
0.0
11
342.640000000000
21
93.540000000000
31
0.0
0
LINE
5
5e0
100
AcDbEntity
8
0-20-4
6
CONTINUOUS
62
7
100
AcDbLine
10
320.790000000000
20
92.550000000000
30
0.0
11
307.790000000000
21
92.550000000000
31
0.0
0
LINE
5
5e1
100
AcDbEntity
8
0-20-4
6
CONTINUOUS
62
7
100
AcDbLine
10
320.790000000000
20
104.360000000000
30
0.0
11
320.790000000000
21
92.550000000000
31
0.0
0
LINE
5
5e2
100
AcDbEntity
8
0-20-4
6
CONTINUOUS
62
7
100
AcDbLine
10
298.920000000000
20
93.970000000000
30
0.0
11
319.950000000000
21
93.970000000000
31
0.0
0
LINE
5
5e3
100
AcDbEntity
8
0-20-4
6
CONTINUOUS
62
7
100
AcDbLine
10
319.950000000000
20
104.360000000000
30
0.0
11
319.950000000000
21
93.970000000000
31
0.0
0
LINE
5
5e4
100
AcDbEntity
8
0-20-4
6
CONTINUOUS
62
7
100
AcDbLine
10
320.370000000000
20
93.540000000000
30
0.0
11
298.920000000000
21
93.540000000000
31
0.0
0
LINE
5
5e5
100
AcDbEntity
8
0-20-4
6
CONTINUOUS
62
7
100
AcDbLine
10
320.370000000000
20
104.360000000000
30
0.0
11
320.370000000000
21
93.540000000000
31
0.0
0
LINE
5
5e6
100
AcDbEntity
8
0-20-4
6
CONTINUOUS
62
7
100
AcDbLine
10
321.220000000000
20
92.130000000000
30
0.0
11
307.790000000000
21
92.130000000000
31
0.0
0
LINE
5
5e7
100
AcDbEntity
8
0-20-4
6
CONTINUOUS
62
7
100
AcDbLine
10
321.220000000000
20
104.360000000000
30
0.0
11
321.220000000000
21
92.130000000000
31
0.0
0
LINE
5
5e8
100
AcDbEntity
8
0-20-4
6
CONTINUOUS
62
7
100
AcDbLine
10
322.070000000000
20
104.360000000000
30
0.0
11
322.070000000000
21
93.970000000000
31
0.0
0
LINE
5
5e9
100
AcDbEntity
8
0-20-4
6
CONTINUOUS
62
7
100
AcDbLine
10
342.640000000000
20
93.970000000000
30
0.0
11
322.070000000000
21
93.970000000000
31
0.0
0
POLYLINE
5
5ea
100
AcDbEntity
8
0-20-4
6
CONTINUOUS
62
  7
100
AcDb2dPolyline
66
1
10
0.0
20
0.0
30
0.0
70
0
0
VERTEX
5
5eb
100
AcDbEntity
8
0-20-4
6
CONTINUOUS
62
  7
100
AcDbVertex
100
AcDb2dVertex
10
321.640000000000
20
104.360000000000
30
0.0
0
VERTEX
5
5ec
100
AcDbEntity
8
0-20-4
6
CONTINUOUS
62
  7
100
AcDbVertex
100
AcDb2dVertex
10
321.640000000000
20
93.540000000000
30
0.0
0
VERTEX
5
5ed
100
AcDbEntity
8
0-20-4
6
CONTINUOUS
62
  7
100
AcDbVertex
100
AcDb2dVertex
10
342.640000000000
20
93.540000000000
30
0.0
0
SEQEND
5
5ee
100
AcDbEntity
8
0-20-4
0
LINE
5
5ef
100
AcDbEntity
8
0-20-4
6
CONTINUOUS
62
7
100
AcDbLine
10
325.460000000000
20
104.360000000000
30
0.0
11
325.460000000000
21
99.410000000000
31
0.0
0
LINE
5
5f0
100
AcDbEntity
8
0-20-4
6
CONTINUOUS
62
7
100
AcDbLine
10
325.030000000000
20
104.360000000000
30
0.0
11
325.030000000000
21
99.410000000000
31
0.0
0
LINE
5
5f1
100
AcDbEntity
8
0-20-4
6
CONTINUOUS
62
7
100
AcDbLine
10
324.610000000000
20
104.360000000000
30
0.0
11
324.610000000000
21
99.410000000000
31
0.0
0
LINE
5
5f2
100
AcDbEntity
8
0-20-4
6
CONTINUOUS
62
7
100
AcDbLine
10
324.190000000000
20
104.360000000000
30
0.0
11
324.190000000000
21
99.410000000000
31
0.0
0
LINE
5
5f3
100
AcDbEntity
8
0-20-4
6
CONTINUOUS
62
7
100
AcDbLine
10
323.760000000000
20
104.360000000000
30
0.0
11
323.760000000000
21
99.410000000000
31
0.0
0
LINE
5
5f4
100
AcDbEntity
8
0-20-4
6
CONTINUOUS
62
7
100
AcDbLine
10
323.340000000000
20
104.360000000000
30
0.0
11
323.340000000000
21
99.410000000000
31
0.0
0
LINE
5
5f5
100
AcDbEntity
8
0-20-4
6
CONTINUOUS
62
7
100
AcDbLine
10
322.910000000000
20
104.360000000000
30
0.0
11
322.910000000000
21
99.410000000000
31
0.0
0
LINE
5
5f6
100
AcDbEntity
8
0-20-4
6
CONTINUOUS
62
7
100
AcDbLine
10
322.490000000000
20
104.360000000000
30
0.0
11
322.490000000000
21
99.410000000000
31
0.0
0
LINE
5
5f7
100
AcDbEntity
8
0-20-4
6
CONTINUOUS
62
7
100
AcDbLine
10
356.350000000000
20
92.550000000000
30
0.0
11
344.230000000000
21
92.550000000000
31
0.0
0
LINE
5
5f8
100
AcDbEntity
8
0-20-4
6
CONTINUOUS
62
7
100
AcDbLine
10
344.230000000000
20
92.130000000000
30
0.0
11
356.350000000000
21
92.130000000000
31
0.0
0
LINE
5
5f9
100
AcDbEntity
8
0-20-4
6
CONTINUOUS
62
7
100
AcDbLine
10
285.660000000000
20
92.550000000000
30
0.0
11
297.780000000000
21
92.550000000000
31
0.0
0
LINE
5
5fa
100
AcDbEntity
8
0-20-4
6
CONTINUOUS
62
7
100
AcDbLine
10
297.780000000000
20
92.130000000000
30
0.0
11
285.660000000000
21
92.130000000000
31
0.0
0
LINE
5
5fb
100
AcDbEntity
8
F-F
6
CONTINUOUS
62
2
100
AcDbLine
10
13.690000000000
20
5.910000000000
30
0.0
11
13.690000000000
21
285.910000000000
31
0.0
0
LINE
5
5fc
100
AcDbEntity
8
F-F
6
CONTINUOUS
62
2
100
AcDbLine
10
321.190000000000
20
20.720000000000
30
0.0
11
321.190000000000
21
5.910000000000
31
0.0
0
LINE
5
5fd
100
AcDbEntity
8
F-F
6
CONTINUOUS
62
2
100
AcDbLine
10
303.640000000000
20
20.720000000000
30
0.0
11
303.640000000000
21
5.910000000000
31
0.0
0
LINE
5
5fe
100
AcDbEntity
8
F-F
6
CONTINUOUS
62
2
100
AcDbLine
10
384.280000000000
20
5.910000000000
30
0.0
11
384.280000000000
21
20.720000000000
31
0.0
0
LINE
5
5ff
100
AcDbEntity
8
F-F
6
CONTINUOUS
62
2
100
AcDbLine
10
201.720000000000
20
20.720000000000
30
0.0
11
201.720000000000
21
5.910000000000
31
0.0
0
LINE
5
600
100
AcDbEntity
8
F-F
6
CONTINUOUS
62
2
100
AcDbLine
10
252.440000000000
20
20.720000000000
30
0.0
11
252.440000000000
21
5.910000000000
31
0.0
0
LINE
5
601
100
AcDbEntity
8
F-F
6
CONTINUOUS
62
2
100
AcDbLine
10
201.720000000000
20
15.790000000000
30
0.0
11
92.440000000000
21
15.790000000000
31
0.0
0
LINE
5
602
100
AcDbEntity
8
F-F
6
CONTINUOUS
62
2
100
AcDbLine
10
201.720000000000
20
10.850000000000
30
0.0
11
92.440000000000
21
10.850000000000
31
0.0
0
LINE
5
603
100
AcDbEntity
8
F-F
6
CONTINUOUS
62
2
100
AcDbLine
10
201.720000000000
20
8.380000000000
30
0.0
11
92.440000000000
21
8.380000000000
31
0.0
0
LINE
5
604
100
AcDbEntity
8
F-F
6
CONTINUOUS
62
2
100
AcDbLine
10
201.720000000000
20
18.250000000000
30
0.0
11
92.440000000000
21
18.250000000000
31
0.0
0
LINE
5
605
100
AcDbEntity
8
F-F
6
CONTINUOUS
62
2
100
AcDbLine
10
105.610000000000
20
20.720000000000
30
0.0
11
105.610000000000
21
5.910000000000
31
0.0
0
LINE
5
606
100
AcDbEntity
8
F-F
6
CONTINUOUS
62
2
100
AcDbLine
10
92.440000000000
20
20.720000000000
30
0.0
11
92.440000000000
21
5.910000000000
31
0.0
0
LINE
5
607
100
AcDbEntity
8
F-F
6
CONTINUOUS
62
2
100
AcDbLine
10
407.910000000000
20
5.910000000000
30
0.0
11
407.910000000000
21
285.910000000000
31
0.0
0
LINE
5
608
100
AcDbEntity
8
F-F
6
CONTINUOUS
62
2
100
AcDbLine
10
13.690000000000
20
285.910000000000
30
0.0
11
407.910000000000
21
285.910000000000
31
0.0
0
LINE
5
609
100
AcDbEntity
8
F-F
6
CONTINUOUS
62
2
100
AcDbLine
10
13.690000000000
20
5.910000000000
30
0.0
11
407.910000000000
21
5.910000000000
31
0.0
0
LINE
5
60a
100
AcDbEntity
8
F-F
6
CONTINUOUS
62
2
100
AcDbLine
10
407.910000000000
20
20.720000000000
30
0.0
11
13.690000000000
21
20.720000000000
31
0.0
0
LINE
5
60b
100
AcDbEntity
8
F-F
6
CONTINUOUS
62
2
100
AcDbLine
10
92.440000000000
20
13.320000000000
30
0.0
11
407.910000000000
21
13.320000000000
31
0.0
0
POLYLINE
5
60c
100
AcDbEntity
8
F-F
6
CONTINUOUS
62
  3
100
AcDb2dPolyline
66
1
10
0.0
20
0.0
30
0.0
70
0
0
VERTEX
5
60d
100
AcDbEntity
8
F-F
6
CONTINUOUS
62
  3
100
AcDbVertex
100
AcDb2dVertex
10
17.930000000000
20
14.770000000000
30
0.0
0
VERTEX
5
60e
100
AcDbEntity
8
F-F
6
CONTINUOUS
62
  3
100
AcDbVertex
100
AcDb2dVertex
10
17.930000000000
20
18.770000000000
30
0.0
0
VERTEX
5
60f
100
AcDbEntity
8
F-F
6
CONTINUOUS
62
  3
100
AcDbVertex
100
AcDb2dVertex
10
21.930000000000
20
18.770000000000
30
0.0
0
VERTEX
5
610
100
AcDbEntity
8
F-F
6
CONTINUOUS
62
  3
100
AcDbVertex
100
AcDb2dVertex
10
21.930000000000
20
14.770000000000
30
0.0
0
VERTEX
5
611
100
AcDbEntity
8
F-F
6
CONTINUOUS
62
  3
100
AcDbVertex
100
AcDb2dVertex
10
17.930000000000
20
14.770000000000
30
0.0
0
SEQEND
5
612
100
AcDbEntity
8
F-F
0
LINE
5
613
100
AcDbEntity
8
F-F
6
CONTINUOUS
62
3
100
AcDbLine
10
18.330000000000
20
15.320000000000
30
0.0
11
18.330000000000
21
18.370000000000
31
0.0
0
LINE
5
614
100
AcDbEntity
8
F-F
6
CONTINUOUS
62
3
100
AcDbLine
10
21.530000000000
20
15.170000000000
30
0.0
11
18.470000000000
21
15.170000000000
31
0.0
0
POLYLINE
5
615
100
AcDbEntity
8
F-F
6
CONTINUOUS
62
  3
100
AcDb2dPolyline
66
1
10
0.0
20
0.0
30
0.0
70
0
0
VERTEX
5
616
100
AcDbEntity
8
F-F
6
CONTINUOUS
62
  3
100
AcDbVertex
100
AcDb2dVertex
10
18.330000000000
20
18.370000000000
30
0.0
0
VERTEX
5
617
100
AcDbEntity
8
F-F
6
CONTINUOUS
62
  3
100
AcDbVertex
100
AcDb2dVertex
10
21.390000000000
20
18.370000000000
30
0.0
0
VERTEX
5
618
100
AcDbEntity
8
F-F
6
CONTINUOUS
62
  3
100
AcDbVertex
100
AcDb2dVertex
10
18.330000000000
20
15.320000000000
30
0.0
0
SEQEND
5
619
100
AcDbEntity
8
F-F
0
LINE
5
61a
100
AcDbEntity
8
F-F
6
CONTINUOUS
62
3
100
AcDbLine
10
21.530000000000
20
18.230000000000
30
0.0
11
18.470000000000
21
15.170000000000
31
0.0
0
LINE
5
61b
100
AcDbEntity
8
F-F
6
CONTINUOUS
62
3
100
AcDbLine
10
21.530000000000
20
18.230000000000
30
0.0
11
21.530000000000
21
15.170000000000
31
0.0
0
LINE
5
61c
100
AcDbEntity
8
F-F
6
CONTINUOUS
62
4
100
AcDbLine
10
17.930000000000
20
18.730000000000
30
0.0
11
21.930000000000
21
18.730000000000
31
0.0
0
LINE
5
61d
100
AcDbEntity
8
F-F
6
CONTINUOUS
62
4
100
AcDbLine
10
17.930000000000
20
18.650000000000
30
0.0
11
21.930000000000
21
18.650000000000
31
0.0
0
LINE
5
61e
100
AcDbEntity
8
F-F
6
CONTINUOUS
62
4
100
AcDbLine
10
17.930000000000
20
18.570000000000
30
0.0
11
21.930000000000
21
18.570000000000
31
0.0
0
LINE
5
61f
100
AcDbEntity
8
F-F
6
CONTINUOUS
62
4
100
AcDbLine
10
17.930000000000
20
18.490000000000
30
0.0
11
21.930000000000
21
18.490000000000
31
0.0
0
LINE
5
620
100
AcDbEntity
8
F-F
6
CONTINUOUS
62
4
100
AcDbLine
10
17.930000000000
20
18.410000000000
30
0.0
11
21.930000000000
21
18.410000000000
31
0.0
0
LINE
5
621
100
AcDbEntity
8
F-F
6
CONTINUOUS
62
4
100
AcDbLine
10
17.930000000000
20
15.130000000000
30
0.0
11
21.930000000000
21
15.130000000000
31
0.0
0
LINE
5
622
100
AcDbEntity
8
F-F
6
CONTINUOUS
62
4
100
AcDbLine
10
17.930000000000
20
15.050000000000
30
0.0
11
21.930000000000
21
15.050000000000
31
0.0
0
LINE
5
623
100
AcDbEntity
8
F-F
6
CONTINUOUS
62
4
100
AcDbLine
10
17.930000000000
20
14.970000000000
30
0.0
11
21.930000000000
21
14.970000000000
31
0.0
0
LINE
5
624
100
AcDbEntity
8
F-F
6
CONTINUOUS
62
4
100
AcDbLine
10
17.930000000000
20
14.890000000000
30
0.0
11
21.930000000000
21
14.890000000000
31
0.0
0
LINE
5
625
100
AcDbEntity
8
F-F
6
CONTINUOUS
62
4
100
AcDbLine
10
17.930000000000
20
14.810000000000
30
0.0
11
21.930000000000
21
14.810000000000
31
0.0
0
LINE
5
626
100
AcDbEntity
8
F-F
6
CONTINUOUS
62
4
100
AcDbLine
10
17.930000000000
20
15.370000000000
30
0.0
11
18.330000000000
21
15.370000000000
31
0.0
0
LINE
5
627
100
AcDbEntity
8
F-F
6
CONTINUOUS
62
4
100
AcDbLine
10
17.930000000000
20
15.450000000000
30
0.0
11
18.330000000000
21
15.450000000000
31
0.0
0
LINE
5
628
100
AcDbEntity
8
F-F
6
CONTINUOUS
62
4
100
AcDbLine
10
17.930000000000
20
15.530000000000
30
0.0
11
18.330000000000
21
15.530000000000
31
0.0
0
LINE
5
629
100
AcDbEntity
8
F-F
6
CONTINUOUS
62
4
100
AcDbLine
10
17.930000000000
20
15.610000000000
30
0.0
11
18.330000000000
21
15.610000000000
31
0.0
0
LINE
5
62a
100
AcDbEntity
8
F-F
6
CONTINUOUS
62
4
100
AcDbLine
10
17.930000000000
20
15.690000000000
30
0.0
11
18.330000000000
21
15.690000000000
31
0.0
0
LINE
5
62b
100
AcDbEntity
8
F-F
6
CONTINUOUS
62
4
100
AcDbLine
10
17.930000000000
20
15.770000000000
30
0.0
11
18.330000000000
21
15.770000000000
31
0.0
0
LINE
5
62c
100
AcDbEntity
8
F-F
6
CONTINUOUS
62
4
100
AcDbLine
10
17.930000000000
20
15.850000000000
30
0.0
11
18.330000000000
21
15.850000000000
31
0.0
0
LINE
5
62d
100
AcDbEntity
8
F-F
6
CONTINUOUS
62
4
100
AcDbLine
10
17.930000000000
20
15.930000000000
30
0.0
11
18.330000000000
21
15.930000000000
31
0.0
0
LINE
5
62e
100
AcDbEntity
8
F-F
6
CONTINUOUS
62
4
100
AcDbLine
10
17.930000000000
20
16.010000000000
30
0.0
11
18.330000000000
21
16.010000000000
31
0.0
0
LINE
5
62f
100
AcDbEntity
8
F-F
6
CONTINUOUS
62
4
100
AcDbLine
10
17.930000000000
20
16.090000000000
30
0.0
11
18.330000000000
21
16.090000000000
31
0.0
0
LINE
5
630
100
AcDbEntity
8
F-F
6
CONTINUOUS
62
4
100
AcDbLine
10
17.930000000000
20
16.170000000000
30
0.0
11
18.330000000000
21
16.170000000000
31
0.0
0
LINE
5
631
100
AcDbEntity
8
F-F
6
CONTINUOUS
62
4
100
AcDbLine
10
17.930000000000
20
16.250000000000
30
0.0
11
18.330000000000
21
16.250000000000
31
0.0
0
LINE
5
632
100
AcDbEntity
8
F-F
6
CONTINUOUS
62
4
100
AcDbLine
10
17.930000000000
20
16.330000000000
30
0.0
11
18.330000000000
21
16.330000000000
31
0.0
0
LINE
5
633
100
AcDbEntity
8
F-F
6
CONTINUOUS
62
4
100
AcDbLine
10
17.930000000000
20
16.410000000000
30
0.0
11
18.330000000000
21
16.410000000000
31
0.0
0
LINE
5
634
100
AcDbEntity
8
F-F
6
CONTINUOUS
62
4
100
AcDbLine
10
17.930000000000
20
16.490000000000
30
0.0
11
18.330000000000
21
16.490000000000
31
0.0
0
LINE
5
635
100
AcDbEntity
8
F-F
6
CONTINUOUS
62
4
100
AcDbLine
10
17.930000000000
20
16.570000000000
30
0.0
11
18.330000000000
21
16.570000000000
31
0.0
0
LINE
5
636
100
AcDbEntity
8
F-F
6
CONTINUOUS
62
4
100
AcDbLine
10
17.930000000000
20
16.650000000000
30
0.0
11
18.330000000000
21
16.650000000000
31
0.0
0
LINE
5
637
100
AcDbEntity
8
F-F
6
CONTINUOUS
62
4
100
AcDbLine
10
17.930000000000
20
16.730000000000
30
0.0
11
18.330000000000
21
16.730000000000
31
0.0
0
LINE
5
638
100
AcDbEntity
8
F-F
6
CONTINUOUS
62
4
100
AcDbLine
10
17.930000000000
20
16.810000000000
30
0.0
11
18.330000000000
21
16.810000000000
31
0.0
0
LINE
5
639
100
AcDbEntity
8
F-F
6
CONTINUOUS
62
4
100
AcDbLine
10
17.930000000000
20
16.890000000000
30
0.0
11
18.330000000000
21
16.890000000000
31
0.0
0
LINE
5
63a
100
AcDbEntity
8
F-F
6
CONTINUOUS
62
4
100
AcDbLine
10
17.930000000000
20
16.970000000000
30
0.0
11
18.330000000000
21
16.970000000000
31
0.0
0
LINE
5
63b
100
AcDbEntity
8
F-F
6
CONTINUOUS
62
4
100
AcDbLine
10
17.930000000000
20
17.050000000000
30
0.0
11
18.330000000000
21
17.050000000000
31
0.0
0
LINE
5
63c
100
AcDbEntity
8
F-F
6
CONTINUOUS
62
4
100
AcDbLine
10
17.930000000000
20
17.130000000000
30
0.0
11
18.330000000000
21
17.130000000000
31
0.0
0
LINE
5
63d
100
AcDbEntity
8
F-F
6
CONTINUOUS
62
4
100
AcDbLine
10
17.930000000000
20
17.210000000000
30
0.0
11
18.330000000000
21
17.210000000000
31
0.0
0
LINE
5
63e
100
AcDbEntity
8
F-F
6
CONTINUOUS
62
4
100
AcDbLine
10
17.930000000000
20
17.450000000000
30
0.0
11
18.330000000000
21
17.450000000000
31
0.0
0
LINE
5
63f
100
AcDbEntity
8
F-F
6
CONTINUOUS
62
4
100
AcDbLine
10
17.930000000000
20
17.690000000000
30
0.0
11
18.330000000000
21
17.690000000000
31
0.0
0
LINE
5
640
100
AcDbEntity
8
F-F
6
CONTINUOUS
62
4
100
AcDbLine
10
17.930000000000
20
17.770000000000
30
0.0
11
18.330000000000
21
17.770000000000
31
0.0
0
LINE
5
641
100
AcDbEntity
8
F-F
6
CONTINUOUS
62
4
100
AcDbLine
10
17.930000000000
20
17.850000000000
30
0.0
11
18.330000000000
21
17.850000000000
31
0.0
0
LINE
5
642
100
AcDbEntity
8
F-F
6
CONTINUOUS
62
4
100
AcDbLine
10
17.930000000000
20
17.930000000000
30
0.0
11
18.330000000000
21
17.930000000000
31
0.0
0
LINE
5
643
100
AcDbEntity
8
F-F
6
CONTINUOUS
62
4
100
AcDbLine
10
17.930000000000
20
18.330000000000
30
0.0
11
18.330000000000
21
18.330000000000
31
0.0
0
LINE
5
644
100
AcDbEntity
8
F-F
6
CONTINUOUS
62
4
100
AcDbLine
10
17.930000000000
20
18.250000000000
30
0.0
11
18.330000000000
21
18.250000000000
31
0.0
0
LINE
5
645
100
AcDbEntity
8
F-F
6
CONTINUOUS
62
4
100
AcDbLine
10
17.930000000000
20
18.170000000000
30
0.0
11
18.330000000000
21
18.170000000000
31
0.0
0
LINE
5
646
100
AcDbEntity
8
F-F
6
CONTINUOUS
62
4
100
AcDbLine
10
17.930000000000
20
18.090000000000
30
0.0
11
18.330000000000
21
18.090000000000
31
0.0
0
LINE
5
647
100
AcDbEntity
8
F-F
6
CONTINUOUS
62
4
100
AcDbLine
10
17.930000000000
20
18.010000000000
30
0.0
11
18.330000000000
21
18.010000000000
31
0.0
0
LINE
5
648
100
AcDbEntity
8
F-F
6
CONTINUOUS
62
4
100
AcDbLine
10
17.930000000000
20
17.530000000000
30
0.0
11
18.330000000000
21
17.530000000000
31
0.0
0
LINE
5
649
100
AcDbEntity
8
F-F
6
CONTINUOUS
62
4
100
AcDbLine
10
17.930000000000
20
17.610000000000
30
0.0
11
18.330000000000
21
17.610000000000
31
0.0
0
LINE
5
64a
100
AcDbEntity
8
F-F
6
CONTINUOUS
62
4
100
AcDbLine
10
17.930000000000
20
17.370000000000
30
0.0
11
18.330000000000
21
17.370000000000
31
0.0
0
LINE
5
64b
100
AcDbEntity
8
F-F
6
CONTINUOUS
62
4
100
AcDbLine
10
17.930000000000
20
17.290000000000
30
0.0
11
18.330000000000
21
17.290000000000
31
0.0
0
LINE
5
64c
100
AcDbEntity
8
F-F
6
CONTINUOUS
62
4
100
AcDbLine
10
18.470000000000
20
15.450000000000
30
0.0
11
18.750000000000
21
15.450000000000
31
0.0
0
LINE
5
64d
100
AcDbEntity
8
F-F
6
CONTINUOUS
62
4
100
AcDbLine
10
18.390000000000
20
15.370000000000
30
0.0
11
18.670000000000
21
15.370000000000
31
0.0
0
LINE
5
64e
100
AcDbEntity
8
F-F
6
CONTINUOUS
62
4
100
AcDbLine
10
17.930000000000
20
15.290000000000
30
0.0
11
18.590000000000
21
15.290000000000
31
0.0
0
LINE
5
64f
100
AcDbEntity
8
F-F
6
CONTINUOUS
62
4
100
AcDbLine
10
17.930000000000
20
15.210000000000
30
0.0
11
18.510000000000
21
15.210000000000
31
0.0
0
LINE
5
650
100
AcDbEntity
8
F-F
6
CONTINUOUS
62
4
100
AcDbLine
10
18.950000000000
20
15.930000000000
30
0.0
11
19.230000000000
21
15.930000000000
31
0.0
0
LINE
5
651
100
AcDbEntity
8
F-F
6
CONTINUOUS
62
4
100
AcDbLine
10
18.870000000000
20
15.850000000000
30
0.0
11
19.150000000000
21
15.850000000000
31
0.0
0
LINE
5
652
100
AcDbEntity
8
F-F
6
CONTINUOUS
62
4
100
AcDbLine
10
18.790000000000
20
15.770000000000
30
0.0
11
19.070000000000
21
15.770000000000
31
0.0
0
LINE
5
653
100
AcDbEntity
8
F-F
6
CONTINUOUS
62
4
100
AcDbLine
10
18.710000000000
20
15.690000000000
30
0.0
11
18.990000000000
21
15.690000000000
31
0.0
0
LINE
5
654
100
AcDbEntity
8
F-F
6
CONTINUOUS
62
4
100
AcDbLine
10
18.630000000000
20
15.610000000000
30
0.0
11
18.910000000000
21
15.610000000000
31
0.0
0
LINE
5
655
100
AcDbEntity
8
F-F
6
CONTINUOUS
62
4
100
AcDbLine
10
18.550000000000
20
15.530000000000
30
0.0
11
18.830000000000
21
15.530000000000
31
0.0
0
LINE
5
656
100
AcDbEntity
8
F-F
6
CONTINUOUS
62
4
100
AcDbLine
10
18.330000000000
20
18.370000000000
30
0.0
11
18.330000000000
21
18.450000000000
31
0.0
0
LINE
5
657
100
AcDbEntity
8
F-F
6
CONTINUOUS
62
4
100
AcDbLine
10
21.530000000000
20
15.370000000000
30
0.0
11
21.930000000000
21
15.370000000000
31
0.0
0
LINE
5
658
100
AcDbEntity
8
F-F
6
CONTINUOUS
62
4
100
AcDbLine
10
21.530000000000
20
15.450000000000
30
0.0
11
21.930000000000
21
15.450000000000
31
0.0
0
LINE
5
659
100
AcDbEntity
8
F-F
6
CONTINUOUS
62
4
100
AcDbLine
10
21.530000000000
20
15.530000000000
30
0.0
11
21.930000000000
21
15.530000000000
31
0.0
0
LINE
5
65a
100
AcDbEntity
8
F-F
6
CONTINUOUS
62
4
100
AcDbLine
10
21.530000000000
20
15.610000000000
30
0.0
11
21.930000000000
21
15.610000000000
31
0.0
0
LINE
5
65b
100
AcDbEntity
8
F-F
6
CONTINUOUS
62
4
100
AcDbLine
10
21.530000000000
20
15.690000000000
30
0.0
11
21.930000000000
21
15.690000000000
31
0.0
0
LINE
5
65c
100
AcDbEntity
8
F-F
6
CONTINUOUS
62
4
100
AcDbLine
10
21.530000000000
20
15.770000000000
30
0.0
11
21.930000000000
21
15.770000000000
31
0.0
0
LINE
5
65d
100
AcDbEntity
8
F-F
6
CONTINUOUS
62
4
100
AcDbLine
10
21.530000000000
20
15.850000000000
30
0.0
11
21.930000000000
21
15.850000000000
31
0.0
0
LINE
5
65e
100
AcDbEntity
8
F-F
6
CONTINUOUS
62
4
100
AcDbLine
10
21.530000000000
20
15.930000000000
30
0.0
11
21.930000000000
21
15.930000000000
31
0.0
0
LINE
5
65f
100
AcDbEntity
8
F-F
6
CONTINUOUS
62
4
100
AcDbLine
10
21.530000000000
20
16.010000000000
30
0.0
11
21.930000000000
21
16.010000000000
31
0.0
0
LINE
5
660
100
AcDbEntity
8
F-F
6
CONTINUOUS
62
4
100
AcDbLine
10
21.530000000000
20
16.090000000000
30
0.0
11
21.930000000000
21
16.090000000000
31
0.0
0
LINE
5
661
100
AcDbEntity
8
F-F
6
CONTINUOUS
62
4
100
AcDbLine
10
21.530000000000
20
16.170000000000
30
0.0
11
21.930000000000
21
16.170000000000
31
0.0
0
LINE
5
662
100
AcDbEntity
8
F-F
6
CONTINUOUS
62
4
100
AcDbLine
10
21.530000000000
20
16.250000000000
30
0.0
11
21.930000000000
21
16.250000000000
31
0.0
0
LINE
5
663
100
AcDbEntity
8
F-F
6
CONTINUOUS
62
4
100
AcDbLine
10
21.530000000000
20
16.330000000000
30
0.0
11
21.930000000000
21
16.330000000000
31
0.0
0
LINE
5
664
100
AcDbEntity
8
F-F
6
CONTINUOUS
62
4
100
AcDbLine
10
21.530000000000
20
16.490000000000
30
0.0
11
21.930000000000
21
16.490000000000
31
0.0
0
LINE
5
665
100
AcDbEntity
8
F-F
6
CONTINUOUS
62
4
100
AcDbLine
10
21.530000000000
20
16.570000000000
30
0.0
11
21.930000000000
21
16.570000000000
31
0.0
0
LINE
5
666
100
AcDbEntity
8
F-F
6
CONTINUOUS
62
4
100
AcDbLine
10
21.530000000000
20
16.650000000000
30
0.0
11
21.930000000000
21
16.650000000000
31
0.0
0
LINE
5
667
100
AcDbEntity
8
F-F
6
CONTINUOUS
62
4
100
AcDbLine
10
21.530000000000
20
16.730000000000
30
0.0
11
21.930000000000
21
16.730000000000
31
0.0
0
LINE
5
668
100
AcDbEntity
8
F-F
6
CONTINUOUS
62
4
100
AcDbLine
10
21.530000000000
20
16.810000000000
30
0.0
11
21.930000000000
21
16.810000000000
31
0.0
0
LINE
5
669
100
AcDbEntity
8
F-F
6
CONTINUOUS
62
4
100
AcDbLine
10
21.530000000000
20
16.890000000000
30
0.0
11
21.930000000000
21
16.890000000000
31
0.0
0
LINE
5
66a
100
AcDbEntity
8
F-F
6
CONTINUOUS
62
4
100
AcDbLine
10
21.530000000000
20
16.970000000000
30
0.0
11
21.930000000000
21
16.970000000000
31
0.0
0
LINE
5
66b
100
AcDbEntity
8
F-F
6
CONTINUOUS
62
4
100
AcDbLine
10
21.530000000000
20
17.050000000000
30
0.0
11
21.930000000000
21
17.050000000000
31
0.0
0
LINE
5
66c
100
AcDbEntity
8
F-F
6
CONTINUOUS
62
4
100
AcDbLine
10
21.530000000000
20
17.130000000000
30
0.0
11
21.930000000000
21
17.130000000000
31
0.0
0
LINE
5
66d
100
AcDbEntity
8
F-F
6
CONTINUOUS
62
4
100
AcDbLine
10
21.530000000000
20
17.210000000000
30
0.0
11
21.930000000000
21
17.210000000000
31
0.0
0
LINE
5
66e
100
AcDbEntity
8
F-F
6
CONTINUOUS
62
4
100
AcDbLine
10
21.530000000000
20
17.450000000000
30
0.0
11
21.930000000000
21
17.450000000000
31
0.0
0
LINE
5
66f
100
AcDbEntity
8
F-F
6
CONTINUOUS
62
4
100
AcDbLine
10
21.530000000000
20
17.690000000000
30
0.0
11
21.930000000000
21
17.690000000000
31
0.0
0
LINE
5
670
100
AcDbEntity
8
F-F
6
CONTINUOUS
62
4
100
AcDbLine
10
21.530000000000
20
17.770000000000
30
0.0
11
21.930000000000
21
17.770000000000
31
0.0
0
LINE
5
671
100
AcDbEntity
8
F-F
6
CONTINUOUS
62
4
100
AcDbLine
10
21.530000000000
20
17.850000000000
30
0.0
11
21.930000000000
21
17.850000000000
31
0.0
0
LINE
5
672
100
AcDbEntity
8
F-F
6
CONTINUOUS
62
4
100
AcDbLine
10
21.530000000000
20
17.930000000000
30
0.0
11
21.930000000000
21
17.930000000000
31
0.0
0
LINE
5
673
100
AcDbEntity
8
F-F
6
CONTINUOUS
62
4
100
AcDbLine
10
21.530000000000
20
18.170000000000
30
0.0
11
21.930000000000
21
18.170000000000
31
0.0
0
LINE
5
674
100
AcDbEntity
8
F-F
6
CONTINUOUS
62
4
100
AcDbLine
10
21.530000000000
20
18.090000000000
30
0.0
11
21.930000000000
21
18.090000000000
31
0.0
0
LINE
5
675
100
AcDbEntity
8
F-F
6
CONTINUOUS
62
4
100
AcDbLine
10
21.530000000000
20
18.010000000000
30
0.0
11
21.930000000000
21
18.010000000000
31
0.0
0
LINE
5
676
100
AcDbEntity
8
F-F
6
CONTINUOUS
62
4
100
AcDbLine
10
21.530000000000
20
17.530000000000
30
0.0
11
21.930000000000
21
17.530000000000
31
0.0
0
LINE
5
677
100
AcDbEntity
8
F-F
6
CONTINUOUS
62
4
100
AcDbLine
10
21.530000000000
20
17.610000000000
30
0.0
11
21.930000000000
21
17.610000000000
31
0.0
0
LINE
5
678
100
AcDbEntity
8
F-F
6
CONTINUOUS
62
4
100
AcDbLine
10
21.530000000000
20
17.370000000000
30
0.0
11
21.930000000000
21
17.370000000000
31
0.0
0
LINE
5
679
100
AcDbEntity
8
F-F
6
CONTINUOUS
62
4
100
AcDbLine
10
21.530000000000
20
17.290000000000
30
0.0
11
21.930000000000
21
17.290000000000
31
0.0
0
LINE
5
67a
100
AcDbEntity
8
F-F
6
CONTINUOUS
62
4
100
AcDbLine
10
21.530000000000
20
15.210000000000
30
0.0
11
21.930000000000
21
15.210000000000
31
0.0
0
LINE
5
67b
100
AcDbEntity
8
F-F
6
CONTINUOUS
62
4
100
AcDbLine
10
21.530000000000
20
15.290000000000
30
0.0
11
21.930000000000
21
15.290000000000
31
0.0
0
LINE
5
67c
100
AcDbEntity
8
F-F
6
CONTINUOUS
62
4
100
AcDbLine
10
21.350000000000
20
18.330000000000
30
0.0
11
21.930000000000
21
18.330000000000
31
0.0
0
LINE
5
67d
100
AcDbEntity
8
F-F
6
CONTINUOUS
62
4
100
AcDbLine
10
21.270000000000
20
18.250000000000
30
0.0
11
21.930000000000
21
18.250000000000
31
0.0
0
LINE
5
67e
100
AcDbEntity
8
F-F
6
CONTINUOUS
62
4
100
AcDbLine
10
19.270000000000
20
16.250000000000
30
0.0
11
19.550000000000
21
16.250000000000
31
0.0
0
LINE
5
67f
100
AcDbEntity
8
F-F
6
CONTINUOUS
62
4
100
AcDbLine
10
19.190000000000
20
16.170000000000
30
0.0
11
19.470000000000
21
16.170000000000
31
0.0
0
LINE
5
680
100
AcDbEntity
8
F-F
6
CONTINUOUS
62
4
100
AcDbLine
10
19.110000000000
20
16.090000000000
30
0.0
11
19.390000000000
21
16.090000000000
31
0.0
0
LINE
5
681
100
AcDbEntity
8
F-F
6
CONTINUOUS
62
4
100
AcDbLine
10
19.030000000000
20
16.010000000000
30
0.0
11
19.310000000000
21
16.010000000000
31
0.0
0
LINE
5
682
100
AcDbEntity
8
F-F
6
CONTINUOUS
62
4
100
AcDbLine
10
19.590000000000
20
16.570000000000
30
0.0
11
19.870000000000
21
16.570000000000
31
0.0
0
LINE
5
683
100
AcDbEntity
8
F-F
6
CONTINUOUS
62
4
100
AcDbLine
10
19.510000000000
20
16.490000000000
30
0.0
11
19.790000000000
21
16.490000000000
31
0.0
0
LINE
5
684
100
AcDbEntity
8
F-F
6
CONTINUOUS
62
4
100
AcDbLine
10
19.430000000000
20
16.410000000000
30
0.0
11
19.710000000000
21
16.410000000000
31
0.0
0
LINE
5
685
100
AcDbEntity
8
F-F
6
CONTINUOUS
62
4
100
AcDbLine
10
19.350000000000
20
16.330000000000
30
0.0
11
19.630000000000
21
16.330000000000
31
0.0
0
LINE
5
686
100
AcDbEntity
8
F-F
6
CONTINUOUS
62
4
100
AcDbLine
10
19.910000000000
20
16.890000000000
30
0.0
11
20.190000000000
21
16.890000000000
31
0.0
0
LINE
5
687
100
AcDbEntity
8
F-F
6
CONTINUOUS
62
4
100
AcDbLine
10
19.830000000000
20
16.810000000000
30
0.0
11
20.110000000000
21
16.810000000000
31
0.0
0
LINE
5
688
100
AcDbEntity
8
F-F
6
CONTINUOUS
62
4
100
AcDbLine
10
19.750000000000
20
16.730000000000
30
0.0
11
20.030000000000
21
16.730000000000
31
0.0
0
LINE
5
689
100
AcDbEntity
8
F-F
6
CONTINUOUS
62
4
100
AcDbLine
10
19.670000000000
20
16.650000000000
30
0.0
11
19.950000000000
21
16.650000000000
31
0.0
0
LINE
5
68a
100
AcDbEntity
8
F-F
6
CONTINUOUS
62
4
100
AcDbLine
10
20.230000000000
20
17.210000000000
30
0.0
11
20.510000000000
21
17.210000000000
31
0.0
0
LINE
5
68b
100
AcDbEntity
8
F-F
6
CONTINUOUS
62
4
100
AcDbLine
10
20.150000000000
20
17.130000000000
30
0.0
11
20.430000000000
21
17.130000000000
31
0.0
0
LINE
5
68c
100
AcDbEntity
8
F-F
6
CONTINUOUS
62
4
100
AcDbLine
10
20.070000000000
20
17.050000000000
30
0.0
11
20.350000000000
21
17.050000000000
31
0.0
0
LINE
5
68d
100
AcDbEntity
8
F-F
6
CONTINUOUS
62
4
100
AcDbLine
10
19.990000000000
20
16.970000000000
30
0.0
11
20.270000000000
21
16.970000000000
31
0.0
0
LINE
5
68e
100
AcDbEntity
8
F-F
6
CONTINUOUS
62
4
100
AcDbLine
10
20.550000000000
20
17.530000000000
30
0.0
11
20.830000000000
21
17.530000000000
31
0.0
0
LINE
5
68f
100
AcDbEntity
8
F-F
6
CONTINUOUS
62
4
100
AcDbLine
10
20.470000000000
20
17.450000000000
30
0.0
11
20.750000000000
21
17.450000000000
31
0.0
0
LINE
5
690
100
AcDbEntity
8
F-F
6
CONTINUOUS
62
4
100
AcDbLine
10
20.390000000000
20
17.370000000000
30
0.0
11
20.670000000000
21
17.370000000000
31
0.0
0
LINE
5
691
100
AcDbEntity
8
F-F
6
CONTINUOUS
62
4
100
AcDbLine
10
20.310000000000
20
17.290000000000
30
0.0
11
20.590000000000
21
17.290000000000
31
0.0
0
LINE
5
692
100
AcDbEntity
8
F-F
6
CONTINUOUS
62
4
100
AcDbLine
10
20.870000000000
20
17.850000000000
30
0.0
11
21.150000000000
21
17.850000000000
31
0.0
0
LINE
5
693
100
AcDbEntity
8
F-F
6
CONTINUOUS
62
4
100
AcDbLine
10
20.790000000000
20
17.770000000000
30
0.0
11
21.070000000000
21
17.770000000000
31
0.0
0
LINE
5
694
100
AcDbEntity
8
F-F
6
CONTINUOUS
62
4
100
AcDbLine
10
20.710000000000
20
17.690000000000
30
0.0
11
20.990000000000
21
17.690000000000
31
0.0
0
LINE
5
695
100
AcDbEntity
8
F-F
6
CONTINUOUS
62
4
100
AcDbLine
10
20.630000000000
20
17.610000000000
30
0.0
11
20.910000000000
21
17.610000000000
31
0.0
0
LINE
5
696
100
AcDbEntity
8
F-F
6
CONTINUOUS
62
4
100
AcDbLine
10
21.190000000000
20
18.170000000000
30
0.0
11
21.470000000000
21
18.170000000000
31
0.0
0
LINE
5
697
100
AcDbEntity
8
F-F
6
CONTINUOUS
62
4
100
AcDbLine
10
21.110000000000
20
18.090000000000
30
0.0
11
21.390000000000
21
18.090000000000
31
0.0
0
LINE
5
698
100
AcDbEntity
8
F-F
6
CONTINUOUS
62
4
100
AcDbLine
10
21.030000000000
20
18.010000000000
30
0.0
11
21.310000000000
21
18.010000000000
31
0.0
0
LINE
5
699
100
AcDbEntity
8
F-F
6
CONTINUOUS
62
4
100
AcDbLine
10
20.950000000000
20
17.930000000000
30
0.0
11
21.230000000000
21
17.930000000000
31
0.0
0
LINE
5
69a
100
AcDbEntity
8
F-F
6
CONTINUOUS
62
4
100
AcDbLine
10
21.530000000000
20
16.410000000000
30
0.0
11
21.930000000000
21
16.410000000000
31
0.0
0
LINE
5
69b
100
AcDbEntity
8
0-20-4
6
CONTINUOUS
62
7
100
AcDbLine
10
110.520000000000
20
43.200000000000
30
0.0
11
103.170000000000
21
43.200000000000
31
0.0
0
LINE
5
69c
100
AcDbEntity
8
0-20-4
6
CONTINUOUS
62
7
100
AcDbLine
10
103.170000000000
20
43.630000000000
30
0.0
11
110.520000000000
21
43.630000000000
31
0.0
0
POLYLINE
5
69d
100
AcDbEntity
8
0-20-4
6
CONTINUOUS
62
  7
100
AcDb2dPolyline
66
1
10
0.0
20
0.0
30
0.0
70
0
0
VERTEX
5
69e
100
AcDbEntity
8
0-20-4
6
CONTINUOUS
62
  7
100
AcDbVertex
100
AcDb2dVertex
10
110.980000000000
20
42.850000000000
30
0.0
0
VERTEX
5
69f
100
AcDbEntity
8
0-20-4
6
CONTINUOUS
62
  7
100
AcDbVertex
100
AcDb2dVertex
10
103.910000000000
20
42.850000000000
30
0.0
0
VERTEX
5
6a0
100
AcDbEntity
8
0-20-4
6
CONTINUOUS
62
  7
100
AcDbVertex
100
AcDb2dVertex
10
103.910000000000
20
42.430000000000
30
0.0
0
SEQEND
5
6a1
100
AcDbEntity
8
0-20-4
0
LINE
5
6a2
100
AcDbEntity
8
0-20-4
6
CONTINUOUS
62
7
100
AcDbLine
10
110.980000000000
20
42.430000000000
30
0.0
11
103.910000000000
21
42.430000000000
31
0.0
0
LINE
5
6a3
100
AcDbEntity
8
0-20-4
6
CONTINUOUS
62
7
100
AcDbLine
10
110.980000000000
20
45.400000000000
30
0.0
11
101.470000000000
21
45.400000000000
31
0.0
0
LINE
5
6a4
100
AcDbEntity
8
0-20-4
6
CONTINUOUS
62
7
100
AcDbLine
10
101.470000000000
20
44.970000000000
30
0.0
11
110.980000000000
21
44.970000000000
31
0.0
0
LINE
5
6a5
100
AcDbEntity
8
0-20-4
6
CONTINUOUS
62
7
100
AcDbLine
10
101.890000000000
20
44.190000000000
30
0.0
11
101.890000000000
21
30.830000000000
31
0.0
0
LINE
5
6a6
100
AcDbEntity
8
0-20-4
6
CONTINUOUS
62
7
100
AcDbLine
10
103.170000000000
20
43.200000000000
30
0.0
11
103.170000000000
21
32.250000000000
31
0.0
0
LINE
5
6a7
100
AcDbEntity
8
0-20-4
6
CONTINUOUS
62
7
100
AcDbLine
10
102.740000000000
20
43.200000000000
30
0.0
11
102.740000000000
21
31.820000000000
31
0.0
0
LINE
5
6a8
100
AcDbEntity
8
0-20-4
6
CONTINUOUS
62
7
100
AcDbLine
10
101.470000000000
20
44.970000000000
30
0.0
11
101.470000000000
21
31.820000000000
31
0.0
0
LINE
5
6a9
100
AcDbEntity
8
0-20-4
6
CONTINUOUS
62
7
100
AcDbLine
10
101.050000000000
20
44.970000000000
30
0.0
11
101.050000000000
21
32.250000000000
31
0.0
0
LINE
5
6aa
100
AcDbEntity
8
0-20-4
6
CONTINUOUS
62
7
100
AcDbLine
10
102.320000000000
20
44.620000000000
30
0.0
11
110.520000000000
21
44.620000000000
31
0.0
0
POLYLINE
5
6ab
100
AcDbEntity
8
0-20-4
6
CONTINUOUS
62
  7
100
AcDb2dPolyline
66
1
10
0.0
20
0.0
30
0.0
70
0
0
VERTEX
5
6ac
100
AcDbEntity
8
0-20-4
6
CONTINUOUS
62
  7
100
AcDbVertex
100
AcDb2dVertex
10
110.520000000000
20
44.190000000000
30
0.0
0
VERTEX
5
6ad
100
AcDbEntity
8
0-20-4
6
CONTINUOUS
62
  7
100
AcDbVertex
100
AcDb2dVertex
10
102.320000000000
20
44.190000000000
30
0.0
0
VERTEX
5
6ae
100
AcDbEntity
8
0-20-4
6
CONTINUOUS
62
  7
100
AcDbVertex
100
AcDb2dVertex
10
102.320000000000
20
30.410000000000
30
0.0
0
SEQEND
5
6af
100
AcDbEntity
8
0-20-4
0
LINE
5
6b0
100
AcDbEntity
8
0-10-2
6
CONTINUOUS
62
7
100
AcDbLine
10
103.820000000000
20
166.600000000000
30
0.0
11
103.820000000000
21
165.890000000000
31
0.0
0
LINE
5
6b1
100
AcDbEntity
8
0-10-2
6
CONTINUOUS
62
7
100
AcDbLine
10
103.340000000000
20
152.110000000000
30
0.0
11
90.330000000000
21
152.110000000000
31
0.0
0
LINE
5
6b2
100
AcDbEntity
8
0-10-2
6
CONTINUOUS
62
7
100
AcDbLine
10
103.340000000000
20
165.470000000000
30
0.0
11
103.340000000000
21
152.110000000000
31
0.0
0
LINE
5
6b3
100
AcDbEntity
8
0-10-2
6
CONTINUOUS
62
7
100
AcDbLine
10
101.470000000000
20
166.270000000000
30
0.0
11
94.300000000000
21
178.700000000000
31
0.0
0
LINE
5
6b4
100
AcDbEntity
8
0-10-2
6
CONTINUOUS
62
7
100
AcDbLine
10
104.770000000000
20
166.270000000000
30
0.0
11
101.470000000000
21
166.270000000000
31
0.0
0
LINE
5
6b5
100
AcDbEntity
8
0-20-4
6
CENTER2
62
7
100
AcDbLine
10
102.110000000000
20
51.140000000000
30
0.0
11
102.110000000000
21
26.590000000000
31
0.0
0
LINE
5
6b6
100
AcDbEntity
8
0-20-4
6
CENTER2
62
7
100
AcDbLine
10
334.530000000000
20
51.140000000000
30
0.0
11
334.530000000000
21
26.590000000000
31
0.0
0
LINE
5
6b7
100
AcDbEntity
8
0-20-4
6
CENTER2
62
7
100
AcDbLine
10
108.940000000000
20
84.420000000000
30
0.0
11
108.940000000000
21
111.870000000000
31
0.0
0
LINE
5
6b8
100
AcDbEntity
8
0-20-4
6
CENTER2
62
7
100
AcDbLine
10
214.970000000000
20
84.420000000000
30
0.0
11
214.970000000000
21
111.870000000000
31
0.0
0
LINE
5
6b9
100
AcDbEntity
8
0-20-4
6
CENTER2
62
7
100
AcDbLine
10
321.010000000000
20
84.420000000000
30
0.0
11
321.010000000000
21
111.870000000000
31
0.0
0
ARC
5
6ba
100
AcDbEntity
8
0-10-2
6
CONTINUOUS
62
7
100
AcDbCircle
10
314.980000000000
20
153.100000000000
30
0.0
40
0.424137916589
100
AcDbArc
50
90.000000000000
51
135.000000000000
0
ARC
5
6bb
100
AcDbEntity
8
0-10-2
6
CONTINUOUS
62
7
100
AcDbCircle
10
313.400000000000
20
152.110000000000
30
0.0
40
0.424137916589
100
AcDbArc
50
270.000000000000
51
315.000000000000
0
ARC
5
6bc
100
AcDbEntity
8
0-10-2
6
CONTINUOUS
62
7
100
AcDbCircle
10
335.770000000000
20
153.520000000000
30
0.0
40
0.424137916589
100
AcDbArc
50
270.000000000000
51
0.000000000000
0
ARC
5
6bd
100
AcDbEntity
8
0-10-2
6
CONTINUOUS
62
7
100
AcDbCircle
10
336.190000000000
20
166.250000000000
30
0.0
40
0.424137916589
100
AcDbArc
50
90.000000000000
51
180.000000000000
0
ARC
5
6be
100
AcDbEntity
8
0-10-2
6
CONTINUOUS
62
7
100
AcDbCircle
10
347.080000000000
20
166.250000000000
30
0.0
40
0.424137916589
100
AcDbArc
50
360.000000000000
51
450.000000000000
0
ARC
5
6bf
100
AcDbEntity
8
0-10-2
6
CONTINUOUS
62
7
100
AcDbCircle
10
125.610000000000
20
153.100000000000
30
0.0
40
0.424137916589
100
AcDbArc
50
45.000000000000
51
90.000000000000
0
ARC
5
6c0
100
AcDbEntity
8
0-10-2
6
CONTINUOUS
62
7
100
AcDbCircle
10
127.200000000000
20
152.110000000000
30
0.0
40
0.424137916589
100
AcDbArc
50
225.000000000000
51
270.000000000000
0
ARC
5
6c1
100
AcDbEntity
8
0-10-2
6
CONTINUOUS
62
7
100
AcDbCircle
10
104.820000000000
20
153.520000000000
30
0.0
40
0.424137916589
100
AcDbArc
50
180.000000000000
51
270.000000000000
0
ARC
5
6c2
100
AcDbEntity
8
0-10-2
6
CONTINUOUS
62
7
100
AcDbCircle
10
112.180000000000
20
165.190000000000
30
0.0
40
0.282766546302
100
AcDbArc
50
270.000000000000
51
90.000000000000
0
ARC
5
6c3
100
AcDbEntity
8
0-10-2
6
CONTINUOUS
62
7
100
AcDbCircle
10
112.180000000000
20
165.190000000000
30
0.0
40
0.706898656617
100
AcDbArc
50
270.000000000000
51
90.000000000000
0
ARC
5
6c4
100
AcDbEntity
8
0-10-2
6
CONTINUOUS
62
7
100
AcDbCircle
10
103.760000000000
20
165.470000000000
30
0.0
40
0.424137916589
100
AcDbArc
50
90.000000000000
51
180.000000000000
0
ARC
5
6c5
100
AcDbEntity
8
0-10-2
6
CONTINUOUS
62
7
100
AcDbCircle
10
104.820000000000
20
164.480000000000
30
0.0
40
0.424137916589
100
AcDbArc
50
90.000000000000
51
180.000000000000
0
ARC
5
6c6
100
AcDbEntity
8
0-10-2
6
CONTINUOUS
62
7
100
AcDbCircle
10
103.340000000000
20
152.110000000000
30
0.0
40
0.424137916589
100
AcDbArc
50
270.000000000000
51
0.000000000000
0
ARC
5
6c7
100
AcDbEntity
8
0-10-2
6
CONTINUOUS
62
7
100
AcDbCircle
10
90.330000000000
20
152.390000000000
30
0.0
40
0.282766546302
100
AcDbArc
50
90.000000000000
51
270.000000000000
0
ARC
5
6c8
100
AcDbEntity
8
0-10-2
6
CONTINUOUS
62
7
100
AcDbCircle
10
90.330000000000
20
152.390000000000
30
0.0
40
0.706898656617
100
AcDbArc
50
90.000000000000
51
270.000000000000
0
ARC
5
6c9
100
AcDbEntity
8
0-20-4
6
CONTINUOUS
62
7
100
AcDbCircle
10
129.880000000000
20
93.540000000000
30
0.0
40
0.424137916589
100
AcDbArc
50
45.000000000000
51
90.000000000000
0
ARC
5
6ca
100
AcDbEntity
8
0-20-4
6
CONTINUOUS
62
7
100
AcDbCircle
10
131.470000000000
20
92.550000000000
30
0.0
40
0.424137916589
100
AcDbArc
50
225.000000000000
51
270.000000000000
0
ARC
5
6cb
100
AcDbEntity
8
0-20-4
6
CONTINUOUS
62
7
100
AcDbCircle
10
109.100000000000
20
93.970000000000
30
0.0
40
0.424137916589
100
AcDbArc
50
180.000000000000
51
270.000000000000
0
ARC
5
6cc
100
AcDbEntity
8
0-20-4
6
CONTINUOUS
62
7
100
AcDbCircle
10
116.450000000000
20
105.630000000000
30
0.0
40
0.282766546302
100
AcDbArc
50
270.000000000000
51
90.000000000000
0
ARC
5
6cd
100
AcDbEntity
8
0-20-4
6
CONTINUOUS
62
7
100
AcDbCircle
10
116.450000000000
20
105.630000000000
30
0.0
40
0.706898656617
100
AcDbArc
50
270.000000000000
51
90.000000000000
0
ARC
5
6ce
100
AcDbEntity
8
0-20-4
6
CONTINUOUS
62
7
100
AcDbCircle
10
108.040000000000
20
105.910000000000
30
0.0
40
0.424137916589
100
AcDbArc
50
90.000000000000
51
180.000000000000
0
ARC
5
6cf
100
AcDbEntity
8
0-20-4
6
CONTINUOUS
62
7
100
AcDbCircle
10
109.100000000000
20
104.920000000000
30
0.0
40
0.424137916589
100
AcDbArc
50
90.000000000000
51
180.000000000000
0
ARC
5
6d0
100
AcDbEntity
8
0-20-4
6
CONTINUOUS
62
7
100
AcDbCircle
10
107.610000000000
20
92.550000000000
30
0.0
40
0.424137916589
100
AcDbArc
50
270.000000000000
51
0.000000000000
0
ARC
5
6d1
100
AcDbEntity
8
0-20-4
6
CONTINUOUS
62
7
100
AcDbCircle
10
94.600000000000
20
92.840000000000
30
0.0
40
0.282766546302
100
AcDbArc
50
90.000000000000
51
270.000000000000
0
ARC
5
6d2
100
AcDbEntity
8
0-20-4
6
CONTINUOUS
62
7
100
AcDbCircle
10
94.600000000000
20
92.840000000000
30
0.0
40
0.706898656617
100
AcDbArc
50
90.000000000000
51
270.000000000000
0
ARC
5
6d3
100
AcDbEntity
8
0-20-4
6
CONTINUOUS
62
7
100
AcDbCircle
10
85.730000000000
20
93.540000000000
30
0.0
40
0.424137916589
100
AcDbArc
50
90.000000000000
51
135.000000000000
0
ARC
5
6d4
100
AcDbEntity
8
0-20-4
6
CONTINUOUS
62
7
100
AcDbCircle
10
84.140000000000
20
92.550000000000
30
0.0
40
0.424137916589
100
AcDbArc
50
270.000000000000
51
315.000000000000
0
ARC
5
6d5
100
AcDbEntity
8
0-20-4
6
CONTINUOUS
62
7
100
AcDbCircle
10
106.520000000000
20
93.970000000000
30
0.0
40
0.424137916589
100
AcDbArc
50
270.000000000000
51
0.000000000000
0
ARC
5
6d6
100
AcDbEntity
8
0-20-4
6
CONTINUOUS
62
7
100
AcDbCircle
10
106.940000000000
20
106.690000000000
30
0.0
40
0.424137916589
100
AcDbArc
50
90.000000000000
51
180.000000000000
0
ARC
5
6d7
100
AcDbEntity
8
0-20-4
6
CONTINUOUS
62
7
100
AcDbCircle
10
117.830000000000
20
106.690000000000
30
0.0
40
0.424137916589
100
AcDbArc
50
360.000000000000
51
450.000000000000
0
ARC
5
6d8
100
AcDbEntity
8
0-20-4
6
CONTINUOUS
62
7
100
AcDbCircle
10
88.890000000000
20
31.120000000000
30
0.0
40
0.282766546302
100
AcDbArc
50
90.000000000000
51
270.000000000000
0
ARC
5
6d9
100
AcDbEntity
8
0-20-4
6
CONTINUOUS
62
7
100
AcDbCircle
10
88.890000000000
20
31.120000000000
30
0.0
40
0.706898656617
100
AcDbArc
50
90.000000000000
51
270.000000000000
0
ARC
5
6da
100
AcDbEntity
8
0-20-4
6
CONTINUOUS
62
7
100
AcDbCircle
10
80.020000000000
20
31.820000000000
30
0.0
40
0.424137916589
100
AcDbArc
50
90.000000000000
51
135.000000000000
0
ARC
5
6db
100
AcDbEntity
8
0-20-4
6
CONTINUOUS
62
7
100
AcDbCircle
10
78.430000000000
20
30.830000000000
30
0.0
40
0.424137916589
100
AcDbArc
50
270.000000000000
51
315.000000000000
0
ARC
5
6dc
100
AcDbEntity
8
0-20-4
6
CONTINUOUS
62
7
100
AcDbCircle
10
123.740000000000
20
31.820000000000
30
0.0
40
0.424137916589
100
AcDbArc
50
45.000000000000
51
90.000000000000
0
ARC
5
6dd
100
AcDbEntity
8
0-20-4
6
CONTINUOUS
62
7
100
AcDbCircle
10
125.330000000000
20
30.830000000000
30
0.0
40
0.424137916589
100
AcDbArc
50
225.000000000000
51
270.000000000000
0
ARC
5
6de
100
AcDbEntity
8
0-20-4
6
CONTINUOUS
62
7
100
AcDbCircle
10
336.230000000000
20
42.640000000000
30
0.0
40
2.756916973336
100
AcDbArc
50
360.000000000000
51
540.000000000000
0
ARC
5
6df
100
AcDbEntity
8
0-20-4
6
CONTINUOUS
62
7
100
AcDbCircle
10
336.230000000000
20
42.640000000000
30
0.0
40
2.332775960066
100
AcDbArc
50
360.000000000000
51
540.000000000000
0
ARC
5
6e0
100
AcDbEntity
8
0-20-4
6
CONTINUOUS
62
7
100
AcDbCircle
10
336.230000000000
20
42.640000000000
30
0.0
40
1.908634753254
100
AcDbArc
50
360.000000000000
51
540.000000000000
0
ARC
5
6e1
100
AcDbEntity
8
0-20-4
6
CONTINUOUS
62
7
100
AcDbCircle
10
336.230000000000
20
42.640000000000
30
0.0
40
1.484493643214
100
AcDbArc
50
360.000000000000
51
540.000000000000
0
ARC
5
6e2
100
AcDbEntity
8
0-20-4
6
CONTINUOUS
62
7
100
AcDbCircle
10
336.230000000000
20
42.640000000000
30
0.0
40
1.060352629945
100
AcDbArc
50
360.000000000000
51
540.000000000000
0
ARC
5
6e3
100
AcDbEntity
8
0-20-4
6
CONTINUOUS
62
7
100
AcDbCircle
10
336.230000000000
20
42.640000000000
30
0.0
40
0.636211471518
100
AcDbArc
50
360.000000000000
51
540.000000000000
0
ARC
5
6e4
100
AcDbEntity
8
0-20-4
6
CONTINUOUS
62
7
100
AcDbCircle
10
337.500000000000
20
37.690000000000
30
0.0
40
1.484493643214
100
AcDbArc
50
180.000000000000
51
0.000000000000
0
ARC
5
6e5
100
AcDbEntity
8
0-20-4
6
CONTINUOUS
62
7
100
AcDbCircle
10
337.500000000000
20
37.690000000000
30
0.0
40
1.060352629945
100
AcDbArc
50
180.000000000000
51
0.000000000000
0
ARC
5
6e6
100
AcDbEntity
8
0-20-4
6
CONTINUOUS
62
7
100
AcDbCircle
10
337.500000000000
20
37.690000000000
30
0.0
40
0.636211471518
100
AcDbArc
50
180.000000000000
51
0.000000000000
0
ARC
5
6e7
100
AcDbEntity
8
0-20-4
6
CONTINUOUS
62
7
100
AcDbCircle
10
337.500000000000
20
37.690000000000
30
0.0
40
0.212070458249
100
AcDbArc
50
180.000000000000
51
0.000000000000
0
ARC
5
6e8
100
AcDbEntity
8
0-20-4
6
CONTINUOUS
62
7
100
AcDbCircle
10
321.310000000000
20
31.120000000000
30
0.0
40
0.282766546302
100
AcDbArc
50
90.000000000000
51
270.000000000000
0
ARC
5
6e9
100
AcDbEntity
8
0-20-4
6
CONTINUOUS
62
7
100
AcDbCircle
10
321.310000000000
20
31.120000000000
30
0.0
40
0.706898656617
100
AcDbArc
50
90.000000000000
51
270.000000000000
0
ARC
5
6ea
100
AcDbEntity
8
0-20-4
6
CONTINUOUS
62
7
100
AcDbCircle
10
312.440000000000
20
31.820000000000
30
0.0
40
0.424137916589
100
AcDbArc
50
90.000000000000
51
135.000000000000
0
ARC
5
6eb
100
AcDbEntity
8
0-20-4
6
CONTINUOUS
62
7
100
AcDbCircle
10
310.850000000000
20
30.830000000000
30
0.0
40
0.424137916589
100
AcDbArc
50
270.000000000000
51
315.000000000000
0
ARC
5
6ec
100
AcDbEntity
8
0-20-4
6
CONTINUOUS
62
7
100
AcDbCircle
10
356.160000000000
20
31.820000000000
30
0.0
40
0.424137916589
100
AcDbArc
50
45.000000000000
51
90.000000000000
0
ARC
5
6ed
100
AcDbEntity
8
0-20-4
6
CONTINUOUS
62
7
100
AcDbCircle
10
357.750000000000
20
30.830000000000
30
0.0
40
0.424137916589
100
AcDbArc
50
225.000000000000
51
270.000000000000
0
ARC
5
6ee
100
AcDbEntity
8
0-00-0
6
CONTINUOUS
62
7
100
AcDbCircle
10
186.810000000000
20
508.540000000000
30
0.0
40
5.513833946671
100
AcDbArc
50
360.000000000000
51
540.000000000000
0
ARC
5
6ef
100
AcDbEntity
8
0-00-0
6
CONTINUOUS
62
7
100
AcDbCircle
10
186.810000000000
20
508.540000000000
30
0.0
40
4.665551920132
100
AcDbArc
50
360.000000000000
51
540.000000000000
0
ARC
5
6f0
100
AcDbEntity
8
0-00-0
6
CONTINUOUS
62
7
100
AcDbCircle
10
186.810000000000
20
508.540000000000
30
0.0
40
3.817269506509
100
AcDbArc
50
360.000000000000
51
540.000000000000
0
ARC
5
6f1
100
AcDbEntity
8
0-00-0
6
CONTINUOUS
62
7
100
AcDbCircle
10
186.810000000000
20
508.540000000000
30
0.0
40
2.968987479970
100
AcDbArc
50
360.000000000000
51
540.000000000000
0
ARC
5
6f2
100
AcDbEntity
8
0-00-0
6
CONTINUOUS
62
7
100
AcDbCircle
10
186.810000000000
20
508.540000000000
30
0.0
40
2.120705259889
100
AcDbArc
50
360.000000000000
51
540.000000000000
0
ARC
5
6f3
100
AcDbEntity
8
0-00-0
6
CONTINUOUS
62
7
100
AcDbCircle
10
186.810000000000
20
508.540000000000
30
0.0
40
1.272422943037
100
AcDbArc
50
360.000000000000
51
540.000000000000
0
ARC
5
6f4
100
AcDbEntity
8
0-00-0
6
CONTINUOUS
62
7
100
AcDbCircle
10
189.350000000000
20
498.640000000000
30
0.0
40
2.968987479970
100
AcDbArc
50
180.000000000000
51
0.000000000000
0
ARC
5
6f5
100
AcDbEntity
8
0-00-0
6
CONTINUOUS
62
7
100
AcDbCircle
10
189.350000000000
20
498.640000000000
30
0.0
40
2.120705259889
100
AcDbArc
50
180.000000000000
51
0.000000000000
0
ARC
5
6f6
100
AcDbEntity
8
0-00-0
6
CONTINUOUS
62
7
100
AcDbCircle
10
189.350000000000
20
498.640000000000
30
0.0
40
1.272422943037
100
AcDbArc
50
180.000000000000
51
0.000000000000
0
ARC
5
6f7
100
AcDbEntity
8
0-00-0
6
CONTINUOUS
62
7
100
AcDbCircle
10
189.350000000000
20
498.640000000000
30
0.0
40
0.424140964884
100
AcDbArc
50
180.000000000000
51
0.000000000000
0
ARC
5
6f8
100
AcDbEntity
8
0-00-0
6
CONTINUOUS
62
7
100
AcDbCircle
10
156.980000000000
20
485.500000000000
30
0.0
40
0.565533092604
100
AcDbArc
50
90.000000000000
51
270.000000000000
0
ARC
5
6f9
100
AcDbEntity
8
0-00-0
6
CONTINUOUS
62
7
100
AcDbCircle
10
156.980000000000
20
485.500000000000
30
0.0
40
1.413797410004
100
AcDbArc
50
90.000000000000
51
270.000000000000
0
ARC
5
6fa
100
AcDbEntity
8
0-00-0
6
CONTINUOUS
62
7
100
AcDbCircle
10
139.230000000000
20
486.910000000000
30
0.0
40
0.848275833179
100
AcDbArc
50
90.000000000000
51
135.000000000000
0
ARC
5
6fb
100
AcDbEntity
8
0-00-0
6
CONTINUOUS
62
7
100
AcDbCircle
10
136.060000000000
20
484.930000000000
30
0.0
40
0.848275833179
100
AcDbArc
50
270.000000000000
51
315.000000000000
0
ARC
5
6fc
100
AcDbEntity
8
0-00-0
6
CONTINUOUS
62
7
100
AcDbCircle
10
226.680000000000
20
486.910000000000
30
0.0
40
0.848275833179
100
AcDbArc
50
45.000000000000
51
90.000000000000
0
ARC
5
6fd
100
AcDbEntity
8
0-00-0
6
CONTINUOUS
62
7
100
AcDbCircle
10
229.860000000000
20
484.930000000000
30
0.0
40
0.848275833179
100
AcDbArc
50
225.000000000000
51
270.000000000000
0
ARC
5
6fe
100
AcDbEntity
8
0-00-0
6
CONTINUOUS
62
7
100
AcDbCircle
10
314.980000000000
20
223.790000000000
30
0.0
40
0.424137916589
100
AcDbArc
50
90.000000000000
51
135.000000000000
0
ARC
5
6ff
100
AcDbEntity
8
0-00-0
6
CONTINUOUS
62
7
100
AcDbCircle
10
313.400000000000
20
222.800000000000
30
0.0
40
0.424137916589
100
AcDbArc
50
270.000000000000
51
315.000000000000
0
ARC
5
700
100
AcDbEntity
8
0-00-0
6
CONTINUOUS
62
7
100
AcDbCircle
10
335.770000000000
20
224.210000000000
30
0.0
40
0.424137916589
100
AcDbArc
50
270.000000000000
51
0.000000000000
0
ARC
5
701
100
AcDbEntity
8
0-00-0
6
CONTINUOUS
62
7
100
AcDbCircle
10
336.190000000000
20
236.940000000000
30
0.0
40
0.424137916589
100
AcDbArc
50
90.000000000000
51
180.000000000000
0
ARC
5
702
100
AcDbEntity
8
0-00-0
6
CONTINUOUS
62
7
100
AcDbCircle
10
347.080000000000
20
236.940000000000
30
0.0
40
0.424137916589
100
AcDbArc
50
360.000000000000
51
450.000000000000
0
ARC
5
703
100
AcDbEntity
8
0-00-0
6
CONTINUOUS
62
7
100
AcDbCircle
10
125.610000000000
20
223.790000000000
30
0.0
40
0.424137916589
100
AcDbArc
50
45.000000000000
51
90.000000000000
0
ARC
5
704
100
AcDbEntity
8
0-00-0
6
CONTINUOUS
62
7
100
AcDbCircle
10
127.200000000000
20
222.800000000000
30
0.0
40
0.424137916589
100
AcDbArc
50
225.000000000000
51
270.000000000000
0
ARC
5
705
100
AcDbEntity
8
0-00-0
6
CONTINUOUS
62
7
100
AcDbCircle
10
104.820000000000
20
224.210000000000
30
0.0
40
0.424137916589
100
AcDbArc
50
180.000000000000
51
270.000000000000
0
ARC
5
706
100
AcDbEntity
8
0-00-0
6
CONTINUOUS
62
7
100
AcDbCircle
10
112.180000000000
20
235.880000000000
30
0.0
40
0.282766546302
100
AcDbArc
50
270.000000000000
51
90.000000000000
0
ARC
5
707
100
AcDbEntity
8
0-00-0
6
CONTINUOUS
62
7
100
AcDbCircle
10
112.180000000000
20
235.880000000000
30
0.0
40
0.706898656617
100
AcDbArc
50
270.000000000000
51
90.000000000000
0
ARC
5
708
100
AcDbEntity
8
0-00-0
6
CONTINUOUS
62
7
100
AcDbCircle
10
103.760000000000
20
236.160000000000
30
0.0
40
0.424137916589
100
AcDbArc
50
90.000000000000
51
180.000000000000
0
ARC
5
709
100
AcDbEntity
8
0-00-0
6
CONTINUOUS
62
7
100
AcDbCircle
10
104.820000000000
20
235.170000000000
30
0.0
40
0.424137916589
100
AcDbArc
50
90.000000000000
51
180.000000000000
0
ARC
5
70a
100
AcDbEntity
8
0-00-0
6
CONTINUOUS
62
7
100
AcDbCircle
10
103.340000000000
20
222.800000000000
30
0.0
40
0.424137916589
100
AcDbArc
50
270.000000000000
51
0.000000000000
0
ARC
5
70b
100
AcDbEntity
8
0-00-0
6
CONTINUOUS
62
7
100
AcDbCircle
10
90.330000000000
20
223.080000000000
30
0.0
40
0.282766546302
100
AcDbArc
50
90.000000000000
51
270.000000000000
0
ARC
5
70c
100
AcDbEntity
8
0-00-0
6
CONTINUOUS
62
7
100
AcDbCircle
10
90.330000000000
20
223.080000000000
30
0.0
40
0.706898656617
100
AcDbArc
50
90.000000000000
51
270.000000000000
0
ARC
5
70d
100
AcDbEntity
8
0-10-2
6
CONTINUOUS
62
7
100
AcDbCircle
10
103.760000000000
20
165.470000000000
30
0.0
40
0.424137916589
100
AcDbArc
50
90.000000000000
51
180.000000000000
0
ARC
5
70e
100
AcDbEntity
8
0-20-4
6
CONTINUOUS
62
7
100
AcDbCircle
10
235.910000000000
20
93.540000000000
30
0.0
40
0.424137916589
100
AcDbArc
50
45.000000000000
51
90.000000000000
0
ARC
5
70f
100
AcDbEntity
8
0-20-4
6
CONTINUOUS
62
7
100
AcDbCircle
10
237.500000000000
20
92.550000000000
30
0.0
40
0.424137916589
100
AcDbArc
50
225.000000000000
51
270.000000000000
0
ARC
5
710
100
AcDbEntity
8
0-20-4
6
CONTINUOUS
62
7
100
AcDbCircle
10
215.130000000000
20
93.970000000000
30
0.0
40
0.424137916589
100
AcDbArc
50
180.000000000000
51
270.000000000000
0
ARC
5
711
100
AcDbEntity
8
0-20-4
6
CONTINUOUS
62
7
100
AcDbCircle
10
222.480000000000
20
105.630000000000
30
0.0
40
0.282766546302
100
AcDbArc
50
270.000000000000
51
90.000000000000
0
ARC
5
712
100
AcDbEntity
8
0-20-4
6
CONTINUOUS
62
7
100
AcDbCircle
10
222.480000000000
20
105.630000000000
30
0.0
40
0.706898656617
100
AcDbArc
50
270.000000000000
51
90.000000000000
0
ARC
5
713
100
AcDbEntity
8
0-20-4
6
CONTINUOUS
62
7
100
AcDbCircle
10
214.070000000000
20
105.910000000000
30
0.0
40
0.424137916589
100
AcDbArc
50
90.000000000000
51
180.000000000000
0
ARC
5
714
100
AcDbEntity
8
0-20-4
6
CONTINUOUS
62
7
100
AcDbCircle
10
215.130000000000
20
104.920000000000
30
0.0
40
0.424137916589
100
AcDbArc
50
90.000000000000
51
180.000000000000
0
ARC
5
715
100
AcDbEntity
8
0-20-4
6
CONTINUOUS
62
7
100
AcDbCircle
10
213.650000000000
20
92.550000000000
30
0.0
40
0.424137916589
100
AcDbArc
50
270.000000000000
51
0.000000000000
0
ARC
5
716
100
AcDbEntity
8
0-20-4
6
CONTINUOUS
62
7
100
AcDbCircle
10
200.640000000000
20
92.840000000000
30
0.0
40
0.282766546302
100
AcDbArc
50
90.000000000000
51
270.000000000000
0
ARC
5
717
100
AcDbEntity
8
0-20-4
6
CONTINUOUS
62
7
100
AcDbCircle
10
200.640000000000
20
92.840000000000
30
0.0
40
0.706898656617
100
AcDbArc
50
90.000000000000
51
270.000000000000
0
ARC
5
718
100
AcDbEntity
8
0-20-4
6
CONTINUOUS
62
7
100
AcDbCircle
10
191.770000000000
20
93.540000000000
30
0.0
40
0.424137916589
100
AcDbArc
50
90.000000000000
51
135.000000000000
0
ARC
5
719
100
AcDbEntity
8
0-20-4
6
CONTINUOUS
62
7
100
AcDbCircle
10
190.180000000000
20
92.550000000000
30
0.0
40
0.424137916589
100
AcDbArc
50
270.000000000000
51
315.000000000000
0
ARC
5
71a
100
AcDbEntity
8
0-20-4
6
CONTINUOUS
62
7
100
AcDbCircle
10
212.550000000000
20
93.970000000000
30
0.0
40
0.424137916589
100
AcDbArc
50
270.000000000000
51
0.000000000000
0
ARC
5
71b
100
AcDbEntity
8
0-20-4
6
CONTINUOUS
62
7
100
AcDbCircle
10
212.970000000000
20
106.690000000000
30
0.0
40
0.424137916589
100
AcDbArc
50
90.000000000000
51
180.000000000000
0
ARC
5
71c
100
AcDbEntity
8
0-20-4
6
CONTINUOUS
62
7
100
AcDbCircle
10
222.480000000000
20
105.630000000000
30
0.0
40
1.060346920441
100
AcDbArc
50
270.000000000000
51
90.000000000000
0
ARC
5
71d
100
AcDbEntity
8
0-20-4
6
CONTINUOUS
62
7
100
AcDbCircle
10
222.480000000000
20
105.630000000000
30
0.0
40
1.484484837031
100
AcDbArc
50
270.000000000000
51
90.000000000000
0
ARC
5
71e
100
AcDbEntity
8
0-20-4
6
CONTINUOUS
62
7
100
AcDbCircle
10
322.700000000000
20
104.360000000000
30
0.0
40
2.756916973336
100
AcDbArc
50
360.000000000000
51
540.000000000000
0
ARC
5
71f
100
AcDbEntity
8
0-20-4
6
CONTINUOUS
62
7
100
AcDbCircle
10
322.700000000000
20
104.360000000000
30
0.0
40
2.332775960066
100
AcDbArc
50
360.000000000000
51
540.000000000000
0
ARC
5
720
100
AcDbEntity
8
0-20-4
6
CONTINUOUS
62
7
100
AcDbCircle
10
322.700000000000
20
104.360000000000
30
0.0
40
1.908634753254
100
AcDbArc
50
360.000000000000
51
540.000000000000
0
ARC
5
721
100
AcDbEntity
8
0-20-4
6
CONTINUOUS
62
7
100
AcDbCircle
10
322.700000000000
20
104.360000000000
30
0.0
40
1.484493643214
100
AcDbArc
50
360.000000000000
51
540.000000000000
0
ARC
5
722
100
AcDbEntity
8
0-20-4
6
CONTINUOUS
62
7
100
AcDbCircle
10
322.700000000000
20
104.360000000000
30
0.0
40
1.060352629945
100
AcDbArc
50
360.000000000000
51
540.000000000000
0
ARC
5
723
100
AcDbEntity
8
0-20-4
6
CONTINUOUS
62
7
100
AcDbCircle
10
322.700000000000
20
104.360000000000
30
0.0
40
0.636211471518
100
AcDbArc
50
360.000000000000
51
540.000000000000
0
ARC
5
724
100
AcDbEntity
8
0-20-4
6
CONTINUOUS
62
7
100
AcDbCircle
10
323.970000000000
20
99.410000000000
30
0.0
40
1.484493643214
100
AcDbArc
50
180.000000000000
51
0.000000000000
0
ARC
5
725
100
AcDbEntity
8
0-20-4
6
CONTINUOUS
62
7
100
AcDbCircle
10
323.970000000000
20
99.410000000000
30
0.0
40
1.060352629945
100
AcDbArc
50
180.000000000000
51
0.000000000000
0
ARC
5
726
100
AcDbEntity
8
0-20-4
6
CONTINUOUS
62
7
100
AcDbCircle
10
323.970000000000
20
99.410000000000
30
0.0
40
0.636211471518
100
AcDbArc
50
180.000000000000
51
0.000000000000
0
ARC
5
727
100
AcDbEntity
8
0-20-4
6
CONTINUOUS
62
7
100
AcDbCircle
10
323.970000000000
20
99.410000000000
30
0.0
40
0.212070458249
100
AcDbArc
50
180.000000000000
51
0.000000000000
0
ARC
5
728
100
AcDbEntity
8
0-20-4
6
CONTINUOUS
62
7
100
AcDbCircle
10
307.790000000000
20
92.840000000000
30
0.0
40
0.282766546302
100
AcDbArc
50
90.000000000000
51
270.000000000000
0
ARC
5
729
100
AcDbEntity
8
0-20-4
6
CONTINUOUS
62
7
100
AcDbCircle
10
307.790000000000
20
92.840000000000
30
0.0
40
0.706898656617
100
AcDbArc
50
90.000000000000
51
270.000000000000
0
ARC
5
72a
100
AcDbEntity
8
0-20-4
6
CONTINUOUS
62
7
100
AcDbCircle
10
298.920000000000
20
93.540000000000
30
0.0
40
0.424137916589
100
AcDbArc
50
90.000000000000
51
135.000000000000
0
ARC
5
72b
100
AcDbEntity
8
0-20-4
6
CONTINUOUS
62
7
100
AcDbCircle
10
297.330000000000
20
92.550000000000
30
0.0
40
0.424137916589
100
AcDbArc
50
270.000000000000
51
315.000000000000
0
ARC
5
72c
100
AcDbEntity
8
0-20-4
6
CONTINUOUS
62
7
100
AcDbCircle
10
342.640000000000
20
93.540000000000
30
0.0
40
0.424137916589
100
AcDbArc
50
45.000000000000
51
90.000000000000
0
ARC
5
72d
100
AcDbEntity
8
0-20-4
6
CONTINUOUS
62
7
100
AcDbCircle
10
344.230000000000
20
92.550000000000
30
0.0
40
0.424137916589
100
AcDbArc
50
225.000000000000
51
270.000000000000
0
CIRCLE
5
72e
100
AcDbEntity
8
F-F
6
CONTINUOUS
62
3
100
AcDbCircle
10
19.930000000000
20
16.770000000000
30
0.0
40
2.828427439803
0
CIRCLE
5
72f
100
AcDbEntity
8
F-F
6
CONTINUOUS
62
3
100
AcDbCircle
10
19.930000000000
20
16.770000000000
30
0.0
40
3.228427317607
0
CIRCLE
5
730
100
AcDbEntity
8
F-F
6
CONTINUOUS
62
4
100
AcDbCircle
10
19.930000000000
20
16.770000000000
30
0.0
40
2.868427640480
0
CIRCLE
5
731
100
AcDbEntity
8
F-F
6
CONTINUOUS
62
4
100
AcDbCircle
10
19.930000000000
20
16.770000000000
30
0.0
40
2.948426880579
0
CIRCLE
5
732
100
AcDbEntity
8
F-F
6
CONTINUOUS
62
4
100
AcDbCircle
10
19.930000000000
20
16.770000000000
30
0.0
40
3.028427281934
0
CIRCLE
5
733
100
AcDbEntity
8
F-F
6
CONTINUOUS
62
4
100
AcDbCircle
10
19.930000000000
20
16.770000000000
30
0.0
40
3.108426715575
0
CIRCLE
5
734
100
AcDbEntity
8
F-F
6
CONTINUOUS
62
4
100
AcDbCircle
10
19.930000000000
20
16.770000000000
30
0.0
40
3.188426536302
0
ARC
5
735
100
AcDbEntity
8
0-20-4
6
CONTINUOUS
62
7
100
AcDbCircle
10
110.520000000000
20
43.910000000000
30
0.0
40
0.282766546302
100
AcDbArc
50
270.000000000000
51
90.000000000000
0
ARC
5
736
100
AcDbEntity
8
0-20-4
6
CONTINUOUS
62
7
100
AcDbCircle
10
110.520000000000
20
43.910000000000
30
0.0
40
0.706898656617
100
AcDbArc
50
270.000000000000
51
90.000000000000
0
ARC
5
737
100
AcDbEntity
8
0-20-4
6
CONTINUOUS
62
7
100
AcDbCircle
10
102.320000000000
20
44.190000000000
30
0.0
40
0.424137916589
100
AcDbArc
50
90.000000000000
51
180.000000000000
0
ARC
5
738
100
AcDbEntity
8
0-20-4
6
CONTINUOUS
62
7
100
AcDbCircle
10
103.170000000000
20
43.200000000000
30
0.0
40
0.424137916589
100
AcDbArc
50
90.000000000000
51
180.000000000000
0
ARC
5
739
100
AcDbEntity
8
0-20-4
6
CONTINUOUS
62
7
100
AcDbCircle
10
101.470000000000
20
44.970000000000
30
0.0
40
0.424137916589
100
AcDbArc
50
90.000000000000
51
180.000000000000
0
ARC
5
73a
100
AcDbEntity
8
0-20-4
6
CONTINUOUS
62
7
100
AcDbCircle
10
110.980000000000
20
43.910000000000
30
0.0
40
1.060346920441
100
AcDbArc
50
270.000000000000
51
90.000000000000
0
ARC
5
73b
100
AcDbEntity
8
0-20-4
6
CONTINUOUS
62
7
100
AcDbCircle
10
110.980000000000
20
43.910000000000
30
0.0
40
1.484484837031
100
AcDbArc
50
270.000000000000
51
90.000000000000
0
TEXT
5
73c
100
AcDbEntity
8
0-10-2
62
6
370
-3
100
AcDbText
10
91.735
20
142.738
30
0.0
40
4.102
1
２０
41
0.942
50
0.000
100
AcDbText
0
TEXT
5
73d
100
AcDbEntity
8
0-10-2
62
6
370
-3
100
AcDbText
10
174.319
20
189.289
30
0.0
40
4.102
1
３２８．８（働き３３０）
41
0.942
50
0.000
100
AcDbText
0
TEXT
5
73e
100
AcDbEntity
8
0-10-2
62
6
370
-3
100
AcDbText
10
293.657
20
153.255
30
0.0
40
4.102
1
２０
41
0.942
50
90.000
100
AcDbText
0
TEXT
5
73f
100
AcDbEntity
8
0-10-2
62
6
370
-3
100
AcDbText
10
304.453
20
154.155
30
0.0
40
4.102
1
１８
41
0.942
50
90.000
100
AcDbText
0
TEXT
5
740
100
AcDbEntity
8
0-10-2
62
6
370
-3
100
AcDbText
10
304.841
20
144.849
30
0.0
40
4.102
1
２
41
0.942
50
90.000
100
AcDbText
0
TEXT
5
741
100
AcDbEntity
8
0-10-2
62
6
370
-3
100
AcDbText
10
336.959
20
177.880
30
0.0
40
4.102
1
１６
41
0.942
50
0.000
100
AcDbText
0
TEXT
5
742
100
AcDbEntity
8
0-10-2
62
6
370
-3
100
AcDbText
10
363.866
20
155.690
30
0.0
40
4.102
1
１２
41
0.942
50
90.000
100
AcDbText
0
TEXT
5
743
100
AcDbEntity
8
0-10-2
62
6
370
-3
100
AcDbText
10
104.676
20
177.672
30
0.0
40
4.102
1
13.5
41
0.763
50
0.000
100
AcDbText
0
TEXT
5
744
100
AcDbEntity
8
0-10-2
62
6
370
-3
100
AcDbText
10
139.198
20
145.108
30
0.0
40
4.102
1
２
41
0.942
50
90.000
100
AcDbText
0
TEXT
5
745
100
AcDbEntity
8
0-10-2
62
6
370
-3
100
AcDbText
10
139.393
20
153.302
30
0.0
40
4.102
1
17.5
41
0.776
50
90.000
100
AcDbText
0
TEXT
5
746
100
AcDbEntity
8
0-00-0
62
2
370
-3
100
AcDbText
10
129.206
20
508.595
30
0.0
40
2.872
1
ＤＫライン３３０
41
0.979
50
0.000
100
AcDbText
0
TEXT
5
747
100
AcDbEntity
8
0-00-0
62
2
370
-3
100
AcDbText
10
204.727
20
508.329
30
0.0
40
2.872
1
アスファルトルーフィング９４０
41
0.979
50
0.000
100
AcDbText
0
TEXT
5
748
100
AcDbEntity
8
0-00-0
62
2
370
-3
100
AcDbText
10
209.141
20
502.812
30
0.0
40
2.872
1
又はゴムアス防水シート
41
0.979
50
0.000
100
AcDbText
0
TEXT
5
749
100
AcDbEntity
8
0-00-0
62
2
370
-3
100
AcDbText
10
229.948
20
492.409
30
0.0
40
2.872
1
野地板材
41
0.979
50
0.000
100
AcDbText
0
TEXT
5
74a
100
AcDbEntity
8
0-00-0
62
2
370
-3
100
AcDbText
10
165.308
20
524.542
30
0.0
40
2.872
1
防水テープ
41
0.979
50
0.000
100
AcDbText
0
TEXT
5
74b
100
AcDbEntity
8
0-00-0
62
2
370
-3
100
AcDbText
10
193.331
20
525.663
30
0.0
40
2.872
1
二重巻はぜ
41
0.979
50
0.000
100
AcDbText
0
TEXT
5
74c
100
AcDbEntity
8
0-10-2
62
6
370
-3
100
AcDbText
10
149.829
20
152.430
30
0.0
40
4.102
1
19.5
41
0.778
50
90.000
100
AcDbText
0
TEXT
5
74d
100
AcDbEntity
8
0-10-2
62
6
370
-3
100
AcDbText
10
80.375
20
152.684
30
0.0
40
4.102
1
19.5
41
0.778
50
90.000
100
AcDbText
0
TEXT
5
74e
100
AcDbEntity
8
0-00-0
62
6
370
-3
100
AcDbText
10
91.735
20
213.428
30
0.0
40
4.102
1
２０
41
0.942
50
0.000
100
AcDbText
0
TEXT
5
74f
100
AcDbEntity
8
0-00-0
62
6
370
-3
100
AcDbText
10
174.319
20
259.979
30
0.0
40
4.102
1
３２８．８（働き３３０）
41
0.942
50
0.000
100
AcDbText
0
TEXT
5
750
100
AcDbEntity
8
0-00-0
62
6
370
-3
100
AcDbText
10
293.657
20
223.945
30
0.0
40
4.102
1
２０
41
0.942
50
90.000
100
AcDbText
0
TEXT
5
751
100
AcDbEntity
8
0-00-0
62
6
370
-3
100
AcDbText
10
304.453
20
224.845
30
0.0
40
4.102
1
１８
41
0.942
50
90.000
100
AcDbText
0
TEXT
5
752
100
AcDbEntity
8
0-00-0
62
6
370
-3
100
AcDbText
10
304.841
20
215.538
30
0.0
40
4.102
1
２
41
0.942
50
90.000
100
AcDbText
0
TEXT
5
753
100
AcDbEntity
8
0-00-0
62
6
370
-3
100
AcDbText
10
336.959
20
248.570
30
0.0
40
4.102
1
１６
41
0.942
50
0.000
100
AcDbText
0
TEXT
5
754
100
AcDbEntity
8
0-00-0
62
6
370
-3
100
AcDbText
10
363.866
20
226.379
30
0.0
40
4.102
1
１２
41
0.942
50
90.000
100
AcDbText
0
TEXT
5
755
100
AcDbEntity
8
0-00-0
62
6
370
-3
100
AcDbText
10
104.676
20
248.362
30
0.0
40
4.102
1
13.5
41
0.763
50
0.000
100
AcDbText
0
TEXT
5
756
100
AcDbEntity
8
0-00-0
62
6
370
-3
100
AcDbText
10
139.198
20
215.798
30
0.0
40
4.102
1
２
41
0.942
50
90.000
100
AcDbText
0
TEXT
5
757
100
AcDbEntity
8
0-00-0
62
6
370
-3
100
AcDbText
10
139.393
20
223.992
30
0.0
40
4.102
1
17.5
41
0.776
50
90.000
100
AcDbText
0
TEXT
5
758
100
AcDbEntity
8
0-00-0
62
6
370
-3
100
AcDbText
10
149.829
20
223.120
30
0.0
40
4.102
1
19.5
41
0.778
50
90.000
100
AcDbText
0
TEXT
5
759
100
AcDbEntity
8
0-00-0
62
6
370
-3
100
AcDbText
10
80.375
20
223.374
30
0.0
40
4.102
1
19.5
41
0.778
50
90.000
100
AcDbText
0
TEXT
5
75a
100
AcDbEntity
8
0-20-4
62
6
370
-3
100
AcDbText
10
99.914
20
122.212
30
0.0
40
4.102
1
はめ込み
41
0.942
50
0.000
100
AcDbText
0
TEXT
5
75b
100
AcDbEntity
8
0-10-2
62
2
370
-3
100
AcDbText
10
78.829
20
181.144
30
0.0
40
2.872
1
防水テープ
41
0.979
50
0.000
100
AcDbText
0
TEXT
5
75c
100
AcDbEntity
8
0-10-2
62
6
370
-3
100
AcDbText
10
21.853
20
184.071
30
0.0
40
4.102
1
防水テープ仕様
41
0.942
50
0.000
100
AcDbText
0
TEXT
5
75d
100
AcDbEntity
8
F-F
62
3
370
-3
100
AcDbText
10
41.667
20
7.192
30
0.0
40
1.641
1
電話（０５４）２６３－２２８０（代表）
41
0.963
50
0.000
100
AcDbText
0
TEXT
5
75e
100
AcDbEntity
8
F-F
62
3
370
-3
100
AcDbText
10
133.023
20
18.938
30
0.0
40
1.231
1
変　　　　　　更　　　　　　記　　　　　　事
41
0.999
50
0.000
100
AcDbText
0
TEXT
5
75f
100
AcDbEntity
8
F-F
62
3
370
-3
100
AcDbText
10
203.956
20
18.738
30
0.0
40
1.231
1
受領　　日附
41
0.999
50
0.000
100
AcDbText
0
TEXT
5
760
100
AcDbEntity
8
F-F
62
3
370
-3
100
AcDbText
10
253.511
20
11.380
30
0.0
40
1.231
1
施工者
41
0.999
50
0.000
100
AcDbText
0
TEXT
5
761
100
AcDbEntity
8
F-F
62
3
370
-3
100
AcDbText
10
253.511
20
18.787
30
0.0
40
1.231
1
設計者
41
0.999
50
0.000
100
AcDbText
0
TEXT
5
762
100
AcDbEntity
8
F-F
62
3
370
-3
100
AcDbText
10
304.881
20
11.244
30
0.0
40
1.231
1
作図
41
0.999
50
0.000
100
AcDbText
0
TEXT
5
763
100
AcDbEntity
8
F-F
62
3
370
-3
100
AcDbText
10
322.838
20
11.377
30
0.0
40
1.231
1
図面名
41
0.999
50
0.000
100
AcDbText
0
TEXT
5
764
100
AcDbEntity
8
F-F
62
3
370
-3
100
AcDbText
10
304.881
20
18.652
30
0.0
40
1.231
1
日附
41
0.999
50
0.000
100
AcDbText
0
TEXT
5
765
100
AcDbEntity
8
F-F
62
3
370
-3
100
AcDbText
10
322.838
20
18.784
30
0.0
40
1.231
1
工事件名
41
0.999
50
0.000
100
AcDbText
0
TEXT
5
766
100
AcDbEntity
8
F-F
62
3
370
-3
100
AcDbText
10
310.415
20
18.589
30
0.0
40
1.231
1
年　月　日
41
0.999
50
0.000
100
AcDbText
0
TEXT
5
767
100
AcDbEntity
8
F-F
62
3
370
-3
100
AcDbText
10
310.415
20
11.181
30
0.0
40
1.231
1
年　月　日
41
0.999
50
0.000
100
AcDbText
0
TEXT
5
768
100
AcDbEntity
8
F-F
62
3
370
-3
100
AcDbText
10
385.924
20
18.784
30
0.0
40
1.231
1
設計番号
41
0.999
50
0.000
100
AcDbText
0
TEXT
5
769
100
AcDbEntity
8
F-F
62
3
370
-3
100
AcDbText
10
385.924
20
11.377
30
0.0
40
1.231
1
縮　尺
41
0.999
50
0.000
100
AcDbText
0
MTEXT
5
76a
100
AcDbEntity
8
F-F
62
3
370
-3
100
AcDbMText
10
96.753
20
16.955
30
0.0
40
1.162
41
0.000
71
7
72
1
1
\W1.134;{\W0.817;. }　{\W0.817;.}　{\W0.817; }
7
STANDARD
11
1.00000
21
0.00000
31
0.0
0
MTEXT
5
76b
100
AcDbEntity
8
F-F
62
3
370
-3
100
AcDbMText
10
96.753
20
14.486
30
0.0
40
1.162
41
0.000
71
7
72
1
1
\W1.134;{\W0.817;. }　{\W0.817;.}　{\W0.817; }
7
STANDARD
11
1.00000
21
0.00000
31
0.0
0
MTEXT
5
76c
100
AcDbEntity
8
F-F
62
3
370
-3
100
AcDbMText
10
96.753
20
12.017
30
0.0
40
1.162
41
0.000
71
7
72
1
1
\W1.134;{\W0.817;. }　{\W0.817;.}　{\W0.817; }
7
STANDARD
11
1.00000
21
0.00000
31
0.0
0
MTEXT
5
76d
100
AcDbEntity
8
F-F
62
3
370
-3
100
AcDbMText
10
96.753
20
9.548
30
0.0
40
1.162
41
0.000
71
7
72
1
1
\W1.134;{\W0.817;. }　{\W0.817;.}　{\W0.817; }
7
STANDARD
11
1.00000
21
0.00000
31
0.0
0
MTEXT
5
76e
100
AcDbEntity
8
F-F
62
3
370
-3
100
AcDbMText
10
96.753
20
7.079
30
0.0
40
1.162
41
0.000
71
7
72
1
1
\W1.134;{\W0.817;. }　{\W0.817;.}　{\W0.817; }
7
STANDARD
11
1.00000
21
0.00000
31
0.0
0
TEXT
5
76f
100
AcDbEntity
8
F-F
62
3
370
-3
100
AcDbText
10
258.596
20
15.593
30
0.0
40
1.641
1
　　　　　　　　　　
41
0.963
50
0.000
100
AcDbText
0
TEXT
5
770
100
AcDbEntity
8
F-F
62
3
370
-3
100
AcDbText
10
258.596
20
8.186
30
0.0
40
1.641
1
　　　　　　　　　　
41
0.963
50
0.000
100
AcDbText
0
TEXT
5
771
100
AcDbEntity
8
F-F
62
3
370
-3
100
AcDbText
10
329.462
20
15.980
30
0.0
40
1.641
1
　　　　　　　　　　　　　
41
0.963
50
0.000
100
AcDbText
0
TEXT
5
772
100
AcDbEntity
8
F-F
62
3
370
-3
100
AcDbText
10
94.510
20
18.922
30
0.0
40
1.231
1
年　月　日
41
0.999
50
0.000
100
AcDbText
0
TEXT
5
773
100
AcDbEntity
8
F-F
62
3
370
-3
100
AcDbText
10
218.249
20
18.592
30
0.0
40
1.231
1
年　　月　　日
41
0.999
50
0.000
100
AcDbText
0
MTEXT
5
774
100
AcDbEntity
8
F-F
62
3
370
-3
100
AcDbMText
10
221.387
20
15.850
30
0.0
40
1.162
41
0.000
71
7
72
1
1
\W1.134;{\W0.817;.}　{\W0.817; }　{\W0.817;.}
7
STANDARD
11
1.00000
21
0.00000
31
0.0
0
TEXT
5
775
100
AcDbEntity
8
F-F
62
3
370
-3
100
AcDbText
10
203.956
20
11.331
30
0.0
40
1.231
1
受領　　日附
41
0.999
50
0.000
100
AcDbText
0
TEXT
5
776
100
AcDbEntity
8
F-F
62
3
370
-3
100
AcDbText
10
218.249
20
11.185
30
0.0
40
1.231
1
年　　月　　日
41
0.999
50
0.000
100
AcDbText
0
MTEXT
5
777
100
AcDbEntity
8
F-F
62
3
370
-3
100
AcDbMText
10
221.387
20
8.442
30
0.0
40
1.162
41
0.000
71
7
72
1
1
\W1.134;{\W0.817;.}　{\W0.817; }　{\W0.817;.}
7
STANDARD
11
1.00000
21
0.00000
31
0.0
0
MTEXT
5
778
100
AcDbEntity
8
F-F
62
3
370
-3
100
AcDbMText
10
312.108
20
15.421
30
0.0
40
1.162
41
0.000
71
7
72
1
1
\W1.134;{\W0.817;.}　　{\W0.817;.}　
7
STANDARD
11
1.00000
21
0.00000
31
0.0
0
TEXT
5
779
100
AcDbEntity
8
F-F
62
2
370
-3
100
AcDbText
10
30.692
20
15.289
30
0.0
40
3.282
1
小　池　弥　太　郎　商　店
41
0.963
50
0.000
100
AcDbText
0
TEXT
5
77a
100
AcDbEntity
8
F-F
62
3
370
-3
100
AcDbText
10
41.666
20
10.900
30
0.0
40
1.641
1
静岡県静岡市葵区流通センター１６番
41
0.963
50
0.000
100
AcDbText
0
TEXT
5
77b
100
AcDbEntity
8
F-F
62
3
370
-3
100
AcDbText
10
25.034
20
17.062
30
0.0
40
1.231
1
株
41
0.999
50
0.000
100
AcDbText
0
TEXT
5
77c
100
AcDbEntity
8
F-F
62
3
370
-3
100
AcDbText
10
26.821
20
15.250
30
0.0
40
1.231
1
社
41
0.999
50
0.000
100
AcDbText
0
TEXT
5
77d
100
AcDbEntity
8
F-F
62
3
370
-3
100
AcDbText
10
25.021
20
15.250
30
0.0
40
1.231
1
会
41
0.999
50
0.000
100
AcDbText
0
TEXT
5
77e
100
AcDbEntity
8
F-F
62
3
370
-3
100
AcDbText
10
26.721
20
17.012
30
0.0
40
1.231
1
式
41
0.999
50
0.000
100
AcDbText
0
TEXT
5
77f
100
AcDbEntity
8
0-20-4
62
6
370
-3
100
AcDbText
10
106.361
20
53.445
30
0.0
40
4.102
1
１番締め仕様
41
0.942
50
0.000
100
AcDbText
0
TEXT
5
780
100
AcDbEntity
8
0-20-4
62
6
370
-3
100
AcDbText
10
338.788
20
53.445
30
0.0
40
4.102
1
２番締め仕様
41
0.942
50
0.000
100
AcDbText
0
TEXT
5
781
100
AcDbEntity
8
0-20-4
62
6
370
-3
100
AcDbText
10
195.345
20
122.212
30
0.0
40
4.102
1
　１番はぜ締め
41
0.942
50
0.000
100
AcDbText
0
TEXT
5
782
100
AcDbEntity
8
0-20-4
62
6
370
-3
100
AcDbText
10
301.379
20
122.212
30
0.0
40
4.102
1
　２番はぜ締め
41
0.942
50
0.000
100
AcDbText
0
TEXT
5
783
100
AcDbEntity
8
0-00-0
62
6
370
-3
100
AcDbText
10
18.866
20
273.505
30
0.0
40
4.102
1
ラジアル仕様　Ｒ＝６０００まで（サザナミ）
41
0.942
50
0.000
100
AcDbText
0
TEXT
5
784
100
AcDbEntity
8
F-F
62
3
370
-3
100
AcDbText
10
389.512
20
15.424
30
0.0
40
1.641
1
ＫＲ－ＤＫ－１
41
0.963
50
0.000
100
AcDbText
0
TEXT
5
785
100
AcDbEntity
8
F-F
62
3
370
-3
100
AcDbText
10
391.753
20
6.708
30
0.0
40
1.641
1
Ａ３－１／１　
41
0.963
50
0.000
100
AcDbText
0
TEXT
5
786
100
AcDbEntity
8
F-F
62
3
370
-3
100
AcDbText
10
391.753
20
10.412
30
0.0
40
1.641
1
Ａ１－２／１　
41
0.963
50
0.000
100
AcDbText
0
TEXT
5
787
100
AcDbEntity
8
F-F
62
3
370
-3
100
AcDbText
10
305.679
20
7.891
30
0.0
40
1.231
1
MA 2015-06-06
41
0.664
50
0.000
100
AcDbText
0
TEXT
5
788
100
AcDbEntity
8
F-F
62
3
370
-3
100
AcDbText
10
329.462
20
8.572
30
0.0
40
1.641
1
コイケルーフ　ＤＫライン３３０　断面図
41
0.963
50
0.000
100
AcDbText
0
POLYLINE
5
789
100
AcDbEntity
  8
0-10-2
6
CONTINUOUS
62
4
100
AcDb2dPolyline
66
1
10
0
20
0
70
1
40
0.200
41
0.200
0
VERTEX
5
78a
100
AcDbEntity
  8
0-10-2
6
CONTINUOUS
62
4
100
AcDbVertex
100
AcDb2dVertex
10
103.240
20
176.497
30
0.0
42
1.000
0
VERTEX
5
78b
100
AcDbEntity
  8
0-10-2
6
CONTINUOUS
62
4
100
AcDbVertex
100
AcDb2dVertex
10
103.440
20
176.497
30
0.0
42
1.000
0
SEQEND
5
78c
100
AcDbEntity
  8
0-10-2
0
POLYLINE
5
78d
100
AcDbEntity
  8
0-10-2
6
CONTINUOUS
62
4
100
AcDb2dPolyline
66
1
10
0
20
0
70
1
40
0.200
41
0.200
0
VERTEX
5
78e
100
AcDbEntity
  8
0-10-2
6
CONTINUOUS
62
4
100
AcDbVertex
100
AcDb2dVertex
10
112.783
20
176.497
30
0.0
42
1.000
0
VERTEX
5
78f
100
AcDbEntity
  8
0-10-2
6
CONTINUOUS
62
4
100
AcDbVertex
100
AcDb2dVertex
10
112.983
20
176.497
30
0.0
42
1.000
0
SEQEND
5
790
100
AcDbEntity
  8
0-10-2
0
POLYLINE
5
791
100
AcDbEntity
  8
0-10-2
6
CONTINUOUS
62
4
100
AcDb2dPolyline
66
1
10
0
20
0
70
1
40
0.200
41
0.200
0
VERTEX
5
792
100
AcDbEntity
  8
0-10-2
6
CONTINUOUS
62
4
100
AcDbVertex
100
AcDb2dVertex
10
103.240
20
187.100
30
0.0
42
1.000
0
VERTEX
5
793
100
AcDbEntity
  8
0-10-2
6
CONTINUOUS
62
4
100
AcDbVertex
100
AcDb2dVertex
10
103.440
20
187.100
30
0.0
42
1.000
0
SEQEND
5
794
100
AcDbEntity
  8
0-10-2
0
POLYLINE
5
795
100
AcDbEntity
  8
0-10-2
6
CONTINUOUS
62
4
100
AcDb2dPolyline
66
1
10
0
20
0
70
1
40
0.200
41
0.200
0
VERTEX
5
796
100
AcDbEntity
  8
0-10-2
6
CONTINUOUS
62
4
100
AcDbVertex
100
AcDb2dVertex
10
335.667
20
187.100
30
0.0
42
1.000
0
VERTEX
5
797
100
AcDbEntity
  8
0-10-2
6
CONTINUOUS
62
4
100
AcDbVertex
100
AcDb2dVertex
10
335.867
20
187.100
30
0.0
42
1.000
0
SEQEND
5
798
100
AcDbEntity
  8
0-10-2
0
POLYLINE
5
799
100
AcDbEntity
  8
0-10-2
6
CONTINUOUS
62
4
100
AcDb2dPolyline
66
1
10
0
20
0
70
1
40
0.200
41
0.200
0
VERTEX
5
79a
100
AcDbEntity
  8
0-10-2
6
CONTINUOUS
62
4
100
AcDbVertex
100
AcDb2dVertex
10
335.667
20
176.497
30
0.0
42
1.000
0
VERTEX
5
79b
100
AcDbEntity
  8
0-10-2
6
CONTINUOUS
62
4
100
AcDbVertex
100
AcDb2dVertex
10
335.867
20
176.497
30
0.0
42
1.000
0
SEQEND
5
79c
100
AcDbEntity
  8
0-10-2
0
POLYLINE
5
79d
100
AcDbEntity
  8
0-10-2
6
CONTINUOUS
62
4
100
AcDb2dPolyline
66
1
10
0
20
0
70
1
40
0.200
41
0.200
0
VERTEX
5
79e
100
AcDbEntity
  8
0-10-2
6
CONTINUOUS
62
4
100
AcDbVertex
100
AcDb2dVertex
10
347.402
20
176.497
30
0.0
42
1.000
0
VERTEX
5
79f
100
AcDbEntity
  8
0-10-2
6
CONTINUOUS
62
4
100
AcDbVertex
100
AcDb2dVertex
10
347.602
20
176.497
30
0.0
42
1.000
0
SEQEND
5
7a0
100
AcDbEntity
  8
0-10-2
0
POLYLINE
5
7a1
100
AcDbEntity
  8
0-10-2
6
CONTINUOUS
62
4
100
AcDb2dPolyline
66
1
10
0
20
0
70
1
40
0.200
41
0.200
0
VERTEX
5
7a2
100
AcDbEntity
  8
0-10-2
6
CONTINUOUS
62
4
100
AcDbVertex
100
AcDb2dVertex
10
295.623
20
152.109
30
0.0
42
1.000
0
VERTEX
5
7a3
100
AcDbEntity
  8
0-10-2
6
CONTINUOUS
62
4
100
AcDbVertex
100
AcDb2dVertex
10
295.823
20
152.109
30
0.0
42
1.000
0
SEQEND
5
7a4
100
AcDbEntity
  8
0-10-2
0
POLYLINE
5
7a5
100
AcDbEntity
  8
0-10-2
6
CONTINUOUS
62
4
100
AcDb2dPolyline
66
1
10
0
20
0
70
1
40
0.200
41
0.200
0
VERTEX
5
7a6
100
AcDbEntity
  8
0-10-2
6
CONTINUOUS
62
4
100
AcDbVertex
100
AcDb2dVertex
10
295.623
20
166.671
30
0.0
42
1.000
0
VERTEX
5
7a7
100
AcDbEntity
  8
0-10-2
6
CONTINUOUS
62
4
100
AcDbVertex
100
AcDb2dVertex
10
295.823
20
166.671
30
0.0
42
1.000
0
SEQEND
5
7a8
100
AcDbEntity
  8
0-10-2
0
POLYLINE
5
7a9
100
AcDbEntity
  8
0-10-2
6
CONTINUOUS
62
4
100
AcDb2dPolyline
66
1
10
0
20
0
70
1
40
0.200
41
0.200
0
VERTEX
5
7aa
100
AcDbEntity
  8
0-10-2
6
CONTINUOUS
62
4
100
AcDbVertex
100
AcDb2dVertex
10
306.226
20
151.685
30
0.0
42
1.000
0
VERTEX
5
7ab
100
AcDbEntity
  8
0-10-2
6
CONTINUOUS
62
4
100
AcDbVertex
100
AcDb2dVertex
10
306.426
20
151.685
30
0.0
42
1.000
0
SEQEND
5
7ac
100
AcDbEntity
  8
0-10-2
0
POLYLINE
5
7ad
100
AcDbEntity
  8
0-10-2
6
CONTINUOUS
62
4
100
AcDb2dPolyline
66
1
10
0
20
0
70
1
40
0.200
41
0.200
0
VERTEX
5
7ae
100
AcDbEntity
  8
0-10-2
6
CONTINUOUS
62
4
100
AcDbVertex
100
AcDb2dVertex
10
306.226
20
153.523
30
0.0
42
1.000
0
VERTEX
5
7af
100
AcDbEntity
  8
0-10-2
6
CONTINUOUS
62
4
100
AcDbVertex
100
AcDb2dVertex
10
306.426
20
153.523
30
0.0
42
1.000
0
SEQEND
5
7b0
100
AcDbEntity
  8
0-10-2
0
POLYLINE
5
7b1
100
AcDbEntity
  8
0-10-2
6
CONTINUOUS
62
4
100
AcDb2dPolyline
66
1
10
0
20
0
70
1
40
0.200
41
0.200
0
VERTEX
5
7b2
100
AcDbEntity
  8
0-10-2
6
CONTINUOUS
62
4
100
AcDbVertex
100
AcDb2dVertex
10
306.226
20
166.671
30
0.0
42
1.000
0
VERTEX
5
7b3
100
AcDbEntity
  8
0-10-2
6
CONTINUOUS
62
4
100
AcDbVertex
100
AcDb2dVertex
10
306.426
20
166.671
30
0.0
42
1.000
0
SEQEND
5
7b4
100
AcDbEntity
  8
0-10-2
0
POLYLINE
5
7b5
100
AcDbEntity
  8
0-10-2
6
CONTINUOUS
62
4
100
AcDb2dPolyline
66
1
10
0
20
0
70
1
40
0.200
41
0.200
0
VERTEX
5
7b6
100
AcDbEntity
  8
0-10-2
6
CONTINUOUS
62
4
100
AcDbVertex
100
AcDb2dVertex
10
358.005
20
157.764
30
0.0
42
1.000
0
VERTEX
5
7b7
100
AcDbEntity
  8
0-10-2
6
CONTINUOUS
62
4
100
AcDbVertex
100
AcDb2dVertex
10
358.205
20
157.764
30
0.0
42
1.000
0
SEQEND
5
7b8
100
AcDbEntity
  8
0-10-2
0
POLYLINE
5
7b9
100
AcDbEntity
  8
0-10-2
6
CONTINUOUS
62
4
100
AcDb2dPolyline
66
1
10
0
20
0
70
1
40
0.200
41
0.200
0
VERTEX
5
7ba
100
AcDbEntity
  8
0-10-2
6
CONTINUOUS
62
4
100
AcDbVertex
100
AcDb2dVertex
10
358.005
20
166.671
30
0.0
42
1.000
0
VERTEX
5
7bb
100
AcDbEntity
  8
0-10-2
6
CONTINUOUS
62
4
100
AcDbVertex
100
AcDb2dVertex
10
358.205
20
166.671
30
0.0
42
1.000
0
SEQEND
5
7bc
100
AcDbEntity
  8
0-10-2
0
POLYLINE
5
7bd
100
AcDbEntity
  8
0-10-2
6
CONTINUOUS
62
4
100
AcDb2dPolyline
66
1
10
0
20
0
70
1
40
0.200
41
0.200
0
VERTEX
5
7be
100
AcDbEntity
  8
0-10-2
6
CONTINUOUS
62
4
100
AcDbVertex
100
AcDb2dVertex
10
89.526
20
141.081
30
0.0
42
1.000
0
VERTEX
5
7bf
100
AcDbEntity
  8
0-10-2
6
CONTINUOUS
62
4
100
AcDbVertex
100
AcDb2dVertex
10
89.726
20
141.081
30
0.0
42
1.000
0
SEQEND
5
7c0
100
AcDbEntity
  8
0-10-2
0
POLYLINE
5
7c1
100
AcDbEntity
  8
0-10-2
6
CONTINUOUS
62
4
100
AcDb2dPolyline
66
1
10
0
20
0
70
1
40
0.200
41
0.200
0
VERTEX
5
7c2
100
AcDbEntity
  8
0-10-2
6
CONTINUOUS
62
4
100
AcDbVertex
100
AcDb2dVertex
10
103.664
20
141.081
30
0.0
42
1.000
0
VERTEX
5
7c3
100
AcDbEntity
  8
0-10-2
6
CONTINUOUS
62
4
100
AcDbVertex
100
AcDb2dVertex
10
103.864
20
141.081
30
0.0
42
1.000
0
SEQEND
5
7c4
100
AcDbEntity
  8
0-10-2
0
POLYLINE
5
7c5
100
AcDbEntity
  8
0-10-2
6
CONTINUOUS
62
4
100
AcDb2dPolyline
66
1
10
0
20
0
70
1
40
0.200
41
0.200
0
VERTEX
5
7c6
100
AcDbEntity
  8
0-10-2
6
CONTINUOUS
62
4
100
AcDbVertex
100
AcDb2dVertex
10
82.457
20
152.109
30
0.0
42
1.000
0
VERTEX
5
7c7
100
AcDbEntity
  8
0-10-2
6
CONTINUOUS
62
4
100
AcDbVertex
100
AcDb2dVertex
10
82.657
20
152.109
30
0.0
42
1.000
0
SEQEND
5
7c8
100
AcDbEntity
  8
0-10-2
0
POLYLINE
5
7c9
100
AcDbEntity
  8
0-10-2
6
CONTINUOUS
62
4
100
AcDb2dPolyline
66
1
10
0
20
0
70
1
40
0.200
41
0.200
0
VERTEX
5
7ca
100
AcDbEntity
  8
0-10-2
6
CONTINUOUS
62
4
100
AcDbVertex
100
AcDb2dVertex
10
82.457
20
165.893
30
0.0
42
1.000
0
VERTEX
5
7cb
100
AcDbEntity
  8
0-10-2
6
CONTINUOUS
62
4
100
AcDbVertex
100
AcDb2dVertex
10
82.657
20
165.893
30
0.0
42
1.000
0
SEQEND
5
7cc
100
AcDbEntity
  8
0-10-2
0
POLYLINE
5
7cd
100
AcDbEntity
  8
0-10-2
6
CONTINUOUS
62
4
100
AcDb2dPolyline
66
1
10
0
20
0
70
1
40
0.200
41
0.200
0
VERTEX
5
7ce
100
AcDbEntity
  8
0-10-2
6
CONTINUOUS
62
4
100
AcDbVertex
100
AcDb2dVertex
10
143.284
20
152.109
30
0.0
42
1.000
0
VERTEX
5
7cf
100
AcDbEntity
  8
0-10-2
6
CONTINUOUS
62
4
100
AcDbVertex
100
AcDb2dVertex
10
143.484
20
152.109
30
0.0
42
1.000
0
SEQEND
5
7d0
100
AcDbEntity
  8
0-10-2
0
POLYLINE
5
7d1
100
AcDbEntity
  8
0-10-2
6
CONTINUOUS
62
4
100
AcDb2dPolyline
66
1
10
0
20
0
70
1
40
0.200
41
0.200
0
VERTEX
5
7d2
100
AcDbEntity
  8
0-10-2
6
CONTINUOUS
62
4
100
AcDbVertex
100
AcDb2dVertex
10
143.284
20
165.893
30
0.0
42
1.000
0
VERTEX
5
7d3
100
AcDbEntity
  8
0-10-2
6
CONTINUOUS
62
4
100
AcDbVertex
100
AcDb2dVertex
10
143.484
20
165.893
30
0.0
42
1.000
0
SEQEND
5
7d4
100
AcDbEntity
  8
0-10-2
0
POLYLINE
5
7d5
100
AcDbEntity
  8
0-10-2
6
CONTINUOUS
62
4
100
AcDb2dPolyline
66
1
10
0
20
0
70
1
40
0.200
41
0.200
0
VERTEX
5
7d6
100
AcDbEntity
  8
0-10-2
6
CONTINUOUS
62
4
100
AcDbVertex
100
AcDb2dVertex
10
132.681
20
151.685
30
0.0
42
1.000
0
VERTEX
5
7d7
100
AcDbEntity
  8
0-10-2
6
CONTINUOUS
62
4
100
AcDbVertex
100
AcDb2dVertex
10
132.881
20
151.685
30
0.0
42
1.000
0
SEQEND
5
7d8
100
AcDbEntity
  8
0-10-2
0
POLYLINE
5
7d9
100
AcDbEntity
  8
0-10-2
6
CONTINUOUS
62
4
100
AcDb2dPolyline
66
1
10
0
20
0
70
1
40
0.200
41
0.200
0
VERTEX
5
7da
100
AcDbEntity
  8
0-10-2
6
CONTINUOUS
62
4
100
AcDbVertex
100
AcDb2dVertex
10
132.681
20
153.523
30
0.0
42
1.000
0
VERTEX
5
7db
100
AcDbEntity
  8
0-10-2
6
CONTINUOUS
62
4
100
AcDbVertex
100
AcDb2dVertex
10
132.881
20
153.523
30
0.0
42
1.000
0
SEQEND
5
7dc
100
AcDbEntity
  8
0-10-2
0
POLYLINE
5
7dd
100
AcDbEntity
  8
0-10-2
6
CONTINUOUS
62
4
100
AcDb2dPolyline
66
1
10
0
20
0
70
1
40
0.200
41
0.200
0
VERTEX
5
7de
100
AcDbEntity
  8
0-10-2
6
CONTINUOUS
62
4
100
AcDbVertex
100
AcDb2dVertex
10
132.681
20
165.893
30
0.0
42
1.000
0
VERTEX
5
7df
100
AcDbEntity
  8
0-10-2
6
CONTINUOUS
62
4
100
AcDbVertex
100
AcDb2dVertex
10
132.881
20
165.893
30
0.0
42
1.000
0
SEQEND
5
7e0
100
AcDbEntity
  8
0-10-2
0
POLYLINE
5
7e1
100
AcDbEntity
  8
0-00-0
6
CONTINUOUS
62
2
100
AcDb2dPolyline
66
1
10
0
20
0
70
1
40
0.200
41
0.200
0
VERTEX
5
7e2
100
AcDbEntity
  8
0-00-0
6
CONTINUOUS
62
2
100
AcDbVertex
100
AcDb2dVertex
10
158.518
20
487.758
30
0.0
42
1.000
0
VERTEX
5
7e3
100
AcDbEntity
  8
0-00-0
6
CONTINUOUS
62
2
100
AcDbVertex
100
AcDb2dVertex
10
158.718
20
487.758
30
0.0
42
1.000
0
SEQEND
5
7e4
100
AcDbEntity
  8
0-00-0
0
POLYLINE
5
7e5
100
AcDbEntity
  8
0-00-0
6
CONTINUOUS
62
2
100
AcDb2dPolyline
66
1
10
0
20
0
70
1
40
0.200
41
0.200
0
VERTEX
5
7e6
100
AcDbEntity
  8
0-00-0
6
CONTINUOUS
62
2
100
AcDbVertex
100
AcDb2dVertex
10
182.491
20
503.787
30
0.0
42
1.000
0
VERTEX
5
7e7
100
AcDbEntity
  8
0-00-0
6
CONTINUOUS
62
2
100
AcDbVertex
100
AcDb2dVertex
10
182.691
20
503.787
30
0.0
42
1.000
0
SEQEND
5
7e8
100
AcDbEntity
  8
0-00-0
0
POLYLINE
5
7e9
100
AcDbEntity
  8
0-00-0
6
CONTINUOUS
62
2
100
AcDb2dPolyline
66
1
10
0
20
0
70
1
40
0.200
41
0.200
0
VERTEX
5
7ea
100
AcDbEntity
  8
0-00-0
6
CONTINUOUS
62
2
100
AcDbVertex
100
AcDb2dVertex
10
189.675
20
513.189
30
0.0
42
1.000
0
VERTEX
5
7eb
100
AcDbEntity
  8
0-00-0
6
CONTINUOUS
62
2
100
AcDbVertex
100
AcDb2dVertex
10
189.875
20
513.189
30
0.0
42
1.000
0
SEQEND
5
7ec
100
AcDbEntity
  8
0-00-0
0
POLYLINE
5
7ed
100
AcDbEntity
  8
0-00-0
6
CONTINUOUS
62
2
100
AcDb2dPolyline
66
1
10
0
20
0
70
1
40
0.200
41
0.200
0
VERTEX
5
7ee
100
AcDbEntity
  8
0-00-0
6
CONTINUOUS
62
2
100
AcDbVertex
100
AcDb2dVertex
10
201.034
20
483.375
30
0.0
42
1.000
0
VERTEX
5
7ef
100
AcDbEntity
  8
0-00-0
6
CONTINUOUS
62
2
100
AcDbVertex
100
AcDb2dVertex
10
201.234
20
483.375
30
0.0
42
1.000
0
SEQEND
5
7f0
100
AcDbEntity
  8
0-00-0
0
POLYLINE
5
7f1
100
AcDbEntity
  8
0-00-0
6
CONTINUOUS
62
2
100
AcDb2dPolyline
66
1
10
0
20
0
70
1
40
0.200
41
0.200
0
VERTEX
5
7f2
100
AcDbEntity
  8
0-00-0
6
CONTINUOUS
62
2
100
AcDbVertex
100
AcDb2dVertex
10
224.169
20
473.966
30
0.0
42
1.000
0
VERTEX
5
7f3
100
AcDbEntity
  8
0-00-0
6
CONTINUOUS
62
2
100
AcDbVertex
100
AcDb2dVertex
10
224.369
20
473.966
30
0.0
42
1.000
0
SEQEND
5
7f4
100
AcDbEntity
  8
0-00-0
0
POLYLINE
5
7f5
100
AcDbEntity
  8
0-00-0
6
CONTINUOUS
62
4
100
AcDb2dPolyline
66
1
10
0
20
0
70
1
40
0.200
41
0.200
0
VERTEX
5
7f6
100
AcDbEntity
  8
0-00-0
6
CONTINUOUS
62
4
100
AcDbVertex
100
AcDb2dVertex
10
103.240
20
247.186
30
0.0
42
1.000
0
VERTEX
5
7f7
100
AcDbEntity
  8
0-00-0
6
CONTINUOUS
62
4
100
AcDbVertex
100
AcDb2dVertex
10
103.440
20
247.186
30
0.0
42
1.000
0
SEQEND
5
7f8
100
AcDbEntity
  8
0-00-0
0
POLYLINE
5
7f9
100
AcDbEntity
  8
0-00-0
6
CONTINUOUS
62
4
100
AcDb2dPolyline
66
1
10
0
20
0
70
1
40
0.200
41
0.200
0
VERTEX
5
7fa
100
AcDbEntity
  8
0-00-0
6
CONTINUOUS
62
4
100
AcDbVertex
100
AcDb2dVertex
10
112.783
20
247.186
30
0.0
42
1.000
0
VERTEX
5
7fb
100
AcDbEntity
  8
0-00-0
6
CONTINUOUS
62
4
100
AcDbVertex
100
AcDb2dVertex
10
112.983
20
247.186
30
0.0
42
1.000
0
SEQEND
5
7fc
100
AcDbEntity
  8
0-00-0
0
POLYLINE
5
7fd
100
AcDbEntity
  8
0-00-0
6
CONTINUOUS
62
4
100
AcDb2dPolyline
66
1
10
0
20
0
70
1
40
0.200
41
0.200
0
VERTEX
5
7fe
100
AcDbEntity
  8
0-00-0
6
CONTINUOUS
62
4
100
AcDbVertex
100
AcDb2dVertex
10
103.240
20
257.790
30
0.0
42
1.000
0
VERTEX
5
7ff
100
AcDbEntity
  8
0-00-0
6
CONTINUOUS
62
4
100
AcDbVertex
100
AcDb2dVertex
10
103.440
20
257.790
30
0.0
42
1.000
0
SEQEND
5
800
100
AcDbEntity
  8
0-00-0
0
POLYLINE
5
801
100
AcDbEntity
  8
0-00-0
6
CONTINUOUS
62
4
100
AcDb2dPolyline
66
1
10
0
20
0
70
1
40
0.200
41
0.200
0
VERTEX
5
802
100
AcDbEntity
  8
0-00-0
6
CONTINUOUS
62
4
100
AcDbVertex
100
AcDb2dVertex
10
335.667
20
257.790
30
0.0
42
1.000
0
VERTEX
5
803
100
AcDbEntity
  8
0-00-0
6
CONTINUOUS
62
4
100
AcDbVertex
100
AcDb2dVertex
10
335.867
20
257.790
30
0.0
42
1.000
0
SEQEND
5
804
100
AcDbEntity
  8
0-00-0
0
POLYLINE
5
805
100
AcDbEntity
  8
0-00-0
6
CONTINUOUS
62
4
100
AcDb2dPolyline
66
1
10
0
20
0
70
1
40
0.200
41
0.200
0
VERTEX
5
806
100
AcDbEntity
  8
0-00-0
6
CONTINUOUS
62
4
100
AcDbVertex
100
AcDb2dVertex
10
335.667
20
247.186
30
0.0
42
1.000
0
VERTEX
5
807
100
AcDbEntity
  8
0-00-0
6
CONTINUOUS
62
4
100
AcDbVertex
100
AcDb2dVertex
10
335.867
20
247.186
30
0.0
42
1.000
0
SEQEND
5
808
100
AcDbEntity
  8
0-00-0
0
POLYLINE
5
809
100
AcDbEntity
  8
0-00-0
6
CONTINUOUS
62
4
100
AcDb2dPolyline
66
1
10
0
20
0
70
1
40
0.200
41
0.200
0
VERTEX
5
80a
100
AcDbEntity
  8
0-00-0
6
CONTINUOUS
62
4
100
AcDbVertex
100
AcDb2dVertex
10
347.402
20
247.186
30
0.0
42
1.000
0
VERTEX
5
80b
100
AcDbEntity
  8
0-00-0
6
CONTINUOUS
62
4
100
AcDbVertex
100
AcDb2dVertex
10
347.602
20
247.186
30
0.0
42
1.000
0
SEQEND
5
80c
100
AcDbEntity
  8
0-00-0
0
POLYLINE
5
80d
100
AcDbEntity
  8
0-00-0
6
CONTINUOUS
62
4
100
AcDb2dPolyline
66
1
10
0
20
0
70
1
40
0.200
41
0.200
0
VERTEX
5
80e
100
AcDbEntity
  8
0-00-0
6
CONTINUOUS
62
4
100
AcDbVertex
100
AcDb2dVertex
10
295.623
20
222.798
30
0.0
42
1.000
0
VERTEX
5
80f
100
AcDbEntity
  8
0-00-0
6
CONTINUOUS
62
4
100
AcDbVertex
100
AcDb2dVertex
10
295.823
20
222.798
30
0.0
42
1.000
0
SEQEND
5
810
100
AcDbEntity
  8
0-00-0
0
POLYLINE
5
811
100
AcDbEntity
  8
0-00-0
6
CONTINUOUS
62
4
100
AcDb2dPolyline
66
1
10
0
20
0
70
1
40
0.200
41
0.200
0
VERTEX
5
812
100
AcDbEntity
  8
0-00-0
6
CONTINUOUS
62
4
100
AcDbVertex
100
AcDb2dVertex
10
295.623
20
237.361
30
0.0
42
1.000
0
VERTEX
5
813
100
AcDbEntity
  8
0-00-0
6
CONTINUOUS
62
4
100
AcDbVertex
100
AcDb2dVertex
10
295.823
20
237.361
30
0.0
42
1.000
0
SEQEND
5
814
100
AcDbEntity
  8
0-00-0
0
POLYLINE
5
815
100
AcDbEntity
  8
0-00-0
6
CONTINUOUS
62
4
100
AcDb2dPolyline
66
1
10
0
20
0
70
1
40
0.200
41
0.200
0
VERTEX
5
816
100
AcDbEntity
  8
0-00-0
6
CONTINUOUS
62
4
100
AcDbVertex
100
AcDb2dVertex
10
306.226
20
222.374
30
0.0
42
1.000
0
VERTEX
5
817
100
AcDbEntity
  8
0-00-0
6
CONTINUOUS
62
4
100
AcDbVertex
100
AcDb2dVertex
10
306.426
20
222.374
30
0.0
42
1.000
0
SEQEND
5
818
100
AcDbEntity
  8
0-00-0
0
POLYLINE
5
819
100
AcDbEntity
  8
0-00-0
6
CONTINUOUS
62
4
100
AcDb2dPolyline
66
1
10
0
20
0
70
1
40
0.200
41
0.200
0
VERTEX
5
81a
100
AcDbEntity
  8
0-00-0
6
CONTINUOUS
62
4
100
AcDbVertex
100
AcDb2dVertex
10
306.226
20
224.212
30
0.0
42
1.000
0
VERTEX
5
81b
100
AcDbEntity
  8
0-00-0
6
CONTINUOUS
62
4
100
AcDbVertex
100
AcDb2dVertex
10
306.426
20
224.212
30
0.0
42
1.000
0
SEQEND
5
81c
100
AcDbEntity
  8
0-00-0
0
POLYLINE
5
81d
100
AcDbEntity
  8
0-00-0
6
CONTINUOUS
62
4
100
AcDb2dPolyline
66
1
10
0
20
0
70
1
40
0.200
41
0.200
0
VERTEX
5
81e
100
AcDbEntity
  8
0-00-0
6
CONTINUOUS
62
4
100
AcDbVertex
100
AcDb2dVertex
10
306.226
20
237.361
30
0.0
42
1.000
0
VERTEX
5
81f
100
AcDbEntity
  8
0-00-0
6
CONTINUOUS
62
4
100
AcDbVertex
100
AcDb2dVertex
10
306.426
20
237.361
30
0.0
42
1.000
0
SEQEND
5
820
100
AcDbEntity
  8
0-00-0
0
POLYLINE
5
821
100
AcDbEntity
  8
0-00-0
6
CONTINUOUS
62
4
100
AcDb2dPolyline
66
1
10
0
20
0
70
1
40
0.200
41
0.200
0
VERTEX
5
822
100
AcDbEntity
  8
0-00-0
6
CONTINUOUS
62
4
100
AcDbVertex
100
AcDb2dVertex
10
358.005
20
228.454
30
0.0
42
1.000
0
VERTEX
5
823
100
AcDbEntity
  8
0-00-0
6
CONTINUOUS
62
4
100
AcDbVertex
100
AcDb2dVertex
10
358.205
20
228.454
30
0.0
42
1.000
0
SEQEND
5
824
100
AcDbEntity
  8
0-00-0
0
POLYLINE
5
825
100
AcDbEntity
  8
0-00-0
6
CONTINUOUS
62
4
100
AcDb2dPolyline
66
1
10
0
20
0
70
1
40
0.200
41
0.200
0
VERTEX
5
826
100
AcDbEntity
  8
0-00-0
6
CONTINUOUS
62
4
100
AcDbVertex
100
AcDb2dVertex
10
358.005
20
237.361
30
0.0
42
1.000
0
VERTEX
5
827
100
AcDbEntity
  8
0-00-0
6
CONTINUOUS
62
4
100
AcDbVertex
100
AcDb2dVertex
10
358.205
20
237.361
30
0.0
42
1.000
0
SEQEND
5
828
100
AcDbEntity
  8
0-00-0
0
POLYLINE
5
829
100
AcDbEntity
  8
0-00-0
6
CONTINUOUS
62
4
100
AcDb2dPolyline
66
1
10
0
20
0
70
1
40
0.200
41
0.200
0
VERTEX
5
82a
100
AcDbEntity
  8
0-00-0
6
CONTINUOUS
62
4
100
AcDbVertex
100
AcDb2dVertex
10
89.526
20
211.771
30
0.0
42
1.000
0
VERTEX
5
82b
100
AcDbEntity
  8
0-00-0
6
CONTINUOUS
62
4
100
AcDbVertex
100
AcDb2dVertex
10
89.726
20
211.771
30
0.0
42
1.000
0
SEQEND
5
82c
100
AcDbEntity
  8
0-00-0
0
POLYLINE
5
82d
100
AcDbEntity
  8
0-00-0
6
CONTINUOUS
62
4
100
AcDb2dPolyline
66
1
10
0
20
0
70
1
40
0.200
41
0.200
0
VERTEX
5
82e
100
AcDbEntity
  8
0-00-0
6
CONTINUOUS
62
4
100
AcDbVertex
100
AcDb2dVertex
10
103.664
20
211.771
30
0.0
42
1.000
0
VERTEX
5
82f
100
AcDbEntity
  8
0-00-0
6
CONTINUOUS
62
4
100
AcDbVertex
100
AcDb2dVertex
10
103.864
20
211.771
30
0.0
42
1.000
0
SEQEND
5
830
100
AcDbEntity
  8
0-00-0
0
POLYLINE
5
831
100
AcDbEntity
  8
0-00-0
6
CONTINUOUS
62
4
100
AcDb2dPolyline
66
1
10
0
20
0
70
1
40
0.200
41
0.200
0
VERTEX
5
832
100
AcDbEntity
  8
0-00-0
6
CONTINUOUS
62
4
100
AcDbVertex
100
AcDb2dVertex
10
82.457
20
222.798
30
0.0
42
1.000
0
VERTEX
5
833
100
AcDbEntity
  8
0-00-0
6
CONTINUOUS
62
4
100
AcDbVertex
100
AcDb2dVertex
10
82.657
20
222.798
30
0.0
42
1.000
0
SEQEND
5
834
100
AcDbEntity
  8
0-00-0
0
POLYLINE
5
835
100
AcDbEntity
  8
0-00-0
6
CONTINUOUS
62
4
100
AcDb2dPolyline
66
1
10
0
20
0
70
1
40
0.200
41
0.200
0
VERTEX
5
836
100
AcDbEntity
  8
0-00-0
6
CONTINUOUS
62
4
100
AcDbVertex
100
AcDb2dVertex
10
82.457
20
236.583
30
0.0
42
1.000
0
VERTEX
5
837
100
AcDbEntity
  8
0-00-0
6
CONTINUOUS
62
4
100
AcDbVertex
100
AcDb2dVertex
10
82.657
20
236.583
30
0.0
42
1.000
0
SEQEND
5
838
100
AcDbEntity
  8
0-00-0
0
POLYLINE
5
839
100
AcDbEntity
  8
0-00-0
6
CONTINUOUS
62
4
100
AcDb2dPolyline
66
1
10
0
20
0
70
1
40
0.200
41
0.200
0
VERTEX
5
83a
100
AcDbEntity
  8
0-00-0
6
CONTINUOUS
62
4
100
AcDbVertex
100
AcDb2dVertex
10
143.284
20
222.798
30
0.0
42
1.000
0
VERTEX
5
83b
100
AcDbEntity
  8
0-00-0
6
CONTINUOUS
62
4
100
AcDbVertex
100
AcDb2dVertex
10
143.484
20
222.798
30
0.0
42
1.000
0
SEQEND
5
83c
100
AcDbEntity
  8
0-00-0
0
POLYLINE
5
83d
100
AcDbEntity
  8
0-00-0
6
CONTINUOUS
62
4
100
AcDb2dPolyline
66
1
10
0
20
0
70
1
40
0.200
41
0.200
0
VERTEX
5
83e
100
AcDbEntity
  8
0-00-0
6
CONTINUOUS
62
4
100
AcDbVertex
100
AcDb2dVertex
10
143.284
20
236.583
30
0.0
42
1.000
0
VERTEX
5
83f
100
AcDbEntity
  8
0-00-0
6
CONTINUOUS
62
4
100
AcDbVertex
100
AcDb2dVertex
10
143.484
20
236.583
30
0.0
42
1.000
0
SEQEND
5
840
100
AcDbEntity
  8
0-00-0
0
POLYLINE
5
841
100
AcDbEntity
  8
0-00-0
6
CONTINUOUS
62
4
100
AcDb2dPolyline
66
1
10
0
20
0
70
1
40
0.200
41
0.200
0
VERTEX
5
842
100
AcDbEntity
  8
0-00-0
6
CONTINUOUS
62
4
100
AcDbVertex
100
AcDb2dVertex
10
132.681
20
222.374
30
0.0
42
1.000
0
VERTEX
5
843
100
AcDbEntity
  8
0-00-0
6
CONTINUOUS
62
4
100
AcDbVertex
100
AcDb2dVertex
10
132.881
20
222.374
30
0.0
42
1.000
0
SEQEND
5
844
100
AcDbEntity
  8
0-00-0
0
POLYLINE
5
845
100
AcDbEntity
  8
0-00-0
6
CONTINUOUS
62
4
100
AcDb2dPolyline
66
1
10
0
20
0
70
1
40
0.200
41
0.200
0
VERTEX
5
846
100
AcDbEntity
  8
0-00-0
6
CONTINUOUS
62
4
100
AcDbVertex
100
AcDb2dVertex
10
132.681
20
224.212
30
0.0
42
1.000
0
VERTEX
5
847
100
AcDbEntity
  8
0-00-0
6
CONTINUOUS
62
4
100
AcDbVertex
100
AcDb2dVertex
10
132.881
20
224.212
30
0.0
42
1.000
0
SEQEND
5
848
100
AcDbEntity
  8
0-00-0
0
POLYLINE
5
849
100
AcDbEntity
  8
0-00-0
6
CONTINUOUS
62
4
100
AcDb2dPolyline
66
1
10
0
20
0
70
1
40
0.200
41
0.200
0
VERTEX
5
84a
100
AcDbEntity
  8
0-00-0
6
CONTINUOUS
62
4
100
AcDbVertex
100
AcDb2dVertex
10
132.681
20
236.583
30
0.0
42
1.000
0
VERTEX
5
84b
100
AcDbEntity
  8
0-00-0
6
CONTINUOUS
62
4
100
AcDbVertex
100
AcDb2dVertex
10
132.881
20
236.583
30
0.0
42
1.000
0
SEQEND
5
84c
100
AcDbEntity
  8
0-00-0
0
POLYLINE
5
84d
100
AcDbEntity
  8
0-10-2
6
CONTINUOUS
62
2
100
AcDb2dPolyline
66
1
10
0
20
0
70
1
40
0.200
41
0.200
0
VERTEX
5
84e
100
AcDbEntity
  8
0-10-2
6
CONTINUOUS
62
2
100
AcDbVertex
100
AcDb2dVertex
10
104.670
20
166.272
30
0.0
42
1.000
0
VERTEX
5
84f
100
AcDbEntity
  8
0-10-2
6
CONTINUOUS
62
2
100
AcDbVertex
100
AcDb2dVertex
10
104.870
20
166.272
30
0.0
42
1.000
0
SEQEND
5
850
100
AcDbEntity
  8
0-10-2
0
ENDSEC
 0
SECTION
  2
OBJECTS
 0
DICTIONARY
  5
C
100
AcDbDictionary
  3
ACAD_GROUP
350
D
  3
ACAD_MLINESTYLE
350
E
 0
DICTIONARY
  5
D
102
{ACAD_REACTORS
102
}
100
AcDbDictionary
 0
DICTIONARY
  5
E
102
{ACAD_REACTORS
102
}
100
AcDbDictionary
  3
STANDARD
350
13
0
MLINESTYLE
  5
13
102
{ACAD_REACTORS
102
}
100
AcDbMlineStyle
  2
STANDARD
 70
    0
3

62
256
51
90.0
52
90.0
71
0
0
ACDBPLACEHOLDER
  5
14
102
{ACAD_REACTORS
102
}
0
ENDSEC
0
EOF
