0
SECTION
2
HEADER
9
$ACADVER
1
AC1015
9
$ACADMAINTVER
 70
6
9
$DWGCODEPAGE
3
ANSI_932
9
$EXTMIN
10
0.000
20
0.000
30
0.0
9
$EXTMAX
10
841.000
20
594.000
30
0.0
9
$LIMMIN
10
0.000
20
0.000
9
$LIMMAX
10
841.000
20
594.000
9
$DIMSCALE
40
1.000000
9
$LTSCALE
40
2.000
9
$PDMODE
70
0
9
$PDSIZE
40
40.0
9
$HANDSEED
5
61f41
9
$UNITMODE
70
0
9
$VISRETAIN
70
0
9
$PLINEGEN
70
0
9
$PSLTSCALE
70
1
9
$TREEDEPTH
70
3020
9
$CMLSTYLE
2
STANDARD
9
$CMLJUST
70
0
9
$CMLSCALE
40
1.0
9
$PROXYGRAPHICS
70
1
9
$MEASUREMENT
70
0
9
$CELWEIGHT
370
-1
9
$ENDCAPS
280
0
9
$JOINSTYLE
280
0
9
$LWDISPLAY
290
0
9
$INSUNITS
70
0
9
$HYPERLINKBASE
1

9
$STYLESHEET
1

9
$XEDIT
290
1
9
$CEPSNTYPE
380
0
9
$PSTYLEMODE
290
1
9
$FINGERPRINTGUID
2
{5F082321-0195-11D3-BDFB-0060B0CD5109}
9
$VERSIONGUID
2
{12943756-294D-11D3-98C2-0060B087942D}
9
$EXTNAMES
290
1
9
$PSVPSCALE
40
0.0
9
$OLESTARTUP
290
0
0
ENDSEC
0
SECTION
  2
CLASSES
0
ENDSEC
0
SECTION
2
TABLES
0
TABLE
2
VPORT
5
190
100
AcDbSymbolTable
70
2
0
VPORT
5
191
100
AcDbSymbolTableRecord
100
AcDbViewportTableRecord
2
*ACTIVE
70
0
10
0.0
20
0.0
11
1.0
21
1.0
12
420.500
22
297.000
13
0.0
23
0.0
14
1.0
24
1.0
15
0.0
25
0.0
16
0.0
26
0.0
36
1.0
17
0.0
27
0.0
37
0.0
40
609.420
41
2.0
42
50.0
43
0.0
44
0.0
50
0.0
51
0.0
71
0
72
1000
73
1
74
1
75
0
76
0
77
0
78
0
0
ENDTAB
0
TABLE
2
LTYPE
5
1f4
100
AcDbSymbolTable
70
9
0
LTYPE
5
1f5
100
AcDbSymbolTableRecord
100
AcDbLinetypeTableRecord
2
BYBLOCK
70
 64
3

72
 65
73
  0
40
0.0
0
LTYPE
5
1f6
100
AcDbSymbolTableRecord
100
AcDbLinetypeTableRecord
2
BYLAYER
70
 64
3

72
 65
73
  0
40
0.0
0
LTYPE
5
1f7
100
AcDbSymbolTableRecord
100
AcDbLinetypeTableRecord
2
CONTINUOUS
70
64
3
SolidLine
72
65
73
0
40
0.0
0
LTYPE
5
1f8
100
AcDbSymbolTableRecord
100
AcDbLinetypeTableRecord
2
DOT
70
64
3
--  --  --  --  --  --  --  --     
72
65
73
2
40
3.000
49
1.000
74
0
49
-2.000
74
0
0
LTYPE
5
1f9
100
AcDbSymbolTableRecord
100
AcDbLinetypeTableRecord
2
DASHED
70
64
3
----    ----    ----    ----    
72
65
73
2
40
5.000
49
2.000
74
0
49
-3.000
74
0
0
LTYPE
5
1fa
100
AcDbSymbolTableRecord
100
AcDbLinetypeTableRecord
2
DASHED2
70
64
3
------  ------  ------  ------ 
72
65
73
2
40
10.000
49
4.000
74
0
49
-6.000
74
0
0
LTYPE
5
1fb
100
AcDbSymbolTableRecord
100
AcDbLinetypeTableRecord
2
CENTER
70
64
3
----- - ----- - ----- - ----- - 
72
65
73
4
40
10.000
49
6.000
74
0
49
-3.000
74
0
49
1.000
74
0
49
-3.000
74
0
0
LTYPE
5
1fc
100
AcDbSymbolTableRecord
100
AcDbLinetypeTableRecord
2
CENTER2
70
64
3
----------  --  ----------  -- 
72
65
73
4
40
17.000
49
12.000
74
0
49
-5.000
74
0
49
2.000
74
0
49
-5.000
74
0
0
LTYPE
5
1fd
100
AcDbSymbolTableRecord
100
AcDbLinetypeTableRecord
2
PHANTOM
70
64
3
--- - - --- - - --- - - --- - -
72
65
73
6
40
13.000
49
5.000
74
0
49
-3.000
74
0
49
1.000
74
0
49
-3.000
74
0
49
1.000
74
0
49
-3.000
74
0
0
LTYPE
5
1fe
100
AcDbSymbolTableRecord
100
AcDbLinetypeTableRecord
2
PHANTOM2
70
64
3
--------  -  -  --------  -  -
72
65
73
6
40
20.000
49
6.000
74
0
49
-5.000
74
0
49
2.000
74
0
49
-5.000
74
0
49
2.000
74
0
49
-5.000
74
0
0
LTYPE
5
1ff
100
AcDbSymbolTableRecord
100
AcDbLinetypeTableRecord
2
HIDDEN
70
64
3
-   -   -   -   -   -   -   -   
72
65
73
2
40
3.000
49
0.500
74
0
49
-2.500
74
0
0
ENDTAB
0
TABLE
2
STYLE
5
200
100
AcDbSymbolTable
70
1
0
STYLE
5
201
100
AcDbSymbolTableRecord
100
AcDbTextStyleTableRecord
2
STANDARD
70
0
40
0.0
41
1.0
50
0.0
71
0
42
0.0
3
txt.shx
4
extfont.shx
0
STYLE
5
202
100
AcDbSymbolTableRecord
100
AcDbTextStyleTableRecord
2
TATEGAKI
70
4
40
0.0
41
1.0
50
0.0
71
0
42
0.0
3
txt.shx
4
extfont.shx
0
STYLE
5
203
100
AcDbSymbolTableRecord
100
AcDbTextStyleTableRecord
2
DIM
70
0
40
0.0
41
0.75
50
0.0
71
0
42
0.0
3
txt.shx
4
extfont.shx
0
STYLE
5
204
100
AcDbSymbolTableRecord
100
AcDbTextStyleTableRecord
2
_Gothic_
70
0
40
1.0
41
1.0
50
0.0
71
0
42
10.0
3

4

1001
ACAD
1000
MS Gothic
1071
32817
0
STYLE
5
205
100
AcDbSymbolTableRecord
100
AcDbTextStyleTableRecord
2
_TateGothic_
70
4
40
0.0
41
1.0
50
0.0
71
0
42
0.0
3
@MS Gothic
4

0
ENDTAB
0
TABLE
2
VIEW
5
206
100
AcDbSymbolTable
70
0
0
ENDTAB
0
TABLE
2
UCS
5
207
100
AcDbSymbolTable
70
0
0
ENDTAB
0
TABLE
2
APPID
5
208
100
AcDbSymbolTable
70
1
0
APPID
5
209
100
AcDbSymbolTableRecord
100
AcDbRegAppTableRecord
2
ACAD
70
0
0
ENDTAB
0
TABLE
2
DIMSTYLE
5
403
330
0
100
AcDbSymbolTable
70
1
100
AcDbDimStyleTable
71
0
0
DIMSTYLE
105
404
330
402
100
AcDbSymbolTableRecord
100
AcDbDimStyleTableRecord
2
JAC_DIM
70
0
41
2.000
42
0.000
44
0.0
73
0
74
0
77
1
78
8
79
2
140
0.000
170
0
171
2
172
0
173
0
174
0
175
0
176
0
177
0
178
0
270
2
271
0
272
0
273
2
274
2
340
201
275
0
280
0
281
0
282
0
283
0
284
0
285
0
286
0
287
3
288
0
0
ENDTAB
0
TABLE
2
BLOCK_RECORD
5
405
100
AcDbSymbolTable
70
0
0
BLOCK_RECORD
5
406
100
AcDbSymbolTableRecord
100
AcDbBlockTableRecord
2
*MODEL_SPACE
0
BLOCK_RECORD
5
407
100
AcDbSymbolTableRecord
100
AcDbBlockTableRecord
2
*PAPER_SPACE
0
BLOCK_RECORD
5
408
100
AcDbSymbolTableRecord
100
AcDbBlockTableRecord
2
_JACCONVERT_
0
ENDTAB
0
TABLE
2
LAYER
5
409
100
AcDbSymbolTable
70
10
0
LAYER
5
40a
100
AcDbSymbolTableRecord
100
AcDbLayerTableRecord
2
0
70
0
62
7
6
CONTINUOUS
370
-3
390
14
0
LAYER
5
40b
100
AcDbSymbolTableRecord
100
AcDbLayerTableRecord
2
0-00
70
0
62
7
6
CONTINUOUS
370
-3
390
14
0
LAYER
5
40c
100
AcDbSymbolTableRecord
100
AcDbLayerTableRecord
2
0-1_2_0
70
0
62
7
6
CONTINUOUS
370
-3
390
14
0
LAYER
5
40d
100
AcDbSymbolTableRecord
100
AcDbLayerTableRecord
2
0-2_2_1
70
0
62
7
6
CONTINUOUS
370
-3
390
14
0
LAYER
5
40e
100
AcDbSymbolTableRecord
100
AcDbLayerTableRecord
2
0-3_2_2
70
0
62
7
6
CONTINUOUS
370
-3
390
14
0
LAYER
5
40f
100
AcDbSymbolTableRecord
100
AcDbLayerTableRecord
2
F-0
70
0
62
7
6
CONTINUOUS
370
-3
390
14
0
LAYER
5
410
100
AcDbSymbolTableRecord
100
AcDbLayerTableRecord
2
F-E_J_ADD
70
0
62
-7
6
CONTINUOUS
290
0
370
-3
390
14
0
LAYER
5
411
100
AcDbSymbolTableRecord
100
AcDbLayerTableRecord
2
F-F
70
0
62
7
6
CONTINUOUS
370
-3
390
14
0
ENDTAB
0
ENDSEC
0
SECTION
2
BLOCKS
0
BLOCK
5
412
100
AcDbEntity
67
1
8
0
100
AcDbBlockBegin
2
*MODEL_SPACE
70
0
10
0.0
20
0.0
30
0.0
3
*MODEL_SPACE
1

0
ENDBLK
5
413
100
AcDbEntity
8
0
100
AcDbBlockEnd
0
BLOCK
5
414
100
AcDbEntity
67
1
8
0
100
AcDbBlockBegin
2
*PAPER_SPACE
70
0
10
0.0
20
0.0
30
0.0
3
*PAPER_SPACE
1

0
ENDBLK
5
415
100
AcDbEntity
67
1
8
0
100
AcDbBlockEnd
0
BLOCK
5
416
100
AcDbEntity
8
0
100
AcDbBlockBegin
2
_JACCONVERT_
70
2
10
0.0
20
0.0
30
0.0
3
_JACCONVERT_
1
_JACCONVERT_
0
ATTDEF
5
417
100
AcDbEntity
8
0
62
0
100
AcDbText
10
0.0
20
0.0
30
0.0
40
1.0
1
User:460950EB0890EC0964308A
100
AcDbAttributeDefinition
3

2
USER
70
8
0
ATTDEF
5
418
100
AcDbEntity
8
0
62
0
100
AcDbText
10
0.0
20
2.0
30
0.0
40
1.0
1
Date:15/06/06 14:04
100
AcDbAttributeDefinition
3

2
REVDATE
70
8
0
ATTDEF
5
419
100
AcDbEntity
8
0
62
0
100
AcDbText
10
0.0
20
4.0
30
0.0
40
1.0
1
File:芯木無し瓦棒葺418　断面図.dxf
100
AcDbAttributeDefinition
3

2
FNAME
70
8
0
ATTDEF
5
41a
100
AcDbEntity
8
0
62
0
100
AcDbText
10
0.0
20
6.0
30
0.0
40
1.0
1
JacConvert Version3.09 copyright (c) 2001-2013 K.Nakahara
100
AcDbAttributeDefinition
3

2
VER
70
8
0
ENDBLK
5
41b
100
AcDbEntity
67
1
8
0
100
AcDbBlockEnd
0
ENDSEC
0
SECTION
2
ENTITIES
0
LINE
5
41c
100
AcDbEntity
8
F-0
6
CONTINUOUS
62
2
100
AcDbLine
10
27.380000000000
20
11.820000000000
30
0.0
11
27.380000000000
21
571.820000000000
31
0.0
0
LINE
5
41d
100
AcDbEntity
8
F-0
6
CONTINUOUS
62
2
100
AcDbLine
10
642.380000000000
20
41.450000000000
30
0.0
11
642.380000000000
21
11.820000000000
31
0.0
0
LINE
5
41e
100
AcDbEntity
8
F-0
6
CONTINUOUS
62
2
100
AcDbLine
10
607.270000000000
20
41.450000000000
30
0.0
11
607.270000000000
21
11.820000000000
31
0.0
0
LINE
5
41f
100
AcDbEntity
8
F-0
6
CONTINUOUS
62
2
100
AcDbLine
10
768.560000000000
20
11.820000000000
30
0.0
11
768.560000000000
21
41.450000000000
31
0.0
0
LINE
5
420
100
AcDbEntity
8
F-0
6
CONTINUOUS
62
2
100
AcDbLine
10
403.450000000000
20
41.450000000000
30
0.0
11
403.450000000000
21
11.820000000000
31
0.0
0
LINE
5
421
100
AcDbEntity
8
F-0
6
CONTINUOUS
62
2
100
AcDbLine
10
504.870000000000
20
41.450000000000
30
0.0
11
504.870000000000
21
11.820000000000
31
0.0
0
LINE
5
422
100
AcDbEntity
8
F-0
6
CONTINUOUS
62
2
100
AcDbLine
10
403.450000000000
20
31.570000000000
30
0.0
11
184.880000000000
21
31.570000000000
31
0.0
0
LINE
5
423
100
AcDbEntity
8
F-0
6
CONTINUOUS
62
2
100
AcDbLine
10
403.450000000000
20
21.690000000000
30
0.0
11
184.880000000000
21
21.690000000000
31
0.0
0
LINE
5
424
100
AcDbEntity
8
F-0
6
CONTINUOUS
62
2
100
AcDbLine
10
403.450000000000
20
16.760000000000
30
0.0
11
184.880000000000
21
16.760000000000
31
0.0
0
LINE
5
425
100
AcDbEntity
8
F-0
6
CONTINUOUS
62
2
100
AcDbLine
10
403.450000000000
20
36.510000000000
30
0.0
11
184.880000000000
21
36.510000000000
31
0.0
0
LINE
5
426
100
AcDbEntity
8
F-0
6
CONTINUOUS
62
2
100
AcDbLine
10
211.210000000000
20
41.450000000000
30
0.0
11
211.210000000000
21
11.820000000000
31
0.0
0
LINE
5
427
100
AcDbEntity
8
F-0
6
CONTINUOUS
62
2
100
AcDbLine
10
184.880000000000
20
41.450000000000
30
0.0
11
184.880000000000
21
11.820000000000
31
0.0
0
LINE
5
428
100
AcDbEntity
8
F-0
6
CONTINUOUS
62
2
100
AcDbLine
10
815.820000000000
20
11.820000000000
30
0.0
11
815.820000000000
21
571.820000000000
31
0.0
0
LINE
5
429
100
AcDbEntity
8
F-0
6
CONTINUOUS
62
2
100
AcDbLine
10
27.380000000000
20
571.820000000000
30
0.0
11
815.820000000000
21
571.820000000000
31
0.0
0
LINE
5
42a
100
AcDbEntity
8
F-0
6
CONTINUOUS
62
2
100
AcDbLine
10
27.380000000000
20
11.820000000000
30
0.0
11
815.820000000000
21
11.820000000000
31
0.0
0
LINE
5
42b
100
AcDbEntity
8
F-0
6
CONTINUOUS
62
2
100
AcDbLine
10
815.820000000000
20
41.450000000000
30
0.0
11
27.380000000000
21
41.450000000000
31
0.0
0
LINE
5
42c
100
AcDbEntity
8
F-0
6
CONTINUOUS
62
2
100
AcDbLine
10
184.880000000000
20
26.630000000000
30
0.0
11
815.820000000000
21
26.630000000000
31
0.0
0
LINE
5
42d
100
AcDbEntity
8
0-2_2_1
6
CONTINUOUS
62
7
100
AcDbLine
10
79.250000000000
20
177.090000000000
30
0.0
11
78.750000000000
21
177.090000000000
31
0.0
0
LINE
5
42e
100
AcDbEntity
8
0-2_2_1
6
CONTINUOUS
62
7
100
AcDbLine
10
80.750000000000
20
186.090000000000
30
0.0
11
80.750000000000
21
185.590000000000
31
0.0
0
LINE
5
42f
100
AcDbEntity
8
0-2_2_1
6
CONTINUOUS
62
7
100
AcDbLine
10
80.750000000000
20
185.090000000000
30
0.0
11
80.750000000000
21
184.590000000000
31
0.0
0
LINE
5
430
100
AcDbEntity
8
0-2_2_1
6
CONTINUOUS
62
7
100
AcDbLine
10
91.250000000000
20
184.590000000000
30
0.0
11
80.750000000000
21
184.590000000000
31
0.0
0
LINE
5
431
100
AcDbEntity
8
0-2_2_1
6
CONTINUOUS
62
7
100
AcDbLine
10
80.750000000000
20
185.090000000000
30
0.0
11
91.250000000000
21
185.090000000000
31
0.0
0
LINE
5
432
100
AcDbEntity
8
0-2_2_1
6
CONTINUOUS
62
7
100
AcDbLine
10
91.750000000000
20
157.090000000000
30
0.0
11
91.750000000000
21
184.090000000000
31
0.0
0
LINE
5
433
100
AcDbEntity
8
0-2_2_1
6
CONTINUOUS
62
7
100
AcDbLine
10
92.250000000000
20
184.090000000000
30
0.0
11
92.250000000000
21
157.090000000000
31
0.0
0
LINE
5
434
100
AcDbEntity
8
0-2_2_1
6
CONTINUOUS
62
7
100
AcDbLine
10
92.250000000000
20
185.590000000000
30
0.0
11
80.750000000000
21
185.590000000000
31
0.0
0
LINE
5
435
100
AcDbEntity
8
0-2_2_1
6
CONTINUOUS
62
7
100
AcDbLine
10
93.750000000000
20
156.590000000000
30
0.0
11
109.750000000000
21
156.590000000000
31
0.0
0
LINE
5
436
100
AcDbEntity
8
0-2_2_1
6
CONTINUOUS
62
7
100
AcDbLine
10
80.750000000000
20
186.090000000000
30
0.0
11
92.250000000000
21
186.090000000000
31
0.0
0
LINE
5
437
100
AcDbEntity
8
0-2_2_1
6
CONTINUOUS
62
7
100
AcDbLine
10
93.250000000000
20
157.090000000000
30
0.0
11
93.250000000000
21
185.090000000000
31
0.0
0
LINE
5
438
100
AcDbEntity
8
0-2_2_1
6
CONTINUOUS
62
7
100
AcDbLine
10
93.750000000000
20
156.090000000000
30
0.0
11
109.750000000000
21
156.090000000000
31
0.0
0
LINE
5
439
100
AcDbEntity
8
0-2_2_1
6
CONTINUOUS
62
7
100
AcDbLine
10
92.750000000000
20
185.090000000000
30
0.0
11
92.750000000000
21
157.090000000000
31
0.0
0
LINE
5
43a
100
AcDbEntity
8
0-2_2_1
6
CONTINUOUS
62
7
100
AcDbLine
10
93.250000000000
20
186.590000000000
30
0.0
11
79.750000000000
21
186.590000000000
31
0.0
0
LINE
5
43b
100
AcDbEntity
8
0-2_2_1
6
CONTINUOUS
62
7
100
AcDbLine
10
94.750000000000
20
177.090000000000
30
0.0
11
109.750000000000
21
177.090000000000
31
0.0
0
LINE
5
43c
100
AcDbEntity
8
0-2_2_1
6
CONTINUOUS
62
7
100
AcDbLine
10
79.750000000000
20
187.090000000000
30
0.0
11
93.250000000000
21
187.090000000000
31
0.0
0
LINE
5
43d
100
AcDbEntity
8
0-2_2_1
6
CONTINUOUS
62
7
100
AcDbLine
10
94.250000000000
20
177.590000000000
30
0.0
11
94.250000000000
21
186.090000000000
31
0.0
0
LINE
5
43e
100
AcDbEntity
8
0-2_2_1
6
CONTINUOUS
62
7
100
AcDbLine
10
93.750000000000
20
186.090000000000
30
0.0
11
93.750000000000
21
177.590000000000
31
0.0
0
LINE
5
43f
100
AcDbEntity
8
0-2_2_1
6
CONTINUOUS
62
7
100
AcDbLine
10
94.750000000000
20
176.590000000000
30
0.0
11
109.750000000000
21
176.590000000000
31
0.0
0
LINE
5
440
100
AcDbEntity
8
0-2_2_1
6
CONTINUOUS
62
7
100
AcDbLine
10
78.750000000000
20
186.090000000000
30
0.0
11
78.750000000000
21
177.090000000000
31
0.0
0
LINE
5
441
100
AcDbEntity
8
0-2_2_1
6
CONTINUOUS
62
7
100
AcDbLine
10
79.250000000000
20
186.090000000000
30
0.0
11
79.250000000000
21
177.090000000000
31
0.0
0
LINE
5
442
100
AcDbEntity
8
0-2_2_1
6
CONTINUOUS
62
7
100
AcDbLine
10
91.250000000000
20
156.590000000000
30
0.0
11
64.750000000000
21
156.590000000000
31
0.0
0
LINE
5
443
100
AcDbEntity
8
0-2_2_1
6
CONTINUOUS
62
7
100
AcDbLine
10
91.250000000000
20
156.090000000000
30
0.0
11
64.750000000000
21
156.090000000000
31
0.0
0
LINE
5
444
100
AcDbEntity
8
0-2_2_1
6
CONTINUOUS
62
7
100
AcDbLine
10
170.750000000000
20
186.090000000000
30
0.0
11
170.750000000000
21
185.590000000000
31
0.0
0
LINE
5
445
100
AcDbEntity
8
0-2_2_1
6
CONTINUOUS
62
7
100
AcDbLine
10
170.750000000000
20
185.090000000000
30
0.0
11
170.750000000000
21
184.590000000000
31
0.0
0
LINE
5
446
100
AcDbEntity
8
0-2_2_1
6
CONTINUOUS
62
7
100
AcDbLine
10
181.250000000000
20
184.590000000000
30
0.0
11
170.750000000000
21
184.590000000000
31
0.0
0
LINE
5
447
100
AcDbEntity
8
0-2_2_1
6
CONTINUOUS
62
7
100
AcDbLine
10
170.750000000000
20
185.090000000000
30
0.0
11
181.250000000000
21
185.090000000000
31
0.0
0
LINE
5
448
100
AcDbEntity
8
0-2_2_1
6
CONTINUOUS
62
7
100
AcDbLine
10
181.750000000000
20
157.090000000000
30
0.0
11
181.750000000000
21
184.090000000000
31
0.0
0
LINE
5
449
100
AcDbEntity
8
0-2_2_1
6
CONTINUOUS
62
7
100
AcDbLine
10
182.250000000000
20
184.090000000000
30
0.0
11
182.250000000000
21
157.090000000000
31
0.0
0
LINE
5
44a
100
AcDbEntity
8
0-2_2_1
6
CONTINUOUS
62
7
100
AcDbLine
10
182.250000000000
20
185.590000000000
30
0.0
11
170.750000000000
21
185.590000000000
31
0.0
0
LINE
5
44b
100
AcDbEntity
8
0-2_2_1
6
CONTINUOUS
62
7
100
AcDbLine
10
183.750000000000
20
156.590000000000
30
0.0
11
199.750000000000
21
156.590000000000
31
0.0
0
LINE
5
44c
100
AcDbEntity
8
0-2_2_1
6
CONTINUOUS
62
7
100
AcDbLine
10
170.750000000000
20
186.090000000000
30
0.0
11
182.250000000000
21
186.090000000000
31
0.0
0
LINE
5
44d
100
AcDbEntity
8
0-2_2_1
6
CONTINUOUS
62
7
100
AcDbLine
10
183.250000000000
20
157.090000000000
30
0.0
11
183.250000000000
21
185.090000000000
31
0.0
0
LINE
5
44e
100
AcDbEntity
8
0-2_2_1
6
CONTINUOUS
62
7
100
AcDbLine
10
183.750000000000
20
156.090000000000
30
0.0
11
199.750000000000
21
156.090000000000
31
0.0
0
LINE
5
44f
100
AcDbEntity
8
0-2_2_1
6
CONTINUOUS
62
7
100
AcDbLine
10
182.750000000000
20
185.090000000000
30
0.0
11
182.750000000000
21
157.090000000000
31
0.0
0
LINE
5
450
100
AcDbEntity
8
0-2_2_1
6
CONTINUOUS
62
7
100
AcDbLine
10
184.750000000000
20
177.090000000000
30
0.0
11
199.750000000000
21
177.090000000000
31
0.0
0
LINE
5
451
100
AcDbEntity
8
0-2_2_1
6
CONTINUOUS
62
7
100
AcDbLine
10
184.250000000000
20
177.590000000000
30
0.0
11
184.250000000000
21
186.090000000000
31
0.0
0
LINE
5
452
100
AcDbEntity
8
0-2_2_1
6
CONTINUOUS
62
7
100
AcDbLine
10
183.750000000000
20
186.090000000000
30
0.0
11
183.750000000000
21
177.590000000000
31
0.0
0
LINE
5
453
100
AcDbEntity
8
0-2_2_1
6
CONTINUOUS
62
7
100
AcDbLine
10
184.750000000000
20
176.590000000000
30
0.0
11
199.750000000000
21
176.590000000000
31
0.0
0
LINE
5
454
100
AcDbEntity
8
0-2_2_1
6
CONTINUOUS
62
7
100
AcDbLine
10
181.250000000000
20
156.590000000000
30
0.0
11
154.750000000000
21
156.590000000000
31
0.0
0
LINE
5
455
100
AcDbEntity
8
0-2_2_1
6
CONTINUOUS
62
7
100
AcDbLine
10
181.250000000000
20
156.090000000000
30
0.0
11
154.750000000000
21
156.090000000000
31
0.0
0
LINE
5
456
100
AcDbEntity
8
0-2_2_1
6
CONTINUOUS
62
7
100
AcDbLine
10
178.110000000000
20
184.090000000000
30
0.0
11
170.750000000000
21
184.090000000000
31
0.0
0
LINE
5
457
100
AcDbEntity
8
0-2_2_1
6
CONTINUOUS
62
7
100
AcDbLine
10
178.110000000000
20
183.590000000000
30
0.0
11
178.110000000000
21
184.090000000000
31
0.0
0
LINE
5
458
100
AcDbEntity
8
0-2_2_1
6
CONTINUOUS
62
7
100
AcDbLine
10
178.110000000000
20
183.590000000000
30
0.0
11
170.750000000000
21
183.590000000000
31
0.0
0
LINE
5
459
100
AcDbEntity
8
0-2_2_1
6
CONTINUOUS
62
7
100
AcDbLine
10
170.750000000000
20
187.090000000000
30
0.0
11
183.250000000000
21
187.090000000000
31
0.0
0
LINE
5
45a
100
AcDbEntity
8
0-2_2_1
6
CONTINUOUS
62
7
100
AcDbLine
10
183.250000000000
20
186.590000000000
30
0.0
11
170.750000000000
21
186.590000000000
31
0.0
0
LINE
5
45b
100
AcDbEntity
8
0-2_2_1
6
CONTINUOUS
62
7
100
AcDbLine
10
273.750000000000
20
156.590000000000
30
0.0
11
289.750000000000
21
156.590000000000
31
0.0
0
LINE
5
45c
100
AcDbEntity
8
0-2_2_1
6
CONTINUOUS
62
7
100
AcDbLine
10
273.750000000000
20
156.090000000000
30
0.0
11
289.750000000000
21
156.090000000000
31
0.0
0
LINE
5
45d
100
AcDbEntity
8
0-2_2_1
6
CONTINUOUS
62
7
100
AcDbLine
10
274.750000000000
20
177.090000000000
30
0.0
11
289.750000000000
21
177.090000000000
31
0.0
0
LINE
5
45e
100
AcDbEntity
8
0-2_2_1
6
CONTINUOUS
62
7
100
AcDbLine
10
274.750000000000
20
176.590000000000
30
0.0
11
289.750000000000
21
176.590000000000
31
0.0
0
LINE
5
45f
100
AcDbEntity
8
0-2_2_1
6
CONTINUOUS
62
7
100
AcDbLine
10
271.250000000000
20
156.590000000000
30
0.0
11
244.750000000000
21
156.590000000000
31
0.0
0
LINE
5
460
100
AcDbEntity
8
0-2_2_1
6
CONTINUOUS
62
7
100
AcDbLine
10
271.250000000000
20
156.090000000000
30
0.0
11
244.750000000000
21
156.090000000000
31
0.0
0
LINE
5
461
100
AcDbEntity
8
0-2_2_1
6
CONTINUOUS
62
7
100
AcDbLine
10
268.750000000000
20
173.330000000000
30
0.0
11
269.250000000000
21
173.330000000000
31
0.0
0
LINE
5
462
100
AcDbEntity
8
0-2_2_1
6
CONTINUOUS
62
7
100
AcDbLine
10
269.750000000000
20
173.330000000000
30
0.0
11
270.250000000000
21
173.330000000000
31
0.0
0
LINE
5
463
100
AcDbEntity
8
0-2_2_1
6
CONTINUOUS
62
7
100
AcDbLine
10
270.750000000000
20
180.690000000000
30
0.0
11
270.750000000000
21
173.330000000000
31
0.0
0
LINE
5
464
100
AcDbEntity
8
0-2_2_1
6
CONTINUOUS
62
7
100
AcDbLine
10
271.250000000000
20
180.690000000000
30
0.0
11
270.750000000000
21
180.690000000000
31
0.0
0
LINE
5
465
100
AcDbEntity
8
0-2_2_1
6
CONTINUOUS
62
7
100
AcDbLine
10
271.250000000000
20
180.690000000000
30
0.0
11
271.250000000000
21
173.330000000000
31
0.0
0
LINE
5
466
100
AcDbEntity
8
0-2_2_1
6
CONTINUOUS
62
7
100
AcDbLine
10
273.750000000000
20
184.590000000000
30
0.0
11
273.750000000000
21
177.590000000000
31
0.0
0
LINE
5
467
100
AcDbEntity
8
0-2_2_1
6
CONTINUOUS
62
7
100
AcDbLine
10
271.750000000000
20
186.590000000000
30
0.0
11
271.000000000000
21
186.590000000000
31
0.0
0
LINE
5
468
100
AcDbEntity
8
0-2_2_1
6
CONTINUOUS
62
7
100
AcDbLine
10
271.000000000000
20
187.090000000000
30
0.0
11
271.750000000000
21
187.090000000000
31
0.0
0
LINE
5
469
100
AcDbEntity
8
0-2_2_1
6
CONTINUOUS
62
7
100
AcDbLine
10
274.250000000000
20
177.590000000000
30
0.0
11
274.250000000000
21
184.590000000000
31
0.0
0
LINE
5
46a
100
AcDbEntity
8
0-2_2_1
6
CONTINUOUS
62
7
100
AcDbLine
10
270.250000000000
20
186.590000000000
30
0.0
11
271.000000000000
21
186.590000000000
31
0.0
0
LINE
5
46b
100
AcDbEntity
8
0-2_2_1
6
CONTINUOUS
62
7
100
AcDbLine
10
271.000000000000
20
187.090000000000
30
0.0
11
270.250000000000
21
187.090000000000
31
0.0
0
LINE
5
46c
100
AcDbEntity
8
0-2_2_1
6
CONTINUOUS
62
7
100
AcDbLine
10
268.250000000000
20
184.590000000000
30
0.0
11
268.250000000000
21
173.330000000000
31
0.0
0
LINE
5
46d
100
AcDbEntity
8
0-2_2_1
6
CONTINUOUS
62
7
100
AcDbLine
10
267.750000000000
20
173.330000000000
30
0.0
11
267.750000000000
21
184.590000000000
31
0.0
0
LINE
5
46e
100
AcDbEntity
8
0-2_2_1
6
CONTINUOUS
62
7
100
AcDbLine
10
273.250000000000
20
157.090000000000
30
0.0
11
273.250000000000
21
184.590000000000
31
0.0
0
LINE
5
46f
100
AcDbEntity
8
0-2_2_1
6
CONTINUOUS
62
7
100
AcDbLine
10
272.750000000000
20
184.590000000000
30
0.0
11
272.750000000000
21
157.090000000000
31
0.0
0
LINE
5
470
100
AcDbEntity
8
0-2_2_1
6
CONTINUOUS
62
7
100
AcDbLine
10
271.750000000000
20
185.590000000000
30
0.0
11
271.000000000000
21
185.590000000000
31
0.0
0
LINE
5
471
100
AcDbEntity
8
0-2_2_1
6
CONTINUOUS
62
7
100
AcDbLine
10
271.750000000000
20
186.090000000000
30
0.0
11
271.000000000000
21
186.090000000000
31
0.0
0
LINE
5
472
100
AcDbEntity
8
0-2_2_1
6
CONTINUOUS
62
7
100
AcDbLine
10
270.250000000000
20
185.590000000000
30
0.0
11
271.000000000000
21
185.590000000000
31
0.0
0
LINE
5
473
100
AcDbEntity
8
0-2_2_1
6
CONTINUOUS
62
7
100
AcDbLine
10
270.250000000000
20
186.090000000000
30
0.0
11
271.000000000000
21
186.090000000000
31
0.0
0
LINE
5
474
100
AcDbEntity
8
0-2_2_1
6
CONTINUOUS
62
7
100
AcDbLine
10
268.750000000000
20
173.330000000000
30
0.0
11
268.750000000000
21
184.590000000000
31
0.0
0
LINE
5
475
100
AcDbEntity
8
0-2_2_1
6
CONTINUOUS
62
7
100
AcDbLine
10
269.250000000000
20
184.590000000000
30
0.0
11
269.250000000000
21
173.330000000000
31
0.0
0
LINE
5
476
100
AcDbEntity
8
0-2_2_1
6
CONTINUOUS
62
7
100
AcDbLine
10
270.250000000000
20
184.590000000000
30
0.0
11
271.000000000000
21
184.590000000000
31
0.0
0
LINE
5
477
100
AcDbEntity
8
0-2_2_1
6
CONTINUOUS
62
7
100
AcDbLine
10
270.250000000000
20
184.590000000000
30
0.0
11
270.250000000000
21
173.330000000000
31
0.0
0
LINE
5
478
100
AcDbEntity
8
0-2_2_1
6
CONTINUOUS
62
7
100
AcDbLine
10
269.750000000000
20
173.330000000000
30
0.0
11
269.750000000000
21
184.590000000000
31
0.0
0
LINE
5
479
100
AcDbEntity
8
0-2_2_1
6
CONTINUOUS
62
7
100
AcDbLine
10
270.250000000000
20
185.090000000000
30
0.0
11
271.000000000000
21
185.090000000000
31
0.0
0
LINE
5
47a
100
AcDbEntity
8
0-2_2_1
6
CONTINUOUS
62
7
100
AcDbLine
10
271.750000000000
20
184.590000000000
30
0.0
11
271.000000000000
21
184.590000000000
31
0.0
0
LINE
5
47b
100
AcDbEntity
8
0-2_2_1
6
CONTINUOUS
62
7
100
AcDbLine
10
271.750000000000
20
185.090000000000
30
0.0
11
271.000000000000
21
185.090000000000
31
0.0
0
LINE
5
47c
100
AcDbEntity
8
0-2_2_1
6
CONTINUOUS
62
7
100
AcDbLine
10
271.750000000000
20
157.090000000000
30
0.0
11
271.750000000000
21
184.590000000000
31
0.0
0
LINE
5
47d
100
AcDbEntity
8
0-2_2_1
6
CONTINUOUS
62
7
100
AcDbLine
10
272.250000000000
20
184.590000000000
30
0.0
11
272.250000000000
21
157.090000000000
31
0.0
0
LINE
5
47e
100
AcDbEntity
8
0-2_2_1
6
CONTINUOUS
62
7
100
AcDbLine
10
140.250000000000
20
177.090000000000
30
0.0
11
140.750000000000
21
177.090000000000
31
0.0
0
LINE
5
47f
100
AcDbEntity
8
0-2_2_1
6
CONTINUOUS
62
7
100
AcDbLine
10
138.750000000000
20
186.090000000000
30
0.0
11
138.750000000000
21
185.590000000000
31
0.0
0
LINE
5
480
100
AcDbEntity
8
0-2_2_1
6
CONTINUOUS
62
7
100
AcDbLine
10
138.750000000000
20
185.090000000000
30
0.0
11
138.750000000000
21
184.590000000000
31
0.0
0
LINE
5
481
100
AcDbEntity
8
0-2_2_1
6
CONTINUOUS
62
7
100
AcDbLine
10
128.250000000000
20
184.590000000000
30
0.0
11
138.750000000000
21
184.590000000000
31
0.0
0
LINE
5
482
100
AcDbEntity
8
0-2_2_1
6
CONTINUOUS
62
7
100
AcDbLine
10
138.750000000000
20
185.090000000000
30
0.0
11
128.250000000000
21
185.090000000000
31
0.0
0
LINE
5
483
100
AcDbEntity
8
0-2_2_1
6
CONTINUOUS
62
7
100
AcDbLine
10
127.750000000000
20
157.090000000000
30
0.0
11
127.750000000000
21
184.090000000000
31
0.0
0
LINE
5
484
100
AcDbEntity
8
0-2_2_1
6
CONTINUOUS
62
7
100
AcDbLine
10
127.250000000000
20
184.090000000000
30
0.0
11
127.250000000000
21
157.090000000000
31
0.0
0
LINE
5
485
100
AcDbEntity
8
0-2_2_1
6
CONTINUOUS
62
7
100
AcDbLine
10
127.250000000000
20
185.590000000000
30
0.0
11
138.750000000000
21
185.590000000000
31
0.0
0
LINE
5
486
100
AcDbEntity
8
0-2_2_1
6
CONTINUOUS
62
7
100
AcDbLine
10
125.750000000000
20
156.590000000000
30
0.0
11
109.750000000000
21
156.590000000000
31
0.0
0
LINE
5
487
100
AcDbEntity
8
0-2_2_1
6
CONTINUOUS
62
7
100
AcDbLine
10
138.750000000000
20
186.090000000000
30
0.0
11
127.250000000000
21
186.090000000000
31
0.0
0
LINE
5
488
100
AcDbEntity
8
0-2_2_1
6
CONTINUOUS
62
7
100
AcDbLine
10
126.250000000000
20
157.090000000000
30
0.0
11
126.250000000000
21
185.090000000000
31
0.0
0
LINE
5
489
100
AcDbEntity
8
0-2_2_1
6
CONTINUOUS
62
7
100
AcDbLine
10
125.750000000000
20
156.090000000000
30
0.0
11
109.750000000000
21
156.090000000000
31
0.0
0
LINE
5
48a
100
AcDbEntity
8
0-2_2_1
6
CONTINUOUS
62
7
100
AcDbLine
10
126.750000000000
20
185.090000000000
30
0.0
11
126.750000000000
21
157.090000000000
31
0.0
0
LINE
5
48b
100
AcDbEntity
8
0-2_2_1
6
CONTINUOUS
62
7
100
AcDbLine
10
126.250000000000
20
186.590000000000
30
0.0
11
139.750000000000
21
186.590000000000
31
0.0
0
LINE
5
48c
100
AcDbEntity
8
0-2_2_1
6
CONTINUOUS
62
7
100
AcDbLine
10
124.750000000000
20
177.090000000000
30
0.0
11
109.750000000000
21
177.090000000000
31
0.0
0
LINE
5
48d
100
AcDbEntity
8
0-2_2_1
6
CONTINUOUS
62
7
100
AcDbLine
10
139.750000000000
20
187.090000000000
30
0.0
11
126.250000000000
21
187.090000000000
31
0.0
0
LINE
5
48e
100
AcDbEntity
8
0-2_2_1
6
CONTINUOUS
62
7
100
AcDbLine
10
125.250000000000
20
177.590000000000
30
0.0
11
125.250000000000
21
186.090000000000
31
0.0
0
LINE
5
48f
100
AcDbEntity
8
0-2_2_1
6
CONTINUOUS
62
7
100
AcDbLine
10
125.750000000000
20
186.090000000000
30
0.0
11
125.750000000000
21
177.590000000000
31
0.0
0
LINE
5
490
100
AcDbEntity
8
0-2_2_1
6
CONTINUOUS
62
7
100
AcDbLine
10
124.750000000000
20
176.590000000000
30
0.0
11
109.750000000000
21
176.590000000000
31
0.0
0
LINE
5
491
100
AcDbEntity
8
0-2_2_1
6
CONTINUOUS
62
7
100
AcDbLine
10
140.750000000000
20
186.090000000000
30
0.0
11
140.750000000000
21
177.090000000000
31
0.0
0
LINE
5
492
100
AcDbEntity
8
0-2_2_1
6
CONTINUOUS
62
7
100
AcDbLine
10
140.250000000000
20
186.090000000000
30
0.0
11
140.250000000000
21
177.090000000000
31
0.0
0
LINE
5
493
100
AcDbEntity
8
0-2_2_1
6
CONTINUOUS
62
7
100
AcDbLine
10
128.250000000000
20
156.590000000000
30
0.0
11
154.750000000000
21
156.590000000000
31
0.0
0
LINE
5
494
100
AcDbEntity
8
0-2_2_1
6
CONTINUOUS
62
7
100
AcDbLine
10
128.250000000000
20
156.090000000000
30
0.0
11
154.750000000000
21
156.090000000000
31
0.0
0
LINE
5
495
100
AcDbEntity
8
0-2_2_1
6
CONTINUOUS
62
7
100
AcDbLine
10
228.750000000000
20
186.090000000000
30
0.0
11
228.750000000000
21
185.590000000000
31
0.0
0
LINE
5
496
100
AcDbEntity
8
0-2_2_1
6
CONTINUOUS
62
7
100
AcDbLine
10
228.750000000000
20
185.090000000000
30
0.0
11
228.750000000000
21
184.590000000000
31
0.0
0
LINE
5
497
100
AcDbEntity
8
0-2_2_1
6
CONTINUOUS
62
7
100
AcDbLine
10
218.250000000000
20
184.590000000000
30
0.0
11
228.750000000000
21
184.590000000000
31
0.0
0
LINE
5
498
100
AcDbEntity
8
0-2_2_1
6
CONTINUOUS
62
7
100
AcDbLine
10
228.750000000000
20
185.090000000000
30
0.0
11
218.250000000000
21
185.090000000000
31
0.0
0
LINE
5
499
100
AcDbEntity
8
0-2_2_1
6
CONTINUOUS
62
7
100
AcDbLine
10
217.750000000000
20
157.090000000000
30
0.0
11
217.750000000000
21
184.090000000000
31
0.0
0
LINE
5
49a
100
AcDbEntity
8
0-2_2_1
6
CONTINUOUS
62
7
100
AcDbLine
10
217.250000000000
20
184.090000000000
30
0.0
11
217.250000000000
21
157.090000000000
31
0.0
0
LINE
5
49b
100
AcDbEntity
8
0-2_2_1
6
CONTINUOUS
62
7
100
AcDbLine
10
217.250000000000
20
185.590000000000
30
0.0
11
228.750000000000
21
185.590000000000
31
0.0
0
LINE
5
49c
100
AcDbEntity
8
0-2_2_1
6
CONTINUOUS
62
7
100
AcDbLine
10
215.750000000000
20
156.590000000000
30
0.0
11
199.750000000000
21
156.590000000000
31
0.0
0
LINE
5
49d
100
AcDbEntity
8
0-2_2_1
6
CONTINUOUS
62
7
100
AcDbLine
10
228.750000000000
20
186.090000000000
30
0.0
11
217.250000000000
21
186.090000000000
31
0.0
0
LINE
5
49e
100
AcDbEntity
8
0-2_2_1
6
CONTINUOUS
62
7
100
AcDbLine
10
216.250000000000
20
157.090000000000
30
0.0
11
216.250000000000
21
185.090000000000
31
0.0
0
LINE
5
49f
100
AcDbEntity
8
0-2_2_1
6
CONTINUOUS
62
7
100
AcDbLine
10
215.750000000000
20
156.090000000000
30
0.0
11
199.750000000000
21
156.090000000000
31
0.0
0
LINE
5
4a0
100
AcDbEntity
8
0-2_2_1
6
CONTINUOUS
62
7
100
AcDbLine
10
216.750000000000
20
185.090000000000
30
0.0
11
216.750000000000
21
157.090000000000
31
0.0
0
LINE
5
4a1
100
AcDbEntity
8
0-2_2_1
6
CONTINUOUS
62
7
100
AcDbLine
10
214.750000000000
20
177.090000000000
30
0.0
11
199.750000000000
21
177.090000000000
31
0.0
0
LINE
5
4a2
100
AcDbEntity
8
0-2_2_1
6
CONTINUOUS
62
7
100
AcDbLine
10
215.250000000000
20
177.590000000000
30
0.0
11
215.250000000000
21
186.090000000000
31
0.0
0
LINE
5
4a3
100
AcDbEntity
8
0-2_2_1
6
CONTINUOUS
62
7
100
AcDbLine
10
215.750000000000
20
186.090000000000
30
0.0
11
215.750000000000
21
177.590000000000
31
0.0
0
LINE
5
4a4
100
AcDbEntity
8
0-2_2_1
6
CONTINUOUS
62
7
100
AcDbLine
10
214.750000000000
20
176.590000000000
30
0.0
11
199.750000000000
21
176.590000000000
31
0.0
0
LINE
5
4a5
100
AcDbEntity
8
0-2_2_1
6
CONTINUOUS
62
7
100
AcDbLine
10
218.250000000000
20
156.590000000000
30
0.0
11
244.750000000000
21
156.590000000000
31
0.0
0
LINE
5
4a6
100
AcDbEntity
8
0-2_2_1
6
CONTINUOUS
62
7
100
AcDbLine
10
218.250000000000
20
156.090000000000
30
0.0
11
244.750000000000
21
156.090000000000
31
0.0
0
LINE
5
4a7
100
AcDbEntity
8
0-2_2_1
6
CONTINUOUS
62
7
100
AcDbLine
10
221.380000000000
20
184.090000000000
30
0.0
11
228.750000000000
21
184.090000000000
31
0.0
0
LINE
5
4a8
100
AcDbEntity
8
0-2_2_1
6
CONTINUOUS
62
7
100
AcDbLine
10
221.380000000000
20
183.590000000000
30
0.0
11
221.380000000000
21
184.090000000000
31
0.0
0
LINE
5
4a9
100
AcDbEntity
8
0-2_2_1
6
CONTINUOUS
62
7
100
AcDbLine
10
221.380000000000
20
183.590000000000
30
0.0
11
228.750000000000
21
183.590000000000
31
0.0
0
LINE
5
4aa
100
AcDbEntity
8
0-2_2_1
6
CONTINUOUS
62
7
100
AcDbLine
10
228.750000000000
20
187.090000000000
30
0.0
11
216.250000000000
21
187.090000000000
31
0.0
0
LINE
5
4ab
100
AcDbEntity
8
0-2_2_1
6
CONTINUOUS
62
7
100
AcDbLine
10
216.250000000000
20
186.590000000000
30
0.0
11
228.750000000000
21
186.590000000000
31
0.0
0
LINE
5
4ac
100
AcDbEntity
8
0-2_2_1
6
CONTINUOUS
62
7
100
AcDbLine
10
305.750000000000
20
156.590000000000
30
0.0
11
289.750000000000
21
156.590000000000
31
0.0
0
LINE
5
4ad
100
AcDbEntity
8
0-2_2_1
6
CONTINUOUS
62
7
100
AcDbLine
10
305.750000000000
20
156.090000000000
30
0.0
11
289.750000000000
21
156.090000000000
31
0.0
0
LINE
5
4ae
100
AcDbEntity
8
0-2_2_1
6
CONTINUOUS
62
7
100
AcDbLine
10
304.750000000000
20
177.090000000000
30
0.0
11
289.750000000000
21
177.090000000000
31
0.0
0
LINE
5
4af
100
AcDbEntity
8
0-2_2_1
6
CONTINUOUS
62
7
100
AcDbLine
10
304.750000000000
20
176.590000000000
30
0.0
11
289.750000000000
21
176.590000000000
31
0.0
0
LINE
5
4b0
100
AcDbEntity
8
0-2_2_1
6
CONTINUOUS
62
7
100
AcDbLine
10
308.250000000000
20
156.590000000000
30
0.0
11
334.750000000000
21
156.590000000000
31
0.0
0
LINE
5
4b1
100
AcDbEntity
8
0-2_2_1
6
CONTINUOUS
62
7
100
AcDbLine
10
308.250000000000
20
156.090000000000
30
0.0
11
334.750000000000
21
156.090000000000
31
0.0
0
LINE
5
4b2
100
AcDbEntity
8
0-2_2_1
6
CONTINUOUS
62
7
100
AcDbLine
10
310.750000000000
20
173.330000000000
30
0.0
11
310.250000000000
21
173.330000000000
31
0.0
0
LINE
5
4b3
100
AcDbEntity
8
0-2_2_1
6
CONTINUOUS
62
7
100
AcDbLine
10
309.750000000000
20
173.330000000000
30
0.0
11
309.250000000000
21
173.330000000000
31
0.0
0
LINE
5
4b4
100
AcDbEntity
8
0-2_2_1
6
CONTINUOUS
62
7
100
AcDbLine
10
308.750000000000
20
180.690000000000
30
0.0
11
308.750000000000
21
173.330000000000
31
0.0
0
LINE
5
4b5
100
AcDbEntity
8
0-2_2_1
6
CONTINUOUS
62
7
100
AcDbLine
10
308.250000000000
20
180.690000000000
30
0.0
11
308.750000000000
21
180.690000000000
31
0.0
0
LINE
5
4b6
100
AcDbEntity
8
0-2_2_1
6
CONTINUOUS
62
7
100
AcDbLine
10
308.250000000000
20
180.690000000000
30
0.0
11
308.250000000000
21
173.330000000000
31
0.0
0
LINE
5
4b7
100
AcDbEntity
8
0-2_2_1
6
CONTINUOUS
62
7
100
AcDbLine
10
305.750000000000
20
184.590000000000
30
0.0
11
305.750000000000
21
177.590000000000
31
0.0
0
LINE
5
4b8
100
AcDbEntity
8
0-2_2_1
6
CONTINUOUS
62
7
100
AcDbLine
10
307.750000000000
20
186.590000000000
30
0.0
11
308.500000000000
21
186.590000000000
31
0.0
0
LINE
5
4b9
100
AcDbEntity
8
0-2_2_1
6
CONTINUOUS
62
7
100
AcDbLine
10
308.500000000000
20
187.090000000000
30
0.0
11
307.750000000000
21
187.090000000000
31
0.0
0
LINE
5
4ba
100
AcDbEntity
8
0-2_2_1
6
CONTINUOUS
62
7
100
AcDbLine
10
305.250000000000
20
177.590000000000
30
0.0
11
305.250000000000
21
184.590000000000
31
0.0
0
LINE
5
4bb
100
AcDbEntity
8
0-2_2_1
6
CONTINUOUS
62
7
100
AcDbLine
10
309.250000000000
20
186.590000000000
30
0.0
11
308.500000000000
21
186.590000000000
31
0.0
0
LINE
5
4bc
100
AcDbEntity
8
0-2_2_1
6
CONTINUOUS
62
7
100
AcDbLine
10
308.500000000000
20
187.090000000000
30
0.0
11
309.250000000000
21
187.090000000000
31
0.0
0
LINE
5
4bd
100
AcDbEntity
8
0-2_2_1
6
CONTINUOUS
62
7
100
AcDbLine
10
311.250000000000
20
184.590000000000
30
0.0
11
311.250000000000
21
173.330000000000
31
0.0
0
LINE
5
4be
100
AcDbEntity
8
0-2_2_1
6
CONTINUOUS
62
7
100
AcDbLine
10
311.750000000000
20
173.330000000000
30
0.0
11
311.750000000000
21
184.590000000000
31
0.0
0
LINE
5
4bf
100
AcDbEntity
8
0-2_2_1
6
CONTINUOUS
62
7
100
AcDbLine
10
306.250000000000
20
157.090000000000
30
0.0
11
306.250000000000
21
184.590000000000
31
0.0
0
LINE
5
4c0
100
AcDbEntity
8
0-2_2_1
6
CONTINUOUS
62
7
100
AcDbLine
10
306.750000000000
20
184.590000000000
30
0.0
11
306.750000000000
21
157.090000000000
31
0.0
0
LINE
5
4c1
100
AcDbEntity
8
0-2_2_1
6
CONTINUOUS
62
7
100
AcDbLine
10
307.750000000000
20
185.590000000000
30
0.0
11
308.500000000000
21
185.590000000000
31
0.0
0
LINE
5
4c2
100
AcDbEntity
8
0-2_2_1
6
CONTINUOUS
62
7
100
AcDbLine
10
307.750000000000
20
186.090000000000
30
0.0
11
308.500000000000
21
186.090000000000
31
0.0
0
LINE
5
4c3
100
AcDbEntity
8
0-2_2_1
6
CONTINUOUS
62
7
100
AcDbLine
10
309.250000000000
20
185.590000000000
30
0.0
11
308.500000000000
21
185.590000000000
31
0.0
0
LINE
5
4c4
100
AcDbEntity
8
0-2_2_1
6
CONTINUOUS
62
7
100
AcDbLine
10
309.250000000000
20
186.090000000000
30
0.0
11
308.500000000000
21
186.090000000000
31
0.0
0
LINE
5
4c5
100
AcDbEntity
8
0-2_2_1
6
CONTINUOUS
62
7
100
AcDbLine
10
310.750000000000
20
173.330000000000
30
0.0
11
310.750000000000
21
184.590000000000
31
0.0
0
LINE
5
4c6
100
AcDbEntity
8
0-2_2_1
6
CONTINUOUS
62
7
100
AcDbLine
10
310.250000000000
20
184.590000000000
30
0.0
11
310.250000000000
21
173.330000000000
31
0.0
0
LINE
5
4c7
100
AcDbEntity
8
0-2_2_1
6
CONTINUOUS
62
7
100
AcDbLine
10
309.250000000000
20
184.590000000000
30
0.0
11
308.500000000000
21
184.590000000000
31
0.0
0
LINE
5
4c8
100
AcDbEntity
8
0-2_2_1
6
CONTINUOUS
62
7
100
AcDbLine
10
309.250000000000
20
184.590000000000
30
0.0
11
309.250000000000
21
173.330000000000
31
0.0
0
LINE
5
4c9
100
AcDbEntity
8
0-2_2_1
6
CONTINUOUS
62
7
100
AcDbLine
10
309.750000000000
20
173.330000000000
30
0.0
11
309.750000000000
21
184.590000000000
31
0.0
0
LINE
5
4ca
100
AcDbEntity
8
0-2_2_1
6
CONTINUOUS
62
7
100
AcDbLine
10
309.250000000000
20
185.090000000000
30
0.0
11
308.500000000000
21
185.090000000000
31
0.0
0
LINE
5
4cb
100
AcDbEntity
8
0-2_2_1
6
CONTINUOUS
62
7
100
AcDbLine
10
307.750000000000
20
184.590000000000
30
0.0
11
308.500000000000
21
184.590000000000
31
0.0
0
LINE
5
4cc
100
AcDbEntity
8
0-2_2_1
6
CONTINUOUS
62
7
100
AcDbLine
10
307.750000000000
20
185.090000000000
30
0.0
11
308.500000000000
21
185.090000000000
31
0.0
0
LINE
5
4cd
100
AcDbEntity
8
0-2_2_1
6
CONTINUOUS
62
7
100
AcDbLine
10
307.750000000000
20
157.090000000000
30
0.0
11
307.750000000000
21
184.590000000000
31
0.0
0
LINE
5
4ce
100
AcDbEntity
8
0-2_2_1
6
CONTINUOUS
62
7
100
AcDbLine
10
307.250000000000
20
184.590000000000
30
0.0
11
307.250000000000
21
157.090000000000
31
0.0
0
LINE
5
4cf
100
AcDbEntity
8
0-1_2_0
6
CONTINUOUS
62
7
100
AcDbLine
10
67.890000000000
20
314.850000000000
30
0.0
11
67.390000000000
21
314.850000000000
31
0.0
0
LINE
5
4d0
100
AcDbEntity
8
0-1_2_0
6
CONTINUOUS
62
7
100
AcDbLine
10
81.890000000000
20
324.350000000000
30
0.0
11
68.390000000000
21
324.350000000000
31
0.0
0
LINE
5
4d1
100
AcDbEntity
8
0-1_2_0
6
CONTINUOUS
62
7
100
AcDbLine
10
83.390000000000
20
314.850000000000
30
0.0
11
98.390000000000
21
314.850000000000
31
0.0
0
LINE
5
4d2
100
AcDbEntity
8
0-1_2_0
6
CONTINUOUS
62
7
100
AcDbLine
10
82.890000000000
20
315.350000000000
30
0.0
11
82.890000000000
21
323.850000000000
31
0.0
0
LINE
5
4d3
100
AcDbEntity
8
0-1_2_0
6
CONTINUOUS
62
7
100
AcDbLine
10
82.390000000000
20
323.850000000000
30
0.0
11
82.390000000000
21
315.350000000000
31
0.0
0
LINE
5
4d4
100
AcDbEntity
8
0-1_2_0
6
CONTINUOUS
62
7
100
AcDbLine
10
83.390000000000
20
314.350000000000
30
0.0
11
98.390000000000
21
314.350000000000
31
0.0
0
LINE
5
4d5
100
AcDbEntity
8
0-1_2_0
6
CONTINUOUS
62
7
100
AcDbLine
10
67.390000000000
20
323.850000000000
30
0.0
11
67.390000000000
21
314.850000000000
31
0.0
0
LINE
5
4d6
100
AcDbEntity
8
0-1_2_0
6
CONTINUOUS
62
7
100
AcDbLine
10
67.890000000000
20
323.850000000000
30
0.0
11
67.890000000000
21
314.850000000000
31
0.0
0
LINE
5
4d7
100
AcDbEntity
8
0-1_2_0
6
CONTINUOUS
62
7
100
AcDbLine
10
128.890000000000
20
314.850000000000
30
0.0
11
129.390000000000
21
314.850000000000
31
0.0
0
LINE
5
4d8
100
AcDbEntity
8
0-1_2_0
6
CONTINUOUS
62
7
100
AcDbLine
10
114.890000000000
20
324.350000000000
30
0.0
11
128.390000000000
21
324.350000000000
31
0.0
0
LINE
5
4d9
100
AcDbEntity
8
0-1_2_0
6
CONTINUOUS
62
7
100
AcDbLine
10
113.390000000000
20
314.850000000000
30
0.0
11
98.390000000000
21
314.850000000000
31
0.0
0
LINE
5
4da
100
AcDbEntity
8
0-1_2_0
6
CONTINUOUS
62
7
100
AcDbLine
10
128.390000000000
20
324.850000000000
30
0.0
11
114.890000000000
21
324.850000000000
31
0.0
0
LINE
5
4db
100
AcDbEntity
8
0-1_2_0
6
CONTINUOUS
62
7
100
AcDbLine
10
113.890000000000
20
315.350000000000
30
0.0
11
113.890000000000
21
323.850000000000
31
0.0
0
LINE
5
4dc
100
AcDbEntity
8
0-1_2_0
6
CONTINUOUS
62
7
100
AcDbLine
10
114.390000000000
20
323.850000000000
30
0.0
11
114.390000000000
21
315.350000000000
31
0.0
0
LINE
5
4dd
100
AcDbEntity
8
0-1_2_0
6
CONTINUOUS
62
7
100
AcDbLine
10
113.390000000000
20
314.350000000000
30
0.0
11
98.390000000000
21
314.350000000000
31
0.0
0
LINE
5
4de
100
AcDbEntity
8
0-1_2_0
6
CONTINUOUS
62
7
100
AcDbLine
10
129.390000000000
20
323.850000000000
30
0.0
11
129.390000000000
21
314.850000000000
31
0.0
0
LINE
5
4df
100
AcDbEntity
8
0-1_2_0
6
CONTINUOUS
62
7
100
AcDbLine
10
128.890000000000
20
323.850000000000
30
0.0
11
128.890000000000
21
314.850000000000
31
0.0
0
LINE
5
4e0
100
AcDbEntity
8
0-1_2_0
6
CONTINUOUS
62
7
100
AcDbLine
10
159.390000000000
20
323.850000000000
30
0.0
11
159.390000000000
21
323.350000000000
31
0.0
0
LINE
5
4e1
100
AcDbEntity
8
0-1_2_0
6
CONTINUOUS
62
7
100
AcDbLine
10
170.890000000000
20
323.350000000000
30
0.0
11
159.390000000000
21
323.350000000000
31
0.0
0
LINE
5
4e2
100
AcDbEntity
8
0-1_2_0
6
CONTINUOUS
62
7
100
AcDbLine
10
172.390000000000
20
294.350000000000
30
0.0
11
188.390000000000
21
294.350000000000
31
0.0
0
LINE
5
4e3
100
AcDbEntity
8
0-1_2_0
6
CONTINUOUS
62
7
100
AcDbLine
10
159.390000000000
20
323.850000000000
30
0.0
11
170.890000000000
21
323.850000000000
31
0.0
0
LINE
5
4e4
100
AcDbEntity
8
0-1_2_0
6
CONTINUOUS
62
7
100
AcDbLine
10
171.890000000000
20
294.850000000000
30
0.0
11
171.890000000000
21
322.850000000000
31
0.0
0
LINE
5
4e5
100
AcDbEntity
8
0-1_2_0
6
CONTINUOUS
62
7
100
AcDbLine
10
172.390000000000
20
293.850000000000
30
0.0
11
188.390000000000
21
293.850000000000
31
0.0
0
LINE
5
4e6
100
AcDbEntity
8
0-1_2_0
6
CONTINUOUS
62
7
100
AcDbLine
10
171.390000000000
20
322.850000000000
30
0.0
11
171.390000000000
21
294.850000000000
31
0.0
0
LINE
5
4e7
100
AcDbEntity
8
0-1_2_0
6
CONTINUOUS
62
7
100
AcDbLine
10
217.390000000000
20
323.850000000000
30
0.0
11
217.390000000000
21
323.350000000000
31
0.0
0
LINE
5
4e8
100
AcDbEntity
8
0-1_2_0
6
CONTINUOUS
62
7
100
AcDbLine
10
205.890000000000
20
323.350000000000
30
0.0
11
217.390000000000
21
323.350000000000
31
0.0
0
LINE
5
4e9
100
AcDbEntity
8
0-1_2_0
6
CONTINUOUS
62
7
100
AcDbLine
10
204.390000000000
20
294.350000000000
30
0.0
11
188.390000000000
21
294.350000000000
31
0.0
0
LINE
5
4ea
100
AcDbEntity
8
0-1_2_0
6
CONTINUOUS
62
7
100
AcDbLine
10
217.390000000000
20
323.850000000000
30
0.0
11
205.890000000000
21
323.850000000000
31
0.0
0
LINE
5
4eb
100
AcDbEntity
8
0-1_2_0
6
CONTINUOUS
62
7
100
AcDbLine
10
204.890000000000
20
294.850000000000
30
0.0
11
204.890000000000
21
322.850000000000
31
0.0
0
LINE
5
4ec
100
AcDbEntity
8
0-1_2_0
6
CONTINUOUS
62
7
100
AcDbLine
10
204.390000000000
20
293.850000000000
30
0.0
11
188.390000000000
21
293.850000000000
31
0.0
0
LINE
5
4ed
100
AcDbEntity
8
0-1_2_0
6
CONTINUOUS
62
7
100
AcDbLine
10
205.390000000000
20
322.850000000000
30
0.0
11
205.390000000000
21
294.850000000000
31
0.0
0
LINE
5
4ee
100
AcDbEntity
8
0-1_2_0
6
CONTINUOUS
62
7
100
AcDbLine
10
262.390000000000
20
322.850000000000
30
0.0
11
262.390000000000
21
322.350000000000
31
0.0
0
LINE
5
4ef
100
AcDbEntity
8
0-1_2_0
6
CONTINUOUS
62
7
100
AcDbLine
10
251.890000000000
20
322.350000000000
30
0.0
11
262.390000000000
21
322.350000000000
31
0.0
0
LINE
5
4f0
100
AcDbEntity
8
0-1_2_0
6
CONTINUOUS
62
7
100
AcDbLine
10
262.390000000000
20
322.850000000000
30
0.0
11
251.890000000000
21
322.850000000000
31
0.0
0
LINE
5
4f1
100
AcDbEntity
8
0-1_2_0
6
CONTINUOUS
62
7
100
AcDbLine
10
251.390000000000
20
294.850000000000
30
0.0
11
251.390000000000
21
321.850000000000
31
0.0
0
LINE
5
4f2
100
AcDbEntity
8
0-1_2_0
6
CONTINUOUS
62
7
100
AcDbLine
10
250.890000000000
20
321.850000000000
30
0.0
11
250.890000000000
21
294.850000000000
31
0.0
0
LINE
5
4f3
100
AcDbEntity
8
0-2_2_1
6
CONTINUOUS
62
4
100
AcDbLine
10
273.250000000000
20
199.710000000000
30
0.0
11
306.250000000000
21
199.710000000000
31
0.0
0
LINE
5
4f4
100
AcDbEntity
8
0-2_2_1
6
CONTINUOUS
62
4
100
AcDbLine
10
296.250000000000
20
177.090000000000
30
0.0
11
296.250000000000
21
187.090000000000
31
0.0
0
LINE
5
4f5
100
AcDbEntity
8
0-2_2_1
6
CONTINUOUS
62
4
100
AcDbLine
10
321.250000000000
20
187.090000000000
30
0.0
11
326.250000000000
21
187.090000000000
31
0.0
0
LINE
5
4f6
100
AcDbEntity
8
0-2_2_1
6
CONTINUOUS
62
4
100
AcDbLine
10
326.250000000000
20
156.590000000000
30
0.0
11
326.250000000000
21
187.090000000000
31
0.0
0
LINE
5
4f7
100
AcDbEntity
8
0-2_2_1
6
CONTINUOUS
62
4
100
AcDbLine
10
306.250000000000
20
194.710000000000
30
0.0
11
306.250000000000
21
199.710000000000
31
0.0
0
LINE
5
4f8
100
AcDbEntity
8
0-2_2_1
6
CONTINUOUS
62
4
100
AcDbLine
10
273.250000000000
20
194.710000000000
30
0.0
11
273.250000000000
21
199.710000000000
31
0.0
0
LINE
5
4f9
100
AcDbEntity
8
0-2_2_1
6
CONTINUOUS
62
4
100
AcDbLine
10
301.250000000000
20
187.090000000000
30
0.0
11
296.250000000000
21
187.090000000000
31
0.0
0
LINE
5
4fa
100
AcDbEntity
8
0-2_2_1
6
CONTINUOUS
62
7
100
AcDbLine
10
286.500000000000
20
141.980000000000
30
0.0
11
292.990000000000
21
143.060000000000
31
0.0
0
LINE
5
4fb
100
AcDbEntity
8
0-2_2_1
6
CONTINUOUS
62
7
100
AcDbLine
10
286.500000000000
20
144.140000000000
30
0.0
11
292.990000000000
21
145.220000000000
31
0.0
0
LINE
5
4fc
100
AcDbEntity
8
0-2_2_1
6
CONTINUOUS
62
7
100
AcDbLine
10
286.500000000000
20
148.470000000000
30
0.0
11
292.990000000000
21
149.550000000000
31
0.0
0
LINE
5
4fd
100
AcDbEntity
8
0-2_2_1
6
CONTINUOUS
62
7
100
AcDbLine
10
286.500000000000
20
146.300000000000
30
0.0
11
292.990000000000
21
147.390000000000
31
0.0
0
LINE
5
4fe
100
AcDbEntity
8
0-2_2_1
6
CONTINUOUS
62
7
100
AcDbLine
10
286.500000000000
20
150.630000000000
30
0.0
11
292.990000000000
21
151.710000000000
31
0.0
0
LINE
5
4ff
100
AcDbEntity
8
0-2_2_1
6
CONTINUOUS
62
7
100
AcDbLine
10
286.500000000000
20
152.790000000000
30
0.0
11
292.990000000000
21
153.870000000000
31
0.0
0
LINE
5
500
100
AcDbEntity
8
0-2_2_1
6
CONTINUOUS
62
7
100
AcDbLine
10
292.450000000000
20
116.050000000000
30
0.0
11
289.750000000000
21
113.890000000000
31
0.0
0
LINE
5
501
100
AcDbEntity
8
0-2_2_1
6
CONTINUOUS
62
7
100
AcDbLine
10
287.040000000000
20
116.050000000000
30
0.0
11
289.750000000000
21
113.890000000000
31
0.0
0
LINE
5
502
100
AcDbEntity
8
0-2_2_1
6
CONTINUOUS
62
7
100
AcDbLine
10
286.500000000000
20
137.660000000000
30
0.0
11
292.990000000000
21
138.740000000000
31
0.0
0
LINE
5
503
100
AcDbEntity
8
0-2_2_1
6
CONTINUOUS
62
7
100
AcDbLine
10
286.500000000000
20
139.820000000000
30
0.0
11
292.990000000000
21
140.900000000000
31
0.0
0
LINE
5
504
100
AcDbEntity
8
0-2_2_1
6
CONTINUOUS
62
7
100
AcDbLine
10
286.500000000000
20
133.330000000000
30
0.0
11
292.990000000000
21
134.410000000000
31
0.0
0
LINE
5
505
100
AcDbEntity
8
0-2_2_1
6
CONTINUOUS
62
7
100
AcDbLine
10
286.500000000000
20
135.490000000000
30
0.0
11
292.990000000000
21
136.580000000000
31
0.0
0
LINE
5
506
100
AcDbEntity
8
0-2_2_1
6
CONTINUOUS
62
7
100
AcDbLine
10
286.500000000000
20
129.010000000000
30
0.0
11
292.990000000000
21
130.090000000000
31
0.0
0
LINE
5
507
100
AcDbEntity
8
0-2_2_1
6
CONTINUOUS
62
7
100
AcDbLine
10
286.500000000000
20
131.170000000000
30
0.0
11
292.990000000000
21
132.250000000000
31
0.0
0
LINE
5
508
100
AcDbEntity
8
0-2_2_1
6
CONTINUOUS
62
7
100
AcDbLine
10
292.450000000000
20
162.070000000000
30
0.0
11
292.450000000000
21
159.170000000000
31
0.0
0
LINE
5
509
100
AcDbEntity
8
0-2_2_1
6
CONTINUOUS
62
7
100
AcDbLine
10
287.040000000000
20
159.170000000000
30
0.0
11
287.040000000000
21
162.070000000000
31
0.0
0
LINE
5
50a
100
AcDbEntity
8
0-2_2_1
6
CONTINUOUS
62
7
100
AcDbLine
10
286.500000000000
20
124.690000000000
30
0.0
11
292.990000000000
21
125.770000000000
31
0.0
0
LINE
5
50b
100
AcDbEntity
8
0-2_2_1
6
CONTINUOUS
62
7
100
AcDbLine
10
286.500000000000
20
126.850000000000
30
0.0
11
292.990000000000
21
127.930000000000
31
0.0
0
LINE
5
50c
100
AcDbEntity
8
0-2_2_1
6
CONTINUOUS
62
7
100
AcDbLine
10
292.450000000000
20
116.050000000000
30
0.0
11
292.450000000000
21
156.590000000000
31
0.0
0
LINE
5
50d
100
AcDbEntity
8
0-2_2_1
6
CONTINUOUS
62
7
100
AcDbLine
10
287.040000000000
20
116.050000000000
30
0.0
11
287.040000000000
21
156.590000000000
31
0.0
0
LINE
5
50e
100
AcDbEntity
8
0-2_2_1
6
CONTINUOUS
62
7
100
AcDbLine
10
286.500000000000
20
154.950000000000
30
0.0
11
292.990000000000
21
156.030000000000
31
0.0
0
POLYLINE
5
50f
100
AcDbEntity
8
0-2_2_1
6
CONTINUOUS
62
  7
100
AcDb2dPolyline
66
1
10
0.0
20
0.0
30
0.0
70
0
0
VERTEX
5
510
100
AcDbEntity
8
0-2_2_1
6
CONTINUOUS
62
  7
100
AcDbVertex
100
AcDb2dVertex
10
284.750000000000
20
159.170000000000
30
0.0
0
VERTEX
5
511
100
AcDbEntity
8
0-2_2_1
6
CONTINUOUS
62
  7
100
AcDbVertex
100
AcDb2dVertex
10
294.740000000000
20
159.170000000000
30
0.0
0
VERTEX
5
512
100
AcDbEntity
8
0-2_2_1
6
CONTINUOUS
62
  7
100
AcDbVertex
100
AcDb2dVertex
10
294.740000000000
20
162.070000000000
30
0.0
0
VERTEX
5
513
100
AcDbEntity
8
0-2_2_1
6
CONTINUOUS
62
  7
100
AcDbVertex
100
AcDb2dVertex
10
292.450000000000
20
162.070000000000
30
0.0
0
VERTEX
5
514
100
AcDbEntity
8
0-2_2_1
6
CONTINUOUS
62
  7
100
AcDbVertex
100
AcDb2dVertex
10
287.040000000000
20
162.070000000000
30
0.0
0
VERTEX
5
515
100
AcDbEntity
8
0-2_2_1
6
CONTINUOUS
62
  7
100
AcDbVertex
100
AcDb2dVertex
10
284.750000000000
20
162.070000000000
30
0.0
0
VERTEX
5
516
100
AcDbEntity
8
0-2_2_1
6
CONTINUOUS
62
  7
100
AcDbVertex
100
AcDb2dVertex
10
284.750000000000
20
159.170000000000
30
0.0
0
SEQEND
5
517
100
AcDbEntity
8
0-2_2_1
0
POLYLINE
5
518
100
AcDbEntity
8
0-2_2_1
6
CONTINUOUS
62
  7
100
AcDb2dPolyline
66
1
10
0.0
20
0.0
30
0.0
70
0
0
VERTEX
5
519
100
AcDbEntity
8
0-2_2_1
6
CONTINUOUS
62
  7
100
AcDbVertex
100
AcDb2dVertex
10
283.260000000000
20
158.090000000000
30
0.0
0
VERTEX
5
51a
100
AcDbEntity
8
0-2_2_1
6
CONTINUOUS
62
  7
100
AcDbVertex
100
AcDb2dVertex
10
296.230000000000
20
158.090000000000
30
0.0
0
VERTEX
5
51b
100
AcDbEntity
8
0-2_2_1
6
CONTINUOUS
62
  7
100
AcDbVertex
100
AcDb2dVertex
10
296.230000000000
20
159.170000000000
30
0.0
0
VERTEX
5
51c
100
AcDbEntity
8
0-2_2_1
6
CONTINUOUS
62
  7
100
AcDbVertex
100
AcDb2dVertex
10
283.260000000000
20
159.170000000000
30
0.0
0
VERTEX
5
51d
100
AcDbEntity
8
0-2_2_1
6
CONTINUOUS
62
  7
100
AcDbVertex
100
AcDb2dVertex
10
283.260000000000
20
158.090000000000
30
0.0
0
SEQEND
5
51e
100
AcDbEntity
8
0-2_2_1
0
POLYLINE
5
51f
100
AcDbEntity
8
0-2_2_1
6
CONTINUOUS
62
  7
100
AcDb2dPolyline
66
1
10
0.0
20
0.0
30
0.0
70
0
0
VERTEX
5
520
100
AcDbEntity
8
0-2_2_1
6
CONTINUOUS
62
  7
100
AcDbVertex
100
AcDb2dVertex
10
290.830000000000
20
114.970000000000
30
0.0
0
VERTEX
5
521
100
AcDbEntity
8
0-2_2_1
6
CONTINUOUS
62
  7
100
AcDbVertex
100
AcDb2dVertex
10
289.750000000000
20
116.050000000000
30
0.0
0
VERTEX
5
522
100
AcDbEntity
8
0-2_2_1
6
CONTINUOUS
62
  7
100
AcDbVertex
100
AcDb2dVertex
10
290.470000000000
20
117.530000000000
30
0.0
0
VERTEX
5
523
100
AcDbEntity
8
0-2_2_1
6
CONTINUOUS
62
  7
100
AcDbVertex
100
AcDb2dVertex
10
288.830000000000
20
118.460000000000
30
0.0
0
VERTEX
5
524
100
AcDbEntity
8
0-2_2_1
6
CONTINUOUS
62
  7
100
AcDbVertex
100
AcDb2dVertex
10
287.040000000000
20
116.050000000000
30
0.0
0
SEQEND
5
525
100
AcDbEntity
8
0-2_2_1
0
LINE
5
526
100
AcDbEntity
8
0-2_2_1
6
CONTINUOUS
62
7
100
AcDbLine
10
275.250000000000
20
156.590000000000
30
0.0
11
304.250000000000
21
156.590000000000
31
0.0
0
LINE
5
527
100
AcDbEntity
8
0-2_2_1
6
CONTINUOUS
62
7
100
AcDbLine
10
196.500000000000
20
141.980000000000
30
0.0
11
202.990000000000
21
143.060000000000
31
0.0
0
LINE
5
528
100
AcDbEntity
8
0-2_2_1
6
CONTINUOUS
62
7
100
AcDbLine
10
196.500000000000
20
144.140000000000
30
0.0
11
202.990000000000
21
145.220000000000
31
0.0
0
LINE
5
529
100
AcDbEntity
8
0-2_2_1
6
CONTINUOUS
62
7
100
AcDbLine
10
196.500000000000
20
148.470000000000
30
0.0
11
202.990000000000
21
149.550000000000
31
0.0
0
LINE
5
52a
100
AcDbEntity
8
0-2_2_1
6
CONTINUOUS
62
7
100
AcDbLine
10
196.500000000000
20
146.300000000000
30
0.0
11
202.990000000000
21
147.390000000000
31
0.0
0
LINE
5
52b
100
AcDbEntity
8
0-2_2_1
6
CONTINUOUS
62
7
100
AcDbLine
10
196.500000000000
20
150.630000000000
30
0.0
11
202.990000000000
21
151.710000000000
31
0.0
0
LINE
5
52c
100
AcDbEntity
8
0-2_2_1
6
CONTINUOUS
62
7
100
AcDbLine
10
196.500000000000
20
152.790000000000
30
0.0
11
202.990000000000
21
153.870000000000
31
0.0
0
LINE
5
52d
100
AcDbEntity
8
0-2_2_1
6
CONTINUOUS
62
7
100
AcDbLine
10
202.450000000000
20
116.050000000000
30
0.0
11
199.750000000000
21
113.890000000000
31
0.0
0
LINE
5
52e
100
AcDbEntity
8
0-2_2_1
6
CONTINUOUS
62
7
100
AcDbLine
10
197.040000000000
20
116.050000000000
30
0.0
11
199.750000000000
21
113.890000000000
31
0.0
0
LINE
5
52f
100
AcDbEntity
8
0-2_2_1
6
CONTINUOUS
62
7
100
AcDbLine
10
196.500000000000
20
137.660000000000
30
0.0
11
202.990000000000
21
138.740000000000
31
0.0
0
LINE
5
530
100
AcDbEntity
8
0-2_2_1
6
CONTINUOUS
62
7
100
AcDbLine
10
196.500000000000
20
139.820000000000
30
0.0
11
202.990000000000
21
140.900000000000
31
0.0
0
LINE
5
531
100
AcDbEntity
8
0-2_2_1
6
CONTINUOUS
62
7
100
AcDbLine
10
196.500000000000
20
133.330000000000
30
0.0
11
202.990000000000
21
134.410000000000
31
0.0
0
LINE
5
532
100
AcDbEntity
8
0-2_2_1
6
CONTINUOUS
62
7
100
AcDbLine
10
196.500000000000
20
135.490000000000
30
0.0
11
202.990000000000
21
136.580000000000
31
0.0
0
LINE
5
533
100
AcDbEntity
8
0-2_2_1
6
CONTINUOUS
62
7
100
AcDbLine
10
196.500000000000
20
129.010000000000
30
0.0
11
202.990000000000
21
130.090000000000
31
0.0
0
LINE
5
534
100
AcDbEntity
8
0-2_2_1
6
CONTINUOUS
62
7
100
AcDbLine
10
196.500000000000
20
131.170000000000
30
0.0
11
202.990000000000
21
132.250000000000
31
0.0
0
LINE
5
535
100
AcDbEntity
8
0-2_2_1
6
CONTINUOUS
62
7
100
AcDbLine
10
202.450000000000
20
162.070000000000
30
0.0
11
202.450000000000
21
159.170000000000
31
0.0
0
LINE
5
536
100
AcDbEntity
8
0-2_2_1
6
CONTINUOUS
62
7
100
AcDbLine
10
197.040000000000
20
159.170000000000
30
0.0
11
197.040000000000
21
162.070000000000
31
0.0
0
LINE
5
537
100
AcDbEntity
8
0-2_2_1
6
CONTINUOUS
62
7
100
AcDbLine
10
196.500000000000
20
124.690000000000
30
0.0
11
202.990000000000
21
125.770000000000
31
0.0
0
LINE
5
538
100
AcDbEntity
8
0-2_2_1
6
CONTINUOUS
62
7
100
AcDbLine
10
196.500000000000
20
126.850000000000
30
0.0
11
202.990000000000
21
127.930000000000
31
0.0
0
LINE
5
539
100
AcDbEntity
8
0-2_2_1
6
CONTINUOUS
62
7
100
AcDbLine
10
202.450000000000
20
116.050000000000
30
0.0
11
202.450000000000
21
156.590000000000
31
0.0
0
LINE
5
53a
100
AcDbEntity
8
0-2_2_1
6
CONTINUOUS
62
7
100
AcDbLine
10
197.040000000000
20
116.050000000000
30
0.0
11
197.040000000000
21
156.590000000000
31
0.0
0
LINE
5
53b
100
AcDbEntity
8
0-2_2_1
6
CONTINUOUS
62
7
100
AcDbLine
10
196.500000000000
20
154.950000000000
30
0.0
11
202.990000000000
21
156.030000000000
31
0.0
0
POLYLINE
5
53c
100
AcDbEntity
8
0-2_2_1
6
CONTINUOUS
62
  7
100
AcDb2dPolyline
66
1
10
0.0
20
0.0
30
0.0
70
0
0
VERTEX
5
53d
100
AcDbEntity
8
0-2_2_1
6
CONTINUOUS
62
  7
100
AcDbVertex
100
AcDb2dVertex
10
194.750000000000
20
159.170000000000
30
0.0
0
VERTEX
5
53e
100
AcDbEntity
8
0-2_2_1
6
CONTINUOUS
62
  7
100
AcDbVertex
100
AcDb2dVertex
10
204.740000000000
20
159.170000000000
30
0.0
0
VERTEX
5
53f
100
AcDbEntity
8
0-2_2_1
6
CONTINUOUS
62
  7
100
AcDbVertex
100
AcDb2dVertex
10
204.740000000000
20
162.070000000000
30
0.0
0
VERTEX
5
540
100
AcDbEntity
8
0-2_2_1
6
CONTINUOUS
62
  7
100
AcDbVertex
100
AcDb2dVertex
10
202.450000000000
20
162.070000000000
30
0.0
0
VERTEX
5
541
100
AcDbEntity
8
0-2_2_1
6
CONTINUOUS
62
  7
100
AcDbVertex
100
AcDb2dVertex
10
197.040000000000
20
162.070000000000
30
0.0
0
VERTEX
5
542
100
AcDbEntity
8
0-2_2_1
6
CONTINUOUS
62
  7
100
AcDbVertex
100
AcDb2dVertex
10
194.750000000000
20
162.070000000000
30
0.0
0
VERTEX
5
543
100
AcDbEntity
8
0-2_2_1
6
CONTINUOUS
62
  7
100
AcDbVertex
100
AcDb2dVertex
10
194.750000000000
20
159.170000000000
30
0.0
0
SEQEND
5
544
100
AcDbEntity
8
0-2_2_1
0
POLYLINE
5
545
100
AcDbEntity
8
0-2_2_1
6
CONTINUOUS
62
  7
100
AcDb2dPolyline
66
1
10
0.0
20
0.0
30
0.0
70
0
0
VERTEX
5
546
100
AcDbEntity
8
0-2_2_1
6
CONTINUOUS
62
  7
100
AcDbVertex
100
AcDb2dVertex
10
193.260000000000
20
158.090000000000
30
0.0
0
VERTEX
5
547
100
AcDbEntity
8
0-2_2_1
6
CONTINUOUS
62
  7
100
AcDbVertex
100
AcDb2dVertex
10
206.230000000000
20
158.090000000000
30
0.0
0
VERTEX
5
548
100
AcDbEntity
8
0-2_2_1
6
CONTINUOUS
62
  7
100
AcDbVertex
100
AcDb2dVertex
10
206.230000000000
20
159.170000000000
30
0.0
0
VERTEX
5
549
100
AcDbEntity
8
0-2_2_1
6
CONTINUOUS
62
  7
100
AcDbVertex
100
AcDb2dVertex
10
193.260000000000
20
159.170000000000
30
0.0
0
VERTEX
5
54a
100
AcDbEntity
8
0-2_2_1
6
CONTINUOUS
62
  7
100
AcDbVertex
100
AcDb2dVertex
10
193.260000000000
20
158.090000000000
30
0.0
0
SEQEND
5
54b
100
AcDbEntity
8
0-2_2_1
0
POLYLINE
5
54c
100
AcDbEntity
8
0-2_2_1
6
CONTINUOUS
62
  7
100
AcDb2dPolyline
66
1
10
0.0
20
0.0
30
0.0
70
0
0
VERTEX
5
54d
100
AcDbEntity
8
0-2_2_1
6
CONTINUOUS
62
  7
100
AcDbVertex
100
AcDb2dVertex
10
200.830000000000
20
114.970000000000
30
0.0
0
VERTEX
5
54e
100
AcDbEntity
8
0-2_2_1
6
CONTINUOUS
62
  7
100
AcDbVertex
100
AcDb2dVertex
10
199.750000000000
20
116.050000000000
30
0.0
0
VERTEX
5
54f
100
AcDbEntity
8
0-2_2_1
6
CONTINUOUS
62
  7
100
AcDbVertex
100
AcDb2dVertex
10
200.470000000000
20
117.530000000000
30
0.0
0
VERTEX
5
550
100
AcDbEntity
8
0-2_2_1
6
CONTINUOUS
62
  7
100
AcDbVertex
100
AcDb2dVertex
10
198.830000000000
20
118.460000000000
30
0.0
0
VERTEX
5
551
100
AcDbEntity
8
0-2_2_1
6
CONTINUOUS
62
  7
100
AcDbVertex
100
AcDb2dVertex
10
197.040000000000
20
116.050000000000
30
0.0
0
SEQEND
5
552
100
AcDbEntity
8
0-2_2_1
0
LINE
5
553
100
AcDbEntity
8
0-2_2_1
6
CONTINUOUS
62
7
100
AcDbLine
10
185.250000000000
20
156.590000000000
30
0.0
11
214.250000000000
21
156.590000000000
31
0.0
0
LINE
5
554
100
AcDbEntity
8
0-2_2_1
6
CONTINUOUS
62
7
100
AcDbLine
10
106.500000000000
20
141.980000000000
30
0.0
11
112.990000000000
21
143.060000000000
31
0.0
0
LINE
5
555
100
AcDbEntity
8
0-2_2_1
6
CONTINUOUS
62
7
100
AcDbLine
10
106.500000000000
20
144.140000000000
30
0.0
11
112.990000000000
21
145.220000000000
31
0.0
0
LINE
5
556
100
AcDbEntity
8
0-2_2_1
6
CONTINUOUS
62
7
100
AcDbLine
10
106.500000000000
20
148.470000000000
30
0.0
11
112.990000000000
21
149.550000000000
31
0.0
0
LINE
5
557
100
AcDbEntity
8
0-2_2_1
6
CONTINUOUS
62
7
100
AcDbLine
10
106.500000000000
20
146.300000000000
30
0.0
11
112.990000000000
21
147.390000000000
31
0.0
0
LINE
5
558
100
AcDbEntity
8
0-2_2_1
6
CONTINUOUS
62
7
100
AcDbLine
10
106.500000000000
20
150.630000000000
30
0.0
11
112.990000000000
21
151.710000000000
31
0.0
0
LINE
5
559
100
AcDbEntity
8
0-2_2_1
6
CONTINUOUS
62
7
100
AcDbLine
10
106.500000000000
20
152.790000000000
30
0.0
11
112.990000000000
21
153.870000000000
31
0.0
0
LINE
5
55a
100
AcDbEntity
8
0-2_2_1
6
CONTINUOUS
62
7
100
AcDbLine
10
112.450000000000
20
116.050000000000
30
0.0
11
109.750000000000
21
113.890000000000
31
0.0
0
LINE
5
55b
100
AcDbEntity
8
0-2_2_1
6
CONTINUOUS
62
7
100
AcDbLine
10
107.040000000000
20
116.050000000000
30
0.0
11
109.750000000000
21
113.890000000000
31
0.0
0
LINE
5
55c
100
AcDbEntity
8
0-2_2_1
6
CONTINUOUS
62
7
100
AcDbLine
10
106.500000000000
20
137.660000000000
30
0.0
11
112.990000000000
21
138.740000000000
31
0.0
0
LINE
5
55d
100
AcDbEntity
8
0-2_2_1
6
CONTINUOUS
62
7
100
AcDbLine
10
106.500000000000
20
139.820000000000
30
0.0
11
112.990000000000
21
140.900000000000
31
0.0
0
LINE
5
55e
100
AcDbEntity
8
0-2_2_1
6
CONTINUOUS
62
7
100
AcDbLine
10
106.500000000000
20
133.330000000000
30
0.0
11
112.990000000000
21
134.410000000000
31
0.0
0
LINE
5
55f
100
AcDbEntity
8
0-2_2_1
6
CONTINUOUS
62
7
100
AcDbLine
10
106.500000000000
20
135.490000000000
30
0.0
11
112.990000000000
21
136.580000000000
31
0.0
0
LINE
5
560
100
AcDbEntity
8
0-2_2_1
6
CONTINUOUS
62
7
100
AcDbLine
10
106.500000000000
20
129.010000000000
30
0.0
11
112.990000000000
21
130.090000000000
31
0.0
0
LINE
5
561
100
AcDbEntity
8
0-2_2_1
6
CONTINUOUS
62
7
100
AcDbLine
10
106.500000000000
20
131.170000000000
30
0.0
11
112.990000000000
21
132.250000000000
31
0.0
0
LINE
5
562
100
AcDbEntity
8
0-2_2_1
6
CONTINUOUS
62
7
100
AcDbLine
10
112.450000000000
20
162.070000000000
30
0.0
11
112.450000000000
21
159.170000000000
31
0.0
0
LINE
5
563
100
AcDbEntity
8
0-2_2_1
6
CONTINUOUS
62
7
100
AcDbLine
10
107.040000000000
20
159.170000000000
30
0.0
11
107.040000000000
21
162.070000000000
31
0.0
0
LINE
5
564
100
AcDbEntity
8
0-2_2_1
6
CONTINUOUS
62
7
100
AcDbLine
10
106.500000000000
20
124.690000000000
30
0.0
11
112.990000000000
21
125.770000000000
31
0.0
0
LINE
5
565
100
AcDbEntity
8
0-2_2_1
6
CONTINUOUS
62
7
100
AcDbLine
10
106.500000000000
20
126.850000000000
30
0.0
11
112.990000000000
21
127.930000000000
31
0.0
0
LINE
5
566
100
AcDbEntity
8
0-2_2_1
6
CONTINUOUS
62
7
100
AcDbLine
10
112.450000000000
20
116.050000000000
30
0.0
11
112.450000000000
21
156.590000000000
31
0.0
0
LINE
5
567
100
AcDbEntity
8
0-2_2_1
6
CONTINUOUS
62
7
100
AcDbLine
10
107.040000000000
20
116.050000000000
30
0.0
11
107.040000000000
21
156.590000000000
31
0.0
0
LINE
5
568
100
AcDbEntity
8
0-2_2_1
6
CONTINUOUS
62
7
100
AcDbLine
10
106.500000000000
20
154.950000000000
30
0.0
11
112.990000000000
21
156.030000000000
31
0.0
0
POLYLINE
5
569
100
AcDbEntity
8
0-2_2_1
6
CONTINUOUS
62
  7
100
AcDb2dPolyline
66
1
10
0.0
20
0.0
30
0.0
70
0
0
VERTEX
5
56a
100
AcDbEntity
8
0-2_2_1
6
CONTINUOUS
62
  7
100
AcDbVertex
100
AcDb2dVertex
10
104.750000000000
20
159.170000000000
30
0.0
0
VERTEX
5
56b
100
AcDbEntity
8
0-2_2_1
6
CONTINUOUS
62
  7
100
AcDbVertex
100
AcDb2dVertex
10
114.740000000000
20
159.170000000000
30
0.0
0
VERTEX
5
56c
100
AcDbEntity
8
0-2_2_1
6
CONTINUOUS
62
  7
100
AcDbVertex
100
AcDb2dVertex
10
114.740000000000
20
162.070000000000
30
0.0
0
VERTEX
5
56d
100
AcDbEntity
8
0-2_2_1
6
CONTINUOUS
62
  7
100
AcDbVertex
100
AcDb2dVertex
10
112.450000000000
20
162.070000000000
30
0.0
0
VERTEX
5
56e
100
AcDbEntity
8
0-2_2_1
6
CONTINUOUS
62
  7
100
AcDbVertex
100
AcDb2dVertex
10
107.040000000000
20
162.070000000000
30
0.0
0
VERTEX
5
56f
100
AcDbEntity
8
0-2_2_1
6
CONTINUOUS
62
  7
100
AcDbVertex
100
AcDb2dVertex
10
104.750000000000
20
162.070000000000
30
0.0
0
VERTEX
5
570
100
AcDbEntity
8
0-2_2_1
6
CONTINUOUS
62
  7
100
AcDbVertex
100
AcDb2dVertex
10
104.750000000000
20
159.170000000000
30
0.0
0
SEQEND
5
571
100
AcDbEntity
8
0-2_2_1
0
POLYLINE
5
572
100
AcDbEntity
8
0-2_2_1
6
CONTINUOUS
62
  7
100
AcDb2dPolyline
66
1
10
0.0
20
0.0
30
0.0
70
0
0
VERTEX
5
573
100
AcDbEntity
8
0-2_2_1
6
CONTINUOUS
62
  7
100
AcDbVertex
100
AcDb2dVertex
10
103.260000000000
20
158.090000000000
30
0.0
0
VERTEX
5
574
100
AcDbEntity
8
0-2_2_1
6
CONTINUOUS
62
  7
100
AcDbVertex
100
AcDb2dVertex
10
116.230000000000
20
158.090000000000
30
0.0
0
VERTEX
5
575
100
AcDbEntity
8
0-2_2_1
6
CONTINUOUS
62
  7
100
AcDbVertex
100
AcDb2dVertex
10
116.230000000000
20
159.170000000000
30
0.0
0
VERTEX
5
576
100
AcDbEntity
8
0-2_2_1
6
CONTINUOUS
62
  7
100
AcDbVertex
100
AcDb2dVertex
10
103.260000000000
20
159.170000000000
30
0.0
0
VERTEX
5
577
100
AcDbEntity
8
0-2_2_1
6
CONTINUOUS
62
  7
100
AcDbVertex
100
AcDb2dVertex
10
103.260000000000
20
158.090000000000
30
0.0
0
SEQEND
5
578
100
AcDbEntity
8
0-2_2_1
0
POLYLINE
5
579
100
AcDbEntity
8
0-2_2_1
6
CONTINUOUS
62
  7
100
AcDb2dPolyline
66
1
10
0.0
20
0.0
30
0.0
70
0
0
VERTEX
5
57a
100
AcDbEntity
8
0-2_2_1
6
CONTINUOUS
62
  7
100
AcDbVertex
100
AcDb2dVertex
10
110.830000000000
20
114.970000000000
30
0.0
0
VERTEX
5
57b
100
AcDbEntity
8
0-2_2_1
6
CONTINUOUS
62
  7
100
AcDbVertex
100
AcDb2dVertex
10
109.750000000000
20
116.050000000000
30
0.0
0
VERTEX
5
57c
100
AcDbEntity
8
0-2_2_1
6
CONTINUOUS
62
  7
100
AcDbVertex
100
AcDb2dVertex
10
110.470000000000
20
117.530000000000
30
0.0
0
VERTEX
5
57d
100
AcDbEntity
8
0-2_2_1
6
CONTINUOUS
62
  7
100
AcDbVertex
100
AcDb2dVertex
10
108.830000000000
20
118.460000000000
30
0.0
0
VERTEX
5
57e
100
AcDbEntity
8
0-2_2_1
6
CONTINUOUS
62
  7
100
AcDbVertex
100
AcDb2dVertex
10
107.040000000000
20
116.050000000000
30
0.0
0
SEQEND
5
57f
100
AcDbEntity
8
0-2_2_1
0
LINE
5
580
100
AcDbEntity
8
0-2_2_1
6
CONTINUOUS
62
7
100
AcDbLine
10
95.250000000000
20
156.590000000000
30
0.0
11
124.250000000000
21
156.590000000000
31
0.0
0
LINE
5
581
100
AcDbEntity
8
0-2_2_1
6
DASHED
62
7
100
AcDbLine
10
334.750000000000
20
155.090000000000
30
0.0
11
64.750000000000
21
155.090000000000
31
0.0
0
LINE
5
582
100
AcDbEntity
8
0-2_2_1
6
CONTINUOUS
62
7
100
AcDbLine
10
334.750000000000
20
154.090000000000
30
0.0
11
64.750000000000
21
154.090000000000
31
0.0
0
LINE
5
583
100
AcDbEntity
8
0-2_2_1
6
CONTINUOUS
62
7
100
AcDbLine
10
334.750000000000
20
134.090000000000
30
0.0
11
64.750000000000
21
134.090000000000
31
0.0
0
LINE
5
584
100
AcDbEntity
8
0-2_2_1
6
CONTINUOUS
62
7
100
AcDbLine
10
95.250000000000
20
156.590000000000
30
0.0
11
95.250000000000
21
158.090000000000
31
0.0
0
LINE
5
585
100
AcDbEntity
8
0-2_2_1
6
CONTINUOUS
62
7
100
AcDbLine
10
124.250000000000
20
158.090000000000
30
0.0
11
95.250000000000
21
158.090000000000
31
0.0
0
LINE
5
586
100
AcDbEntity
8
0-2_2_1
6
CONTINUOUS
62
7
100
AcDbLine
10
124.250000000000
20
156.590000000000
30
0.0
11
124.250000000000
21
158.090000000000
31
0.0
0
LINE
5
587
100
AcDbEntity
8
0-2_2_1
6
CONTINUOUS
62
7
100
AcDbLine
10
185.250000000000
20
156.590000000000
30
0.0
11
185.250000000000
21
158.090000000000
31
0.0
0
LINE
5
588
100
AcDbEntity
8
0-2_2_1
6
CONTINUOUS
62
7
100
AcDbLine
10
214.250000000000
20
158.090000000000
30
0.0
11
185.250000000000
21
158.090000000000
31
0.0
0
LINE
5
589
100
AcDbEntity
8
0-2_2_1
6
CONTINUOUS
62
7
100
AcDbLine
10
214.250000000000
20
156.590000000000
30
0.0
11
214.250000000000
21
158.090000000000
31
0.0
0
LINE
5
58a
100
AcDbEntity
8
0-2_2_1
6
CONTINUOUS
62
7
100
AcDbLine
10
275.250000000000
20
156.590000000000
30
0.0
11
275.250000000000
21
158.090000000000
31
0.0
0
LINE
5
58b
100
AcDbEntity
8
0-2_2_1
6
CONTINUOUS
62
7
100
AcDbLine
10
304.250000000000
20
158.090000000000
30
0.0
11
275.250000000000
21
158.090000000000
31
0.0
0
LINE
5
58c
100
AcDbEntity
8
0-2_2_1
6
CONTINUOUS
62
7
100
AcDbLine
10
304.250000000000
20
156.590000000000
30
0.0
11
304.250000000000
21
158.090000000000
31
0.0
0
LINE
5
58d
100
AcDbEntity
8
0-1_2_0
6
CONTINUOUS
62
7
100
AcDbLine
10
401.500000000000
20
322.850000000000
30
0.0
11
401.500000000000
21
322.350000000000
31
0.0
0
LINE
5
58e
100
AcDbEntity
8
0-1_2_0
6
CONTINUOUS
62
7
100
AcDbLine
10
412.000000000000
20
322.350000000000
30
0.0
11
401.500000000000
21
322.350000000000
31
0.0
0
LINE
5
58f
100
AcDbEntity
8
0-1_2_0
6
CONTINUOUS
62
7
100
AcDbLine
10
401.500000000000
20
322.850000000000
30
0.0
11
412.000000000000
21
322.850000000000
31
0.0
0
LINE
5
590
100
AcDbEntity
8
0-1_2_0
6
CONTINUOUS
62
7
100
AcDbLine
10
412.500000000000
20
294.850000000000
30
0.0
11
412.500000000000
21
321.850000000000
31
0.0
0
LINE
5
591
100
AcDbEntity
8
0-1_2_0
6
CONTINUOUS
62
7
100
AcDbLine
10
413.000000000000
20
321.850000000000
30
0.0
11
413.000000000000
21
294.850000000000
31
0.0
0
LINE
5
592
100
AcDbEntity
8
0-1_2_0
6
CONTINUOUS
62
7
100
AcDbLine
10
251.890000000000
20
294.350000000000
30
0.0
11
331.950000000000
21
294.350000000000
31
0.0
0
LINE
5
593
100
AcDbEntity
8
0-1_2_0
6
CONTINUOUS
62
7
100
AcDbLine
10
251.890000000000
20
293.850000000000
30
0.0
11
331.950000000000
21
293.850000000000
31
0.0
0
LINE
5
594
100
AcDbEntity
8
0-1_2_0
6
CONTINUOUS
62
7
100
AcDbLine
10
412.000000000000
20
294.350000000000
30
0.0
11
331.950000000000
21
294.350000000000
31
0.0
0
LINE
5
595
100
AcDbEntity
8
0-1_2_0
6
CONTINUOUS
62
7
100
AcDbLine
10
412.000000000000
20
293.850000000000
30
0.0
11
331.950000000000
21
293.850000000000
31
0.0
0
LINE
5
596
100
AcDbEntity
8
0-3_2_2
6
CONTINUOUS
62
7
100
AcDbLine
10
392.530000000000
20
180.360000000000
30
0.0
11
392.120000000000
21
180.480000000000
31
0.0
0
LINE
5
597
100
AcDbEntity
8
0-3_2_2
6
CONTINUOUS
62
7
100
AcDbLine
10
403.990000000000
20
185.580000000000
30
0.0
11
392.930000000000
21
188.850000000000
31
0.0
0
LINE
5
598
100
AcDbEntity
8
0-3_2_2
6
CONTINUOUS
62
7
100
AcDbLine
10
405.220000000000
20
176.610000000000
30
0.0
11
417.510000000000
21
172.970000000000
31
0.0
0
LINE
5
599
100
AcDbEntity
8
0-3_2_2
6
CONTINUOUS
62
7
100
AcDbLine
10
392.930000000000
20
189.310000000000
30
0.0
11
403.990000000000
21
186.030000000000
31
0.0
0
LINE
5
59a
100
AcDbEntity
8
0-3_2_2
6
CONTINUOUS
62
7
100
AcDbLine
10
404.810000000000
20
177.180000000000
30
0.0
11
404.810000000000
21
184.880000000000
31
0.0
0
LINE
5
59b
100
AcDbEntity
8
0-3_2_2
6
CONTINUOUS
62
7
100
AcDbLine
10
404.400000000000
20
185.010000000000
30
0.0
11
404.400000000000
21
177.300000000000
31
0.0
0
LINE
5
59c
100
AcDbEntity
8
0-3_2_2
6
CONTINUOUS
62
7
100
AcDbLine
10
405.220000000000
20
176.150000000000
30
0.0
11
417.510000000000
21
172.520000000000
31
0.0
0
LINE
5
59d
100
AcDbEntity
8
0-3_2_2
6
CONTINUOUS
62
7
100
AcDbLine
10
392.120000000000
20
188.640000000000
30
0.0
11
392.120000000000
21
180.480000000000
31
0.0
0
LINE
5
59e
100
AcDbEntity
8
0-3_2_2
6
CONTINUOUS
62
7
100
AcDbLine
10
392.530000000000
20
188.520000000000
30
0.0
11
392.530000000000
21
180.360000000000
31
0.0
0
LINE
5
59f
100
AcDbEntity
8
0-3_2_2
6
CONTINUOUS
62
7
100
AcDbLine
10
442.490000000000
20
165.580000000000
30
0.0
11
442.900000000000
21
165.460000000000
31
0.0
0
LINE
5
5a0
100
AcDbEntity
8
0-3_2_2
6
CONTINUOUS
62
7
100
AcDbLine
10
431.030000000000
20
177.580000000000
30
0.0
11
442.080000000000
21
174.310000000000
31
0.0
0
LINE
5
5a1
100
AcDbEntity
8
0-3_2_2
6
CONTINUOUS
62
7
100
AcDbLine
10
429.800000000000
20
169.330000000000
30
0.0
11
417.510000000000
21
172.970000000000
31
0.0
0
LINE
5
5a2
100
AcDbEntity
8
0-3_2_2
6
CONTINUOUS
62
7
100
AcDbLine
10
442.080000000000
20
174.760000000000
30
0.0
11
431.030000000000
21
178.030000000000
31
0.0
0
LINE
5
5a3
100
AcDbEntity
8
0-3_2_2
6
CONTINUOUS
62
7
100
AcDbLine
10
430.210000000000
20
169.670000000000
30
0.0
11
430.210000000000
21
177.370000000000
31
0.0
0
LINE
5
5a4
100
AcDbEntity
8
0-3_2_2
6
CONTINUOUS
62
7
100
AcDbLine
10
430.620000000000
20
177.250000000000
30
0.0
11
430.620000000000
21
169.540000000000
31
0.0
0
LINE
5
5a5
100
AcDbEntity
8
0-3_2_2
6
CONTINUOUS
62
7
100
AcDbLine
10
429.800000000000
20
168.880000000000
30
0.0
11
417.510000000000
21
172.520000000000
31
0.0
0
LINE
5
5a6
100
AcDbEntity
8
0-3_2_2
6
CONTINUOUS
62
7
100
AcDbLine
10
442.900000000000
20
173.610000000000
30
0.0
11
442.900000000000
21
165.460000000000
31
0.0
0
LINE
5
5a7
100
AcDbEntity
8
0-3_2_2
6
CONTINUOUS
62
7
100
AcDbLine
10
442.490000000000
20
173.730000000000
30
0.0
11
442.490000000000
21
165.580000000000
31
0.0
0
LINE
5
5a8
100
AcDbEntity
8
0-3_2_2
6
CONTINUOUS
62
7
100
AcDbLine
10
496.890000000000
20
184.090000000000
30
0.0
11
496.890000000000
21
183.640000000000
31
0.0
0
LINE
5
5a9
100
AcDbEntity
8
0-3_2_2
6
CONTINUOUS
62
7
100
AcDbLine
10
506.310000000000
20
180.850000000000
30
0.0
11
496.890000000000
21
183.640000000000
31
0.0
0
LINE
5
5aa
100
AcDbEntity
8
0-3_2_2
6
CONTINUOUS
62
7
100
AcDbLine
10
507.540000000000
20
154.210000000000
30
0.0
11
520.650000000000
21
150.330000000000
31
0.0
0
LINE
5
5ab
100
AcDbEntity
8
0-3_2_2
6
CONTINUOUS
62
7
100
AcDbLine
10
496.890000000000
20
184.090000000000
30
0.0
11
506.310000000000
21
181.310000000000
31
0.0
0
LINE
5
5ac
100
AcDbEntity
8
0-3_2_2
6
CONTINUOUS
62
7
100
AcDbLine
10
507.130000000000
20
154.780000000000
30
0.0
11
507.130000000000
21
180.160000000000
31
0.0
0
LINE
5
5ad
100
AcDbEntity
8
0-3_2_2
6
CONTINUOUS
62
7
100
AcDbLine
10
507.540000000000
20
153.750000000000
30
0.0
11
520.650000000000
21
149.880000000000
31
0.0
0
LINE
5
5ae
100
AcDbEntity
8
0-3_2_2
6
CONTINUOUS
62
7
100
AcDbLine
10
506.720000000000
20
180.280000000000
30
0.0
11
506.720000000000
21
154.900000000000
31
0.0
0
LINE
5
5af
100
AcDbEntity
8
0-3_2_2
6
CONTINUOUS
62
7
100
AcDbLine
10
544.400000000000
20
170.040000000000
30
0.0
11
544.400000000000
21
169.580000000000
31
0.0
0
LINE
5
5b0
100
AcDbEntity
8
0-3_2_2
6
CONTINUOUS
62
7
100
AcDbLine
10
534.980000000000
20
172.370000000000
30
0.0
11
544.400000000000
21
169.580000000000
31
0.0
0
LINE
5
5b1
100
AcDbEntity
8
0-3_2_2
6
CONTINUOUS
62
7
100
AcDbLine
10
533.750000000000
20
146.450000000000
30
0.0
11
520.650000000000
21
150.330000000000
31
0.0
0
LINE
5
5b2
100
AcDbEntity
8
0-3_2_2
6
CONTINUOUS
62
7
100
AcDbLine
10
544.400000000000
20
170.040000000000
30
0.0
11
534.980000000000
21
172.820000000000
31
0.0
0
LINE
5
5b3
100
AcDbEntity
8
0-3_2_2
6
CONTINUOUS
62
7
100
AcDbLine
10
534.160000000000
20
146.780000000000
30
0.0
11
534.160000000000
21
172.160000000000
31
0.0
0
LINE
5
5b4
100
AcDbEntity
8
0-3_2_2
6
CONTINUOUS
62
7
100
AcDbLine
10
533.750000000000
20
146.000000000000
30
0.0
11
520.650000000000
21
149.880000000000
31
0.0
0
LINE
5
5b5
100
AcDbEntity
8
0-3_2_2
6
CONTINUOUS
62
7
100
AcDbLine
10
534.570000000000
20
172.040000000000
30
0.0
11
534.570000000000
21
146.660000000000
31
0.0
0
LINE
5
5b6
100
AcDbEntity
8
0-3_2_2
6
CONTINUOUS
62
7
100
AcDbLine
10
605.120000000000
20
172.620000000000
30
0.0
11
605.120000000000
21
172.170000000000
31
0.0
0
LINE
5
5b7
100
AcDbEntity
8
0-3_2_2
6
CONTINUOUS
62
7
100
AcDbLine
10
596.520000000000
20
174.710000000000
30
0.0
11
605.120000000000
21
172.170000000000
31
0.0
0
LINE
5
5b8
100
AcDbEntity
8
0-3_2_2
6
CONTINUOUS
62
7
100
AcDbLine
10
605.120000000000
20
172.620000000000
30
0.0
11
596.520000000000
21
175.160000000000
31
0.0
0
LINE
5
5b9
100
AcDbEntity
8
0-3_2_2
6
CONTINUOUS
62
7
100
AcDbLine
10
596.110000000000
20
149.910000000000
30
0.0
11
596.110000000000
21
174.380000000000
31
0.0
0
LINE
5
5ba
100
AcDbEntity
8
0-3_2_2
6
CONTINUOUS
62
7
100
AcDbLine
10
595.700000000000
20
174.500000000000
30
0.0
11
595.700000000000
21
150.030000000000
31
0.0
0
LINE
5
5bb
100
AcDbEntity
8
0-3_2_2
6
CONTINUOUS
62
7
100
AcDbLine
10
719.080000000000
20
138.900000000000
30
0.0
11
719.080000000000
21
138.440000000000
31
0.0
0
LINE
5
5bc
100
AcDbEntity
8
0-3_2_2
6
CONTINUOUS
62
7
100
AcDbLine
10
727.680000000000
20
135.900000000000
30
0.0
11
719.080000000000
21
138.440000000000
31
0.0
0
LINE
5
5bd
100
AcDbEntity
8
0-3_2_2
6
CONTINUOUS
62
7
100
AcDbLine
10
719.080000000000
20
138.900000000000
30
0.0
11
727.680000000000
21
136.350000000000
31
0.0
0
LINE
5
5be
100
AcDbEntity
8
0-3_2_2
6
CONTINUOUS
62
7
100
AcDbLine
10
728.090000000000
20
110.860000000000
30
0.0
11
728.090000000000
21
135.330000000000
31
0.0
0
LINE
5
5bf
100
AcDbEntity
8
0-3_2_2
6
CONTINUOUS
62
7
100
AcDbLine
10
728.500000000000
20
135.200000000000
30
0.0
11
728.500000000000
21
110.730000000000
31
0.0
0
LINE
5
5c0
100
AcDbEntity
8
0-3_2_2
6
CONTINUOUS
62
7
100
AcDbLine
10
596.520000000000
20
149.330000000000
30
0.0
11
662.100000000000
21
129.930000000000
31
0.0
0
LINE
5
5c1
100
AcDbEntity
8
0-3_2_2
6
CONTINUOUS
62
7
100
AcDbLine
10
596.520000000000
20
148.880000000000
30
0.0
11
662.100000000000
21
129.480000000000
31
0.0
0
LINE
5
5c2
100
AcDbEntity
8
0-3_2_2
6
CONTINUOUS
62
7
100
AcDbLine
10
727.680000000000
20
110.520000000000
30
0.0
11
662.100000000000
21
129.930000000000
31
0.0
0
LINE
5
5c3
100
AcDbEntity
8
0-3_2_2
6
CONTINUOUS
62
7
100
AcDbLine
10
727.680000000000
20
110.070000000000
30
0.0
11
662.100000000000
21
129.480000000000
31
0.0
0
LINE
5
5c4
100
AcDbEntity
8
0-3_2_2
6
CONTINUOUS
62
7
100
AcDbLine
10
402.100000000000
20
186.140000000000
30
0.0
11
392.530000000000
21
180.360000000000
31
0.0
0
LINE
5
5c5
100
AcDbEntity
8
0-3_2_2
6
CONTINUOUS
62
7
100
AcDbLine
10
440.160000000000
20
174.880000000000
30
0.0
11
430.340000000000
21
168.950000000000
31
0.0
0
LINE
5
5c6
100
AcDbEntity
8
0-3_2_2
6
CONTINUOUS
62
7
100
AcDbLine
10
554.250000000000
20
218.710000000000
30
0.0
11
496.890000000000
21
184.090000000000
31
0.0
0
LINE
5
5c7
100
AcDbEntity
8
0-3_2_2
6
CONTINUOUS
62
7
100
AcDbLine
10
534.160000000000
20
170.750000000000
30
0.0
11
507.260000000000
21
154.510000000000
31
0.0
0
POLYLINE
5
5c8
100
AcDbEntity
8
0-1_2_0
6
CONTINUOUS
62
  4
100
AcDb2dPolyline
66
1
10
0.0
20
0.0
30
0.0
70
0
0
VERTEX
5
5c9
100
AcDbEntity
8
0-1_2_0
6
CONTINUOUS
62
  4
100
AcDbVertex
100
AcDb2dVertex
10
82.890000000000
20
284.170000000000
30
0.0
0
VERTEX
5
5ca
100
AcDbEntity
8
0-1_2_0
6
CONTINUOUS
62
  4
100
AcDbVertex
100
AcDb2dVertex
10
82.890000000000
20
273.650000000000
30
0.0
0
VERTEX
5
5cb
100
AcDbEntity
8
0-1_2_0
6
CONTINUOUS
62
  4
100
AcDbVertex
100
AcDb2dVertex
10
114.390000000000
20
273.650000000000
30
0.0
0
SEQEND
5
5cc
100
AcDbEntity
8
0-1_2_0
0
LINE
5
5cd
100
AcDbEntity
8
0-1_2_0
6
CONTINUOUS
62
4
100
AcDbLine
10
114.390000000000
20
284.170000000000
30
0.0
11
114.390000000000
21
273.650000000000
31
0.0
0
POLYLINE
5
5ce
100
AcDbEntity
8
0-1_2_0
6
CONTINUOUS
62
  4
100
AcDb2dPolyline
66
1
10
0.0
20
0.0
30
0.0
70
0
0
VERTEX
5
5cf
100
AcDbEntity
8
0-1_2_0
6
CONTINUOUS
62
  4
100
AcDbVertex
100
AcDb2dVertex
10
171.390000000000
20
284.170000000000
30
0.0
0
VERTEX
5
5d0
100
AcDbEntity
8
0-1_2_0
6
CONTINUOUS
62
  4
100
AcDbVertex
100
AcDb2dVertex
10
171.390000000000
20
273.650000000000
30
0.0
0
VERTEX
5
5d1
100
AcDbEntity
8
0-1_2_0
6
CONTINUOUS
62
  4
100
AcDbVertex
100
AcDb2dVertex
10
205.390000000000
20
273.650000000000
30
0.0
0
SEQEND
5
5d2
100
AcDbEntity
8
0-1_2_0
0
LINE
5
5d3
100
AcDbEntity
8
0-1_2_0
6
CONTINUOUS
62
4
100
AcDbLine
10
205.390000000000
20
284.170000000000
30
0.0
11
205.390000000000
21
273.650000000000
31
0.0
0
POLYLINE
5
5d4
100
AcDbEntity
8
0-1_2_0
6
CONTINUOUS
62
  4
100
AcDb2dPolyline
66
1
10
0.0
20
0.0
30
0.0
70
0
0
VERTEX
5
5d5
100
AcDbEntity
8
0-1_2_0
6
CONTINUOUS
62
  4
100
AcDbVertex
100
AcDb2dVertex
10
250.890000000000
20
284.170000000000
30
0.0
0
VERTEX
5
5d6
100
AcDbEntity
8
0-1_2_0
6
CONTINUOUS
62
  4
100
AcDbVertex
100
AcDb2dVertex
10
250.890000000000
20
273.650000000000
30
0.0
0
VERTEX
5
5d7
100
AcDbEntity
8
0-1_2_0
6
CONTINUOUS
62
  4
100
AcDbVertex
100
AcDb2dVertex
10
413.000000000000
20
273.650000000000
30
0.0
0
SEQEND
5
5d8
100
AcDbEntity
8
0-1_2_0
0
LINE
5
5d9
100
AcDbEntity
8
0-1_2_0
6
CONTINUOUS
62
4
100
AcDbLine
10
413.000000000000
20
284.170000000000
30
0.0
11
413.000000000000
21
273.650000000000
31
0.0
0
LINE
5
5da
100
AcDbEntity
8
0-1_2_0
6
CONTINUOUS
62
4
100
AcDbLine
10
235.250000000000
20
323.850000000000
30
0.0
11
235.250000000000
21
294.850000000000
31
0.0
0
LINE
5
5db
100
AcDbEntity
8
0-1_2_0
6
CONTINUOUS
62
4
100
AcDbLine
10
227.390000000000
20
323.850000000000
30
0.0
11
235.250000000000
21
323.850000000000
31
0.0
0
LINE
5
5dc
100
AcDbEntity
8
0-1_2_0
6
CONTINUOUS
62
4
100
AcDbLine
10
227.390000000000
20
294.850000000000
30
0.0
11
235.250000000000
21
294.850000000000
31
0.0
0
LINE
5
5dd
100
AcDbEntity
8
0-3_2_2
6
CONTINUOUS
62
4
100
AcDbLine
10
566.940000000000
20
163.370000000000
30
0.0
11
573.380000000000
21
161.460000000000
31
0.0
0
LINE
5
5de
100
AcDbEntity
8
0-3_2_2
6
CONTINUOUS
62
4
100
AcDbLine
10
566.940000000000
20
136.630000000000
30
0.0
11
573.380000000000
21
134.720000000000
31
0.0
0
LINE
5
5df
100
AcDbEntity
8
0-3_2_2
6
CONTINUOUS
62
4
100
AcDbLine
10
579.130000000000
20
164.930000000000
30
0.0
11
573.380000000000
21
161.460000000000
31
0.0
0
LINE
5
5e0
100
AcDbEntity
8
0-3_2_2
6
CONTINUOUS
62
4
100
AcDbLine
10
579.130000000000
20
138.190000000000
30
0.0
11
573.380000000000
21
134.720000000000
31
0.0
0
LINE
5
5e1
100
AcDbEntity
8
0-3_2_2
6
CONTINUOUS
62
4
100
AcDbLine
10
728.500000000000
20
88.820000000000
30
0.0
11
728.500000000000
21
79.290000000000
31
0.0
0
LINE
5
5e2
100
AcDbEntity
8
0-3_2_2
6
CONTINUOUS
62
4
100
AcDbLine
10
595.700000000000
20
128.120000000000
30
0.0
11
595.700000000000
21
118.590000000000
31
0.0
0
LINE
5
5e3
100
AcDbEntity
8
0-3_2_2
6
CONTINUOUS
62
4
100
AcDbLine
10
534.580000000000
20
124.750000000000
30
0.0
11
534.580000000000
21
115.220000000000
31
0.0
0
LINE
5
5e4
100
AcDbEntity
8
0-3_2_2
6
CONTINUOUS
62
4
100
AcDbLine
10
506.720000000000
20
132.990000000000
30
0.0
11
506.720000000000
21
123.460000000000
31
0.0
0
LINE
5
5e5
100
AcDbEntity
8
0-3_2_2
6
CONTINUOUS
62
4
100
AcDbLine
10
430.620000000000
20
155.510000000000
30
0.0
11
430.620000000000
21
145.980000000000
31
0.0
0
LINE
5
5e6
100
AcDbEntity
8
0-3_2_2
6
CONTINUOUS
62
4
100
AcDbLine
10
404.400000000000
20
163.270000000000
30
0.0
11
404.400000000000
21
153.740000000000
31
0.0
0
LINE
5
5e7
100
AcDbEntity
8
0-3_2_2
6
CONTINUOUS
62
4
100
AcDbLine
10
573.380000000000
20
161.460000000000
30
0.0
11
573.380000000000
21
154.490000000000
31
0.0
0
LINE
5
5e8
100
AcDbEntity
8
0-3_2_2
6
CONTINUOUS
62
4
100
AcDbLine
10
573.380000000000
20
144.080000000000
30
0.0
11
573.380000000000
21
134.720000000000
31
0.0
0
LINE
5
5e9
100
AcDbEntity
8
0-3_2_2
6
CONTINUOUS
62
4
100
AcDbLine
10
506.720000000000
20
123.460000000000
30
0.0
11
510.370000000000
21
122.380000000000
31
0.0
0
LINE
5
5ea
100
AcDbEntity
8
0-3_2_2
6
CONTINUOUS
62
4
100
AcDbLine
10
527.270000000000
20
117.380000000000
30
0.0
11
534.580000000000
21
115.220000000000
31
0.0
0
LINE
5
5eb
100
AcDbEntity
8
0-3_2_2
6
CONTINUOUS
62
4
100
AcDbLine
10
404.400000000000
20
153.740000000000
30
0.0
11
408.050000000000
21
152.660000000000
31
0.0
0
LINE
5
5ec
100
AcDbEntity
8
0-3_2_2
6
CONTINUOUS
62
4
100
AcDbLine
10
425.320000000000
20
147.550000000000
30
0.0
11
430.620000000000
21
145.980000000000
31
0.0
0
LINE
5
5ed
100
AcDbEntity
8
0-3_2_2
6
CONTINUOUS
62
4
100
AcDbLine
10
595.710000000000
20
118.590000000000
30
0.0
11
635.320000000000
21
106.860000000000
31
0.0
0
LINE
5
5ee
100
AcDbEntity
8
0-3_2_2
6
CONTINUOUS
62
4
100
AcDbLine
10
669.580000000000
20
96.730000000000
30
0.0
11
728.500000000000
21
79.290000000000
31
0.0
0
LINE
5
5ef
100
AcDbEntity
8
0-3_2_2
6
CONTINUOUS
62
7
100
AcDbLine
10
443.110000000000
20
219.860000000000
30
0.0
11
392.400000000000
21
189.250000000000
31
0.0
0
LINE
5
5f0
100
AcDbEntity
8
0-3_2_2
6
CONTINUOUS
62
7
100
AcDbLine
10
461.400000000000
20
219.860000000000
30
0.0
11
404.590000000000
21
185.570000000000
31
0.0
0
LINE
5
5f1
100
AcDbEntity
8
0-3_2_2
6
CONTINUOUS
62
7
100
AcDbLine
10
476.170000000000
20
219.860000000000
30
0.0
11
405.020000000000
21
176.920000000000
31
0.0
0
LINE
5
5f2
100
AcDbEntity
8
0-3_2_2
6
CONTINUOUS
62
7
100
AcDbLine
10
499.850000000000
20
219.860000000000
30
0.0
11
430.500000000000
21
178.000000000000
31
0.0
0
LINE
5
5f3
100
AcDbEntity
8
0-3_2_2
6
CONTINUOUS
62
7
100
AcDbLine
10
518.420000000000
20
219.860000000000
30
0.0
11
442.840000000000
21
174.240000000000
31
0.0
0
LINE
5
5f4
100
AcDbEntity
8
0-3_2_2
6
CONTINUOUS
62
7
100
AcDbLine
10
533.040000000000
20
219.860000000000
30
0.0
11
442.900000000000
21
165.460000000000
31
0.0
0
LINE
5
5f5
100
AcDbEntity
8
0-3_2_2
6
CONTINUOUS
62
7
100
AcDbLine
10
571.430000000000
20
219.860000000000
30
0.0
11
506.910000000000
21
180.920000000000
31
0.0
0
LINE
5
5f6
100
AcDbEntity
8
0-3_2_2
6
CONTINUOUS
62
7
100
AcDbLine
10
612.440000000000
20
219.860000000000
30
0.0
11
534.400000000000
21
172.760000000000
31
0.0
0
LINE
5
5f7
100
AcDbEntity
8
0-3_2_2
6
CONTINUOUS
62
7
100
AcDbLine
10
626.950000000000
20
219.860000000000
30
0.0
11
544.400000000000
21
170.040000000000
31
0.0
0
LINE
5
5f8
100
AcDbEntity
8
0-3_2_2
6
CONTINUOUS
62
7
100
AcDbLine
10
656.600000000000
20
219.860000000000
30
0.0
11
534.390000000000
21
146.100000000000
31
0.0
0
LINE
5
5f9
100
AcDbEntity
8
0-3_2_2
6
CONTINUOUS
62
7
100
AcDbLine
10
670.140000000000
20
219.860000000000
30
0.0
11
596.020000000000
21
175.120000000000
31
0.0
0
LINE
5
5fa
100
AcDbEntity
8
0-3_2_2
6
CONTINUOUS
62
7
100
AcDbLine
10
684.140000000000
20
219.860000000000
30
0.0
11
605.120000000000
21
172.170000000000
31
0.0
0
LINE
5
5fb
100
AcDbEntity
8
0-3_2_2
6
CONTINUOUS
62
7
100
AcDbLine
10
683.390000000000
20
219.860000000000
30
0.0
11
605.120000000000
21
172.620000000000
31
0.0
0
LINE
5
5fc
100
AcDbEntity
8
0-3_2_2
6
CONTINUOUS
62
7
100
AcDbLine
10
712.760000000000
20
219.860000000000
30
0.0
11
596.260000000000
21
149.540000000000
31
0.0
0
LINE
5
5fd
100
AcDbEntity
8
0-3_2_2
6
CONTINUOUS
62
7
100
AcDbLine
10
787.890000000000
20
180.430000000000
30
0.0
11
719.080000000000
21
138.900000000000
31
0.0
0
LINE
5
5fe
100
AcDbEntity
8
0-3_2_2
6
CONTINUOUS
62
7
100
AcDbLine
10
787.890000000000
20
171.830000000000
30
0.0
11
728.310000000000
21
135.870000000000
31
0.0
0
LINE
5
5ff
100
AcDbEntity
8
0-3_2_2
6
CONTINUOUS
62
7
100
AcDbLine
10
787.890000000000
20
146.170000000000
30
0.0
11
728.220000000000
21
110.160000000000
31
0.0
0
LINE
5
600
100
AcDbEntity
8
0-2_2_1
6
CONTINUOUS
62
4
100
AcDbLine
10
333.120000000000
20
134.090000000000
30
0.0
11
334.750000000000
21
135.710000000000
31
0.0
0
LINE
5
601
100
AcDbEntity
8
0-2_2_1
6
CONTINUOUS
62
4
100
AcDbLine
10
318.980000000000
20
134.090000000000
30
0.0
11
334.750000000000
21
149.850000000000
31
0.0
0
LINE
5
602
100
AcDbEntity
8
0-2_2_1
6
CONTINUOUS
62
4
100
AcDbLine
10
304.840000000000
20
134.090000000000
30
0.0
11
324.840000000000
21
154.090000000000
31
0.0
0
LINE
5
603
100
AcDbEntity
8
0-2_2_1
6
CONTINUOUS
62
4
100
AcDbLine
10
290.690000000000
20
134.090000000000
30
0.0
11
310.690000000000
21
154.090000000000
31
0.0
0
LINE
5
604
100
AcDbEntity
8
0-2_2_1
6
CONTINUOUS
62
4
100
AcDbLine
10
276.550000000000
20
134.090000000000
30
0.0
11
296.550000000000
21
154.090000000000
31
0.0
0
LINE
5
605
100
AcDbEntity
8
0-2_2_1
6
CONTINUOUS
62
4
100
AcDbLine
10
262.410000000000
20
134.090000000000
30
0.0
11
282.410000000000
21
154.090000000000
31
0.0
0
LINE
5
606
100
AcDbEntity
8
0-2_2_1
6
CONTINUOUS
62
4
100
AcDbLine
10
248.270000000000
20
134.090000000000
30
0.0
11
268.270000000000
21
154.090000000000
31
0.0
0
LINE
5
607
100
AcDbEntity
8
0-2_2_1
6
CONTINUOUS
62
4
100
AcDbLine
10
234.130000000000
20
134.090000000000
30
0.0
11
254.130000000000
21
154.090000000000
31
0.0
0
LINE
5
608
100
AcDbEntity
8
0-2_2_1
6
CONTINUOUS
62
4
100
AcDbLine
10
219.980000000000
20
134.090000000000
30
0.0
11
239.980000000000
21
154.090000000000
31
0.0
0
LINE
5
609
100
AcDbEntity
8
0-2_2_1
6
CONTINUOUS
62
4
100
AcDbLine
10
205.840000000000
20
134.090000000000
30
0.0
11
225.840000000000
21
154.090000000000
31
0.0
0
LINE
5
60a
100
AcDbEntity
8
0-2_2_1
6
CONTINUOUS
62
4
100
AcDbLine
10
191.700000000000
20
134.090000000000
30
0.0
11
211.700000000000
21
154.090000000000
31
0.0
0
LINE
5
60b
100
AcDbEntity
8
0-2_2_1
6
CONTINUOUS
62
4
100
AcDbLine
10
177.560000000000
20
134.090000000000
30
0.0
11
197.560000000000
21
154.090000000000
31
0.0
0
LINE
5
60c
100
AcDbEntity
8
0-2_2_1
6
CONTINUOUS
62
4
100
AcDbLine
10
163.420000000000
20
134.090000000000
30
0.0
11
183.420000000000
21
154.090000000000
31
0.0
0
LINE
5
60d
100
AcDbEntity
8
0-2_2_1
6
CONTINUOUS
62
4
100
AcDbLine
10
149.270000000000
20
134.090000000000
30
0.0
11
169.270000000000
21
154.090000000000
31
0.0
0
LINE
5
60e
100
AcDbEntity
8
0-2_2_1
6
CONTINUOUS
62
4
100
AcDbLine
10
135.130000000000
20
134.090000000000
30
0.0
11
155.130000000000
21
154.090000000000
31
0.0
0
LINE
5
60f
100
AcDbEntity
8
0-2_2_1
6
CONTINUOUS
62
4
100
AcDbLine
10
120.990000000000
20
134.090000000000
30
0.0
11
140.990000000000
21
154.090000000000
31
0.0
0
LINE
5
610
100
AcDbEntity
8
0-2_2_1
6
CONTINUOUS
62
4
100
AcDbLine
10
106.850000000000
20
134.090000000000
30
0.0
11
126.850000000000
21
154.090000000000
31
0.0
0
LINE
5
611
100
AcDbEntity
8
0-2_2_1
6
CONTINUOUS
62
4
100
AcDbLine
10
92.700000000000
20
134.090000000000
30
0.0
11
112.700000000000
21
154.090000000000
31
0.0
0
LINE
5
612
100
AcDbEntity
8
0-2_2_1
6
CONTINUOUS
62
4
100
AcDbLine
10
78.560000000000
20
134.090000000000
30
0.0
11
98.560000000000
21
154.090000000000
31
0.0
0
LINE
5
613
100
AcDbEntity
8
0-2_2_1
6
CONTINUOUS
62
4
100
AcDbLine
10
64.750000000000
20
134.410000000000
30
0.0
11
84.420000000000
21
154.090000000000
31
0.0
0
LINE
5
614
100
AcDbEntity
8
0-2_2_1
6
CONTINUOUS
62
4
100
AcDbLine
10
64.750000000000
20
148.550000000000
30
0.0
11
70.280000000000
21
154.090000000000
31
0.0
0
LINE
5
615
100
AcDbEntity
8
0-1_2_0
6
CONTINUOUS
62
7
100
AcDbLine
10
68.390000000000
20
324.850000000000
30
0.0
11
81.890000000000
21
324.850000000000
31
0.0
0
LINE
5
616
100
AcDbEntity
8
0-00
6
CONTINUOUS
62
4
100
AcDbLine
10
142.600000000000
20
507.260000000000
30
0.0
11
148.400000000000
21
508.810000000000
31
0.0
0
LINE
5
617
100
AcDbEntity
8
0-00
6
CONTINUOUS
62
4
100
AcDbLine
10
142.600000000000
20
507.260000000000
30
0.0
11
148.400000000000
21
505.700000000000
31
0.0
0
LINE
5
618
100
AcDbEntity
8
0-00
6
CONTINUOUS
62
4
100
AcDbLine
10
674.610000000000
20
405.260000000000
30
0.0
11
699.610000000000
21
430.260000000000
31
0.0
0
LINE
5
619
100
AcDbEntity
8
0-00
6
CONTINUOUS
62
4
100
AcDbLine
10
660.470000000000
20
405.260000000000
30
0.0
11
685.470000000000
21
430.260000000000
31
0.0
0
LINE
5
61a
100
AcDbEntity
8
0-00
6
CONTINUOUS
62
4
100
AcDbLine
10
646.320000000000
20
405.260000000000
30
0.0
11
671.320000000000
21
430.260000000000
31
0.0
0
LINE
5
61b
100
AcDbEntity
8
0-00
6
CONTINUOUS
62
4
100
AcDbLine
10
632.180000000000
20
405.260000000000
30
0.0
11
657.180000000000
21
430.260000000000
31
0.0
0
LINE
5
61c
100
AcDbEntity
8
0-00
6
CONTINUOUS
62
4
100
AcDbLine
10
618.040000000000
20
405.260000000000
30
0.0
11
643.040000000000
21
430.260000000000
31
0.0
0
LINE
5
61d
100
AcDbEntity
8
0-00
6
CONTINUOUS
62
4
100
AcDbLine
10
603.900000000000
20
405.260000000000
30
0.0
11
628.900000000000
21
430.260000000000
31
0.0
0
LINE
5
61e
100
AcDbEntity
8
0-00
6
CONTINUOUS
62
4
100
AcDbLine
10
589.760000000000
20
405.260000000000
30
0.0
11
614.760000000000
21
430.260000000000
31
0.0
0
LINE
5
61f
100
AcDbEntity
8
0-00
6
CONTINUOUS
62
4
100
AcDbLine
10
575.610000000000
20
405.260000000000
30
0.0
11
600.610000000000
21
430.260000000000
31
0.0
0
LINE
5
620
100
AcDbEntity
8
0-00
6
CONTINUOUS
62
4
100
AcDbLine
10
561.470000000000
20
405.260000000000
30
0.0
11
586.470000000000
21
430.260000000000
31
0.0
0
LINE
5
621
100
AcDbEntity
8
0-00
6
CONTINUOUS
62
4
100
AcDbLine
10
547.330000000000
20
405.260000000000
30
0.0
11
572.330000000000
21
430.260000000000
31
0.0
0
LINE
5
622
100
AcDbEntity
8
0-00
6
CONTINUOUS
62
4
100
AcDbLine
10
533.190000000000
20
405.260000000000
30
0.0
11
558.190000000000
21
430.260000000000
31
0.0
0
LINE
5
623
100
AcDbEntity
8
0-00
6
CONTINUOUS
62
4
100
AcDbLine
10
519.050000000000
20
405.260000000000
30
0.0
11
544.050000000000
21
430.260000000000
31
0.0
0
LINE
5
624
100
AcDbEntity
8
0-00
6
CONTINUOUS
62
4
100
AcDbLine
10
504.900000000000
20
405.260000000000
30
0.0
11
529.900000000000
21
430.260000000000
31
0.0
0
LINE
5
625
100
AcDbEntity
8
0-00
6
CONTINUOUS
62
4
100
AcDbLine
10
490.760000000000
20
405.260000000000
30
0.0
11
515.760000000000
21
430.260000000000
31
0.0
0
LINE
5
626
100
AcDbEntity
8
0-00
6
CONTINUOUS
62
4
100
AcDbLine
10
476.620000000000
20
405.260000000000
30
0.0
11
501.620000000000
21
430.260000000000
31
0.0
0
LINE
5
627
100
AcDbEntity
8
0-00
6
CONTINUOUS
62
4
100
AcDbLine
10
462.480000000000
20
405.260000000000
30
0.0
11
487.480000000000
21
430.260000000000
31
0.0
0
LINE
5
628
100
AcDbEntity
8
0-00
6
CONTINUOUS
62
4
100
AcDbLine
10
448.340000000000
20
405.260000000000
30
0.0
11
473.340000000000
21
430.260000000000
31
0.0
0
LINE
5
629
100
AcDbEntity
8
0-00
6
CONTINUOUS
62
4
100
AcDbLine
10
434.190000000000
20
405.260000000000
30
0.0
11
459.190000000000
21
430.260000000000
31
0.0
0
LINE
5
62a
100
AcDbEntity
8
0-00
6
CONTINUOUS
62
4
100
AcDbLine
10
420.050000000000
20
405.260000000000
30
0.0
11
445.050000000000
21
430.260000000000
31
0.0
0
LINE
5
62b
100
AcDbEntity
8
0-00
6
CONTINUOUS
62
4
100
AcDbLine
10
405.910000000000
20
405.260000000000
30
0.0
11
430.910000000000
21
430.260000000000
31
0.0
0
LINE
5
62c
100
AcDbEntity
8
0-00
6
CONTINUOUS
62
4
100
AcDbLine
10
391.770000000000
20
405.260000000000
30
0.0
11
416.770000000000
21
430.260000000000
31
0.0
0
LINE
5
62d
100
AcDbEntity
8
0-00
6
CONTINUOUS
62
4
100
AcDbLine
10
377.620000000000
20
405.260000000000
30
0.0
11
402.620000000000
21
430.260000000000
31
0.0
0
LINE
5
62e
100
AcDbEntity
8
0-00
6
CONTINUOUS
62
4
100
AcDbLine
10
363.480000000000
20
405.260000000000
30
0.0
11
388.480000000000
21
430.260000000000
31
0.0
0
LINE
5
62f
100
AcDbEntity
8
0-00
6
CONTINUOUS
62
4
100
AcDbLine
10
349.340000000000
20
405.260000000000
30
0.0
11
374.340000000000
21
430.260000000000
31
0.0
0
LINE
5
630
100
AcDbEntity
8
0-00
6
CONTINUOUS
62
4
100
AcDbLine
10
335.200000000000
20
405.260000000000
30
0.0
11
360.200000000000
21
430.260000000000
31
0.0
0
LINE
5
631
100
AcDbEntity
8
0-00
6
CONTINUOUS
62
4
100
AcDbLine
10
321.060000000000
20
405.260000000000
30
0.0
11
346.060000000000
21
430.260000000000
31
0.0
0
LINE
5
632
100
AcDbEntity
8
0-00
6
CONTINUOUS
62
4
100
AcDbLine
10
306.910000000000
20
405.260000000000
30
0.0
11
331.910000000000
21
430.260000000000
31
0.0
0
LINE
5
633
100
AcDbEntity
8
0-00
6
CONTINUOUS
62
4
100
AcDbLine
10
292.770000000000
20
405.260000000000
30
0.0
11
317.770000000000
21
430.260000000000
31
0.0
0
LINE
5
634
100
AcDbEntity
8
0-00
6
CONTINUOUS
62
4
100
AcDbLine
10
278.630000000000
20
405.260000000000
30
0.0
11
303.630000000000
21
430.260000000000
31
0.0
0
LINE
5
635
100
AcDbEntity
8
0-00
6
CONTINUOUS
62
4
100
AcDbLine
10
264.490000000000
20
405.260000000000
30
0.0
11
289.490000000000
21
430.260000000000
31
0.0
0
LINE
5
636
100
AcDbEntity
8
0-00
6
CONTINUOUS
62
4
100
AcDbLine
10
250.350000000000
20
405.260000000000
30
0.0
11
275.350000000000
21
430.260000000000
31
0.0
0
LINE
5
637
100
AcDbEntity
8
0-00
6
CONTINUOUS
62
4
100
AcDbLine
10
236.200000000000
20
405.260000000000
30
0.0
11
261.200000000000
21
430.260000000000
31
0.0
0
LINE
5
638
100
AcDbEntity
8
0-00
6
CONTINUOUS
62
4
100
AcDbLine
10
222.060000000000
20
405.260000000000
30
0.0
11
247.060000000000
21
430.260000000000
31
0.0
0
LINE
5
639
100
AcDbEntity
8
0-00
6
CONTINUOUS
62
4
100
AcDbLine
10
207.920000000000
20
405.260000000000
30
0.0
11
232.920000000000
21
430.260000000000
31
0.0
0
LINE
5
63a
100
AcDbEntity
8
0-00
6
CONTINUOUS
62
4
100
AcDbLine
10
193.780000000000
20
405.260000000000
30
0.0
11
218.780000000000
21
430.260000000000
31
0.0
0
LINE
5
63b
100
AcDbEntity
8
0-00
6
CONTINUOUS
62
4
100
AcDbLine
10
179.630000000000
20
405.260000000000
30
0.0
11
204.630000000000
21
430.260000000000
31
0.0
0
LINE
5
63c
100
AcDbEntity
8
0-00
6
CONTINUOUS
62
4
100
AcDbLine
10
165.490000000000
20
405.260000000000
30
0.0
11
190.490000000000
21
430.260000000000
31
0.0
0
LINE
5
63d
100
AcDbEntity
8
0-00
6
CONTINUOUS
62
4
100
AcDbLine
10
151.350000000000
20
405.260000000000
30
0.0
11
176.350000000000
21
430.260000000000
31
0.0
0
LINE
5
63e
100
AcDbEntity
8
0-00
6
CONTINUOUS
62
4
100
AcDbLine
10
212.600000000000
20
507.260000000000
30
0.0
11
630.600000000000
21
507.260000000000
31
0.0
0
LINE
5
63f
100
AcDbEntity
8
0-00
6
CONTINUOUS
62
7
100
AcDbLine
10
196.600000000000
20
432.760000000000
30
0.0
11
212.600000000000
21
432.760000000000
31
0.0
0
LINE
5
640
100
AcDbEntity
8
0-00
6
CONTINUOUS
62
7
100
AcDbLine
10
196.600000000000
20
432.260000000000
30
0.0
11
212.600000000000
21
432.260000000000
31
0.0
0
LINE
5
641
100
AcDbEntity
8
0-00
6
CONTINUOUS
62
7
100
AcDbLine
10
197.600000000000
20
453.260000000000
30
0.0
11
212.600000000000
21
453.260000000000
31
0.0
0
LINE
5
642
100
AcDbEntity
8
0-00
6
CONTINUOUS
62
7
100
AcDbLine
10
197.600000000000
20
452.760000000000
30
0.0
11
212.600000000000
21
452.760000000000
31
0.0
0
LINE
5
643
100
AcDbEntity
8
0-00
6
CONTINUOUS
62
7
100
AcDbLine
10
191.600000000000
20
449.500000000000
30
0.0
11
192.100000000000
21
449.500000000000
31
0.0
0
LINE
5
644
100
AcDbEntity
8
0-00
6
CONTINUOUS
62
7
100
AcDbLine
10
192.600000000000
20
449.500000000000
30
0.0
11
193.100000000000
21
449.500000000000
31
0.0
0
LINE
5
645
100
AcDbEntity
8
0-00
6
CONTINUOUS
62
7
100
AcDbLine
10
193.600000000000
20
456.860000000000
30
0.0
11
193.600000000000
21
449.500000000000
31
0.0
0
LINE
5
646
100
AcDbEntity
8
0-00
6
CONTINUOUS
62
7
100
AcDbLine
10
194.100000000000
20
456.860000000000
30
0.0
11
193.600000000000
21
456.860000000000
31
0.0
0
LINE
5
647
100
AcDbEntity
8
0-00
6
CONTINUOUS
62
7
100
AcDbLine
10
194.100000000000
20
456.860000000000
30
0.0
11
194.100000000000
21
449.500000000000
31
0.0
0
LINE
5
648
100
AcDbEntity
8
0-00
6
CONTINUOUS
62
7
100
AcDbLine
10
196.600000000000
20
460.760000000000
30
0.0
11
196.600000000000
21
453.760000000000
31
0.0
0
LINE
5
649
100
AcDbEntity
8
0-00
6
CONTINUOUS
62
7
100
AcDbLine
10
194.600000000000
20
462.760000000000
30
0.0
11
193.850000000000
21
462.760000000000
31
0.0
0
LINE
5
64a
100
AcDbEntity
8
0-00
6
CONTINUOUS
62
7
100
AcDbLine
10
193.850000000000
20
463.260000000000
30
0.0
11
194.600000000000
21
463.260000000000
31
0.0
0
LINE
5
64b
100
AcDbEntity
8
0-00
6
CONTINUOUS
62
7
100
AcDbLine
10
197.100000000000
20
453.760000000000
30
0.0
11
197.100000000000
21
460.760000000000
31
0.0
0
LINE
5
64c
100
AcDbEntity
8
0-00
6
CONTINUOUS
62
7
100
AcDbLine
10
193.100000000000
20
462.760000000000
30
0.0
11
193.850000000000
21
462.760000000000
31
0.0
0
LINE
5
64d
100
AcDbEntity
8
0-00
6
CONTINUOUS
62
7
100
AcDbLine
10
193.850000000000
20
463.260000000000
30
0.0
11
193.100000000000
21
463.260000000000
31
0.0
0
LINE
5
64e
100
AcDbEntity
8
0-00
6
CONTINUOUS
62
7
100
AcDbLine
10
191.100000000000
20
460.760000000000
30
0.0
11
191.100000000000
21
449.500000000000
31
0.0
0
LINE
5
64f
100
AcDbEntity
8
0-00
6
CONTINUOUS
62
7
100
AcDbLine
10
190.600000000000
20
449.500000000000
30
0.0
11
190.600000000000
21
460.760000000000
31
0.0
0
LINE
5
650
100
AcDbEntity
8
0-00
6
CONTINUOUS
62
7
100
AcDbLine
10
196.100000000000
20
433.260000000000
30
0.0
11
196.100000000000
21
460.760000000000
31
0.0
0
LINE
5
651
100
AcDbEntity
8
0-00
6
CONTINUOUS
62
7
100
AcDbLine
10
195.600000000000
20
460.760000000000
30
0.0
11
195.600000000000
21
433.260000000000
31
0.0
0
LINE
5
652
100
AcDbEntity
8
0-00
6
CONTINUOUS
62
7
100
AcDbLine
10
194.600000000000
20
461.760000000000
30
0.0
11
193.850000000000
21
461.760000000000
31
0.0
0
LINE
5
653
100
AcDbEntity
8
0-00
6
CONTINUOUS
62
7
100
AcDbLine
10
194.600000000000
20
462.260000000000
30
0.0
11
193.850000000000
21
462.260000000000
31
0.0
0
LINE
5
654
100
AcDbEntity
8
0-00
6
CONTINUOUS
62
7
100
AcDbLine
10
193.100000000000
20
461.760000000000
30
0.0
11
193.850000000000
21
461.760000000000
31
0.0
0
LINE
5
655
100
AcDbEntity
8
0-00
6
CONTINUOUS
62
7
100
AcDbLine
10
193.100000000000
20
462.260000000000
30
0.0
11
193.850000000000
21
462.260000000000
31
0.0
0
LINE
5
656
100
AcDbEntity
8
0-00
6
CONTINUOUS
62
7
100
AcDbLine
10
191.600000000000
20
449.500000000000
30
0.0
11
191.600000000000
21
460.760000000000
31
0.0
0
LINE
5
657
100
AcDbEntity
8
0-00
6
CONTINUOUS
62
7
100
AcDbLine
10
192.100000000000
20
460.760000000000
30
0.0
11
192.100000000000
21
449.500000000000
31
0.0
0
LINE
5
658
100
AcDbEntity
8
0-00
6
CONTINUOUS
62
7
100
AcDbLine
10
193.100000000000
20
460.760000000000
30
0.0
11
193.850000000000
21
460.760000000000
31
0.0
0
LINE
5
659
100
AcDbEntity
8
0-00
6
CONTINUOUS
62
7
100
AcDbLine
10
193.100000000000
20
460.760000000000
30
0.0
11
193.100000000000
21
449.500000000000
31
0.0
0
LINE
5
65a
100
AcDbEntity
8
0-00
6
CONTINUOUS
62
7
100
AcDbLine
10
192.600000000000
20
449.500000000000
30
0.0
11
192.600000000000
21
460.760000000000
31
0.0
0
LINE
5
65b
100
AcDbEntity
8
0-00
6
CONTINUOUS
62
7
100
AcDbLine
10
193.100000000000
20
461.260000000000
30
0.0
11
193.850000000000
21
461.260000000000
31
0.0
0
LINE
5
65c
100
AcDbEntity
8
0-00
6
CONTINUOUS
62
7
100
AcDbLine
10
194.600000000000
20
460.760000000000
30
0.0
11
193.850000000000
21
460.760000000000
31
0.0
0
LINE
5
65d
100
AcDbEntity
8
0-00
6
CONTINUOUS
62
7
100
AcDbLine
10
194.600000000000
20
461.260000000000
30
0.0
11
193.850000000000
21
461.260000000000
31
0.0
0
LINE
5
65e
100
AcDbEntity
8
0-00
6
CONTINUOUS
62
7
100
AcDbLine
10
194.600000000000
20
433.260000000000
30
0.0
11
194.600000000000
21
460.760000000000
31
0.0
0
LINE
5
65f
100
AcDbEntity
8
0-00
6
CONTINUOUS
62
7
100
AcDbLine
10
195.100000000000
20
460.760000000000
30
0.0
11
195.100000000000
21
433.260000000000
31
0.0
0
LINE
5
660
100
AcDbEntity
8
0-00
6
CONTINUOUS
62
7
100
AcDbLine
10
228.600000000000
20
432.760000000000
30
0.0
11
212.600000000000
21
432.760000000000
31
0.0
0
LINE
5
661
100
AcDbEntity
8
0-00
6
CONTINUOUS
62
7
100
AcDbLine
10
228.600000000000
20
432.260000000000
30
0.0
11
212.600000000000
21
432.260000000000
31
0.0
0
LINE
5
662
100
AcDbEntity
8
0-00
6
CONTINUOUS
62
7
100
AcDbLine
10
227.600000000000
20
453.260000000000
30
0.0
11
212.600000000000
21
453.260000000000
31
0.0
0
LINE
5
663
100
AcDbEntity
8
0-00
6
CONTINUOUS
62
7
100
AcDbLine
10
227.600000000000
20
452.760000000000
30
0.0
11
212.600000000000
21
452.760000000000
31
0.0
0
LINE
5
664
100
AcDbEntity
8
0-00
6
CONTINUOUS
62
7
100
AcDbLine
10
233.600000000000
20
449.500000000000
30
0.0
11
233.100000000000
21
449.500000000000
31
0.0
0
LINE
5
665
100
AcDbEntity
8
0-00
6
CONTINUOUS
62
7
100
AcDbLine
10
232.600000000000
20
449.500000000000
30
0.0
11
232.100000000000
21
449.500000000000
31
0.0
0
LINE
5
666
100
AcDbEntity
8
0-00
6
CONTINUOUS
62
7
100
AcDbLine
10
231.600000000000
20
456.860000000000
30
0.0
11
231.600000000000
21
449.500000000000
31
0.0
0
LINE
5
667
100
AcDbEntity
8
0-00
6
CONTINUOUS
62
7
100
AcDbLine
10
231.100000000000
20
456.860000000000
30
0.0
11
231.600000000000
21
456.860000000000
31
0.0
0
LINE
5
668
100
AcDbEntity
8
0-00
6
CONTINUOUS
62
7
100
AcDbLine
10
231.100000000000
20
456.860000000000
30
0.0
11
231.100000000000
21
449.500000000000
31
0.0
0
LINE
5
669
100
AcDbEntity
8
0-00
6
CONTINUOUS
62
7
100
AcDbLine
10
228.600000000000
20
460.760000000000
30
0.0
11
228.600000000000
21
453.760000000000
31
0.0
0
LINE
5
66a
100
AcDbEntity
8
0-00
6
CONTINUOUS
62
7
100
AcDbLine
10
230.600000000000
20
462.760000000000
30
0.0
11
231.350000000000
21
462.760000000000
31
0.0
0
LINE
5
66b
100
AcDbEntity
8
0-00
6
CONTINUOUS
62
7
100
AcDbLine
10
231.350000000000
20
463.260000000000
30
0.0
11
230.600000000000
21
463.260000000000
31
0.0
0
LINE
5
66c
100
AcDbEntity
8
0-00
6
CONTINUOUS
62
7
100
AcDbLine
10
228.100000000000
20
453.760000000000
30
0.0
11
228.100000000000
21
460.760000000000
31
0.0
0
LINE
5
66d
100
AcDbEntity
8
0-00
6
CONTINUOUS
62
7
100
AcDbLine
10
232.100000000000
20
462.760000000000
30
0.0
11
231.350000000000
21
462.760000000000
31
0.0
0
LINE
5
66e
100
AcDbEntity
8
0-00
6
CONTINUOUS
62
7
100
AcDbLine
10
231.350000000000
20
463.260000000000
30
0.0
11
232.100000000000
21
463.260000000000
31
0.0
0
LINE
5
66f
100
AcDbEntity
8
0-00
6
CONTINUOUS
62
7
100
AcDbLine
10
234.100000000000
20
460.760000000000
30
0.0
11
234.100000000000
21
449.500000000000
31
0.0
0
LINE
5
670
100
AcDbEntity
8
0-00
6
CONTINUOUS
62
7
100
AcDbLine
10
234.600000000000
20
449.500000000000
30
0.0
11
234.600000000000
21
460.760000000000
31
0.0
0
LINE
5
671
100
AcDbEntity
8
0-00
6
CONTINUOUS
62
7
100
AcDbLine
10
229.100000000000
20
433.260000000000
30
0.0
11
229.100000000000
21
460.760000000000
31
0.0
0
LINE
5
672
100
AcDbEntity
8
0-00
6
CONTINUOUS
62
7
100
AcDbLine
10
229.600000000000
20
460.760000000000
30
0.0
11
229.600000000000
21
433.260000000000
31
0.0
0
LINE
5
673
100
AcDbEntity
8
0-00
6
CONTINUOUS
62
7
100
AcDbLine
10
230.600000000000
20
461.760000000000
30
0.0
11
231.350000000000
21
461.760000000000
31
0.0
0
LINE
5
674
100
AcDbEntity
8
0-00
6
CONTINUOUS
62
7
100
AcDbLine
10
230.600000000000
20
462.260000000000
30
0.0
11
231.350000000000
21
462.260000000000
31
0.0
0
LINE
5
675
100
AcDbEntity
8
0-00
6
CONTINUOUS
62
7
100
AcDbLine
10
232.100000000000
20
461.760000000000
30
0.0
11
231.350000000000
21
461.760000000000
31
0.0
0
LINE
5
676
100
AcDbEntity
8
0-00
6
CONTINUOUS
62
7
100
AcDbLine
10
232.100000000000
20
462.260000000000
30
0.0
11
231.350000000000
21
462.260000000000
31
0.0
0
LINE
5
677
100
AcDbEntity
8
0-00
6
CONTINUOUS
62
7
100
AcDbLine
10
233.600000000000
20
449.500000000000
30
0.0
11
233.600000000000
21
460.760000000000
31
0.0
0
LINE
5
678
100
AcDbEntity
8
0-00
6
CONTINUOUS
62
7
100
AcDbLine
10
233.100000000000
20
460.760000000000
30
0.0
11
233.100000000000
21
449.500000000000
31
0.0
0
LINE
5
679
100
AcDbEntity
8
0-00
6
CONTINUOUS
62
7
100
AcDbLine
10
232.100000000000
20
460.760000000000
30
0.0
11
231.350000000000
21
460.760000000000
31
0.0
0
LINE
5
67a
100
AcDbEntity
8
0-00
6
CONTINUOUS
62
7
100
AcDbLine
10
232.100000000000
20
460.760000000000
30
0.0
11
232.100000000000
21
449.500000000000
31
0.0
0
LINE
5
67b
100
AcDbEntity
8
0-00
6
CONTINUOUS
62
7
100
AcDbLine
10
232.600000000000
20
449.500000000000
30
0.0
11
232.600000000000
21
460.760000000000
31
0.0
0
LINE
5
67c
100
AcDbEntity
8
0-00
6
CONTINUOUS
62
7
100
AcDbLine
10
232.100000000000
20
461.260000000000
30
0.0
11
231.350000000000
21
461.260000000000
31
0.0
0
LINE
5
67d
100
AcDbEntity
8
0-00
6
CONTINUOUS
62
7
100
AcDbLine
10
230.600000000000
20
460.760000000000
30
0.0
11
231.350000000000
21
460.760000000000
31
0.0
0
LINE
5
67e
100
AcDbEntity
8
0-00
6
CONTINUOUS
62
7
100
AcDbLine
10
230.600000000000
20
461.260000000000
30
0.0
11
231.350000000000
21
461.260000000000
31
0.0
0
LINE
5
67f
100
AcDbEntity
8
0-00
6
CONTINUOUS
62
7
100
AcDbLine
10
230.600000000000
20
433.260000000000
30
0.0
11
230.600000000000
21
460.760000000000
31
0.0
0
LINE
5
680
100
AcDbEntity
8
0-00
6
CONTINUOUS
62
7
100
AcDbLine
10
230.100000000000
20
460.760000000000
30
0.0
11
230.100000000000
21
433.260000000000
31
0.0
0
LINE
5
681
100
AcDbEntity
8
0-00
6
CONTINUOUS
62
7
100
AcDbLine
10
209.360000000000
20
418.150000000000
30
0.0
11
215.840000000000
21
419.230000000000
31
0.0
0
LINE
5
682
100
AcDbEntity
8
0-00
6
CONTINUOUS
62
7
100
AcDbLine
10
209.360000000000
20
420.310000000000
30
0.0
11
215.840000000000
21
421.390000000000
31
0.0
0
LINE
5
683
100
AcDbEntity
8
0-00
6
CONTINUOUS
62
7
100
AcDbLine
10
209.360000000000
20
424.640000000000
30
0.0
11
215.840000000000
21
425.720000000000
31
0.0
0
LINE
5
684
100
AcDbEntity
8
0-00
6
CONTINUOUS
62
7
100
AcDbLine
10
209.360000000000
20
422.470000000000
30
0.0
11
215.840000000000
21
423.560000000000
31
0.0
0
LINE
5
685
100
AcDbEntity
8
0-00
6
CONTINUOUS
62
7
100
AcDbLine
10
209.360000000000
20
426.800000000000
30
0.0
11
215.840000000000
21
427.880000000000
31
0.0
0
LINE
5
686
100
AcDbEntity
8
0-00
6
CONTINUOUS
62
7
100
AcDbLine
10
209.360000000000
20
428.960000000000
30
0.0
11
215.840000000000
21
430.040000000000
31
0.0
0
LINE
5
687
100
AcDbEntity
8
0-00
6
CONTINUOUS
62
7
100
AcDbLine
10
215.300000000000
20
392.220000000000
30
0.0
11
212.600000000000
21
390.060000000000
31
0.0
0
LINE
5
688
100
AcDbEntity
8
0-00
6
CONTINUOUS
62
7
100
AcDbLine
10
209.900000000000
20
392.220000000000
30
0.0
11
212.600000000000
21
390.060000000000
31
0.0
0
LINE
5
689
100
AcDbEntity
8
0-00
6
CONTINUOUS
62
7
100
AcDbLine
10
209.360000000000
20
413.830000000000
30
0.0
11
215.840000000000
21
414.910000000000
31
0.0
0
LINE
5
68a
100
AcDbEntity
8
0-00
6
CONTINUOUS
62
7
100
AcDbLine
10
209.360000000000
20
415.990000000000
30
0.0
11
215.840000000000
21
417.070000000000
31
0.0
0
LINE
5
68b
100
AcDbEntity
8
0-00
6
CONTINUOUS
62
7
100
AcDbLine
10
209.360000000000
20
409.500000000000
30
0.0
11
215.840000000000
21
410.580000000000
31
0.0
0
LINE
5
68c
100
AcDbEntity
8
0-00
6
CONTINUOUS
62
7
100
AcDbLine
10
209.360000000000
20
411.660000000000
30
0.0
11
215.840000000000
21
412.750000000000
31
0.0
0
LINE
5
68d
100
AcDbEntity
8
0-00
6
CONTINUOUS
62
7
100
AcDbLine
10
209.360000000000
20
405.180000000000
30
0.0
11
215.840000000000
21
406.260000000000
31
0.0
0
LINE
5
68e
100
AcDbEntity
8
0-00
6
CONTINUOUS
62
7
100
AcDbLine
10
209.360000000000
20
407.340000000000
30
0.0
11
215.840000000000
21
408.420000000000
31
0.0
0
LINE
5
68f
100
AcDbEntity
8
0-00
6
CONTINUOUS
62
7
100
AcDbLine
10
215.300000000000
20
438.240000000000
30
0.0
11
215.300000000000
21
435.340000000000
31
0.0
0
LINE
5
690
100
AcDbEntity
8
0-00
6
CONTINUOUS
62
7
100
AcDbLine
10
209.900000000000
20
435.340000000000
30
0.0
11
209.900000000000
21
438.240000000000
31
0.0
0
LINE
5
691
100
AcDbEntity
8
0-00
6
CONTINUOUS
62
7
100
AcDbLine
10
209.360000000000
20
400.860000000000
30
0.0
11
215.840000000000
21
401.940000000000
31
0.0
0
LINE
5
692
100
AcDbEntity
8
0-00
6
CONTINUOUS
62
7
100
AcDbLine
10
209.360000000000
20
403.020000000000
30
0.0
11
215.840000000000
21
404.100000000000
31
0.0
0
LINE
5
693
100
AcDbEntity
8
0-00
6
CONTINUOUS
62
7
100
AcDbLine
10
215.300000000000
20
392.220000000000
30
0.0
11
215.300000000000
21
432.760000000000
31
0.0
0
LINE
5
694
100
AcDbEntity
8
0-00
6
CONTINUOUS
62
7
100
AcDbLine
10
209.900000000000
20
392.220000000000
30
0.0
11
209.900000000000
21
432.760000000000
31
0.0
0
LINE
5
695
100
AcDbEntity
8
0-00
6
CONTINUOUS
62
7
100
AcDbLine
10
209.360000000000
20
431.120000000000
30
0.0
11
215.840000000000
21
432.200000000000
31
0.0
0
POLYLINE
5
696
100
AcDbEntity
8
0-00
6
CONTINUOUS
62
  7
100
AcDb2dPolyline
66
1
10
0.0
20
0.0
30
0.0
70
0
0
VERTEX
5
697
100
AcDbEntity
8
0-00
6
CONTINUOUS
62
  7
100
AcDbVertex
100
AcDb2dVertex
10
207.610000000000
20
435.340000000000
30
0.0
0
VERTEX
5
698
100
AcDbEntity
8
0-00
6
CONTINUOUS
62
  7
100
AcDbVertex
100
AcDb2dVertex
10
217.590000000000
20
435.340000000000
30
0.0
0
VERTEX
5
699
100
AcDbEntity
8
0-00
6
CONTINUOUS
62
  7
100
AcDbVertex
100
AcDb2dVertex
10
217.590000000000
20
438.240000000000
30
0.0
0
VERTEX
5
69a
100
AcDbEntity
8
0-00
6
CONTINUOUS
62
  7
100
AcDbVertex
100
AcDb2dVertex
10
215.300000000000
20
438.240000000000
30
0.0
0
VERTEX
5
69b
100
AcDbEntity
8
0-00
6
CONTINUOUS
62
  7
100
AcDbVertex
100
AcDb2dVertex
10
209.900000000000
20
438.240000000000
30
0.0
0
VERTEX
5
69c
100
AcDbEntity
8
0-00
6
CONTINUOUS
62
  7
100
AcDbVertex
100
AcDb2dVertex
10
207.610000000000
20
438.240000000000
30
0.0
0
VERTEX
5
69d
100
AcDbEntity
8
0-00
6
CONTINUOUS
62
  7
100
AcDbVertex
100
AcDb2dVertex
10
207.610000000000
20
435.340000000000
30
0.0
0
SEQEND
5
69e
100
AcDbEntity
8
0-00
0
POLYLINE
5
69f
100
AcDbEntity
8
0-00
6
CONTINUOUS
62
  7
100
AcDb2dPolyline
66
1
10
0.0
20
0.0
30
0.0
70
0
0
VERTEX
5
6a0
100
AcDbEntity
8
0-00
6
CONTINUOUS
62
  7
100
AcDbVertex
100
AcDb2dVertex
10
206.110000000000
20
434.260000000000
30
0.0
0
VERTEX
5
6a1
100
AcDbEntity
8
0-00
6
CONTINUOUS
62
  7
100
AcDbVertex
100
AcDb2dVertex
10
219.090000000000
20
434.260000000000
30
0.0
0
VERTEX
5
6a2
100
AcDbEntity
8
0-00
6
CONTINUOUS
62
  7
100
AcDbVertex
100
AcDb2dVertex
10
219.090000000000
20
435.340000000000
30
0.0
0
VERTEX
5
6a3
100
AcDbEntity
8
0-00
6
CONTINUOUS
62
  7
100
AcDbVertex
100
AcDb2dVertex
10
206.110000000000
20
435.340000000000
30
0.0
0
VERTEX
5
6a4
100
AcDbEntity
8
0-00
6
CONTINUOUS
62
  7
100
AcDbVertex
100
AcDb2dVertex
10
206.110000000000
20
434.260000000000
30
0.0
0
SEQEND
5
6a5
100
AcDbEntity
8
0-00
0
POLYLINE
5
6a6
100
AcDbEntity
8
0-00
6
CONTINUOUS
62
  7
100
AcDb2dPolyline
66
1
10
0.0
20
0.0
30
0.0
70
0
0
VERTEX
5
6a7
100
AcDbEntity
8
0-00
6
CONTINUOUS
62
  7
100
AcDbVertex
100
AcDb2dVertex
10
213.680000000000
20
391.140000000000
30
0.0
0
VERTEX
5
6a8
100
AcDbEntity
8
0-00
6
CONTINUOUS
62
  7
100
AcDbVertex
100
AcDb2dVertex
10
212.600000000000
20
392.220000000000
30
0.0
0
VERTEX
5
6a9
100
AcDbEntity
8
0-00
6
CONTINUOUS
62
  7
100
AcDbVertex
100
AcDb2dVertex
10
213.330000000000
20
393.700000000000
30
0.0
0
VERTEX
5
6aa
100
AcDbEntity
8
0-00
6
CONTINUOUS
62
  7
100
AcDbVertex
100
AcDb2dVertex
10
211.680000000000
20
394.630000000000
30
0.0
0
VERTEX
5
6ab
100
AcDbEntity
8
0-00
6
CONTINUOUS
62
  7
100
AcDbVertex
100
AcDb2dVertex
10
209.900000000000
20
392.220000000000
30
0.0
0
SEQEND
5
6ac
100
AcDbEntity
8
0-00
0
LINE
5
6ad
100
AcDbEntity
8
0-00
6
CONTINUOUS
62
7
100
AcDbLine
10
198.100000000000
20
432.760000000000
30
0.0
11
227.100000000000
21
432.760000000000
31
0.0
0
LINE
5
6ae
100
AcDbEntity
8
0-00
6
CONTINUOUS
62
7
100
AcDbLine
10
198.100000000000
20
432.760000000000
30
0.0
11
198.100000000000
21
434.260000000000
31
0.0
0
LINE
5
6af
100
AcDbEntity
8
0-00
6
CONTINUOUS
62
7
100
AcDbLine
10
227.100000000000
20
434.260000000000
30
0.0
11
198.100000000000
21
434.260000000000
31
0.0
0
LINE
5
6b0
100
AcDbEntity
8
0-00
6
CONTINUOUS
62
7
100
AcDbLine
10
227.100000000000
20
432.760000000000
30
0.0
11
227.100000000000
21
434.260000000000
31
0.0
0
LINE
5
6b1
100
AcDbEntity
8
0-00
6
CONTINUOUS
62
7
100
AcDbLine
10
614.600000000000
20
432.760000000000
30
0.0
11
630.600000000000
21
432.760000000000
31
0.0
0
LINE
5
6b2
100
AcDbEntity
8
0-00
6
CONTINUOUS
62
7
100
AcDbLine
10
614.600000000000
20
432.260000000000
30
0.0
11
630.600000000000
21
432.260000000000
31
0.0
0
LINE
5
6b3
100
AcDbEntity
8
0-00
6
CONTINUOUS
62
7
100
AcDbLine
10
615.600000000000
20
453.260000000000
30
0.0
11
630.600000000000
21
453.260000000000
31
0.0
0
LINE
5
6b4
100
AcDbEntity
8
0-00
6
CONTINUOUS
62
7
100
AcDbLine
10
615.600000000000
20
452.760000000000
30
0.0
11
630.600000000000
21
452.760000000000
31
0.0
0
LINE
5
6b5
100
AcDbEntity
8
0-00
6
CONTINUOUS
62
7
100
AcDbLine
10
609.600000000000
20
449.500000000000
30
0.0
11
610.100000000000
21
449.500000000000
31
0.0
0
LINE
5
6b6
100
AcDbEntity
8
0-00
6
CONTINUOUS
62
7
100
AcDbLine
10
610.600000000000
20
449.500000000000
30
0.0
11
611.100000000000
21
449.500000000000
31
0.0
0
LINE
5
6b7
100
AcDbEntity
8
0-00
6
CONTINUOUS
62
7
100
AcDbLine
10
611.600000000000
20
456.860000000000
30
0.0
11
611.600000000000
21
449.500000000000
31
0.0
0
LINE
5
6b8
100
AcDbEntity
8
0-00
6
CONTINUOUS
62
7
100
AcDbLine
10
612.100000000000
20
456.860000000000
30
0.0
11
611.600000000000
21
456.860000000000
31
0.0
0
LINE
5
6b9
100
AcDbEntity
8
0-00
6
CONTINUOUS
62
7
100
AcDbLine
10
612.100000000000
20
456.860000000000
30
0.0
11
612.100000000000
21
449.500000000000
31
0.0
0
LINE
5
6ba
100
AcDbEntity
8
0-00
6
CONTINUOUS
62
7
100
AcDbLine
10
614.600000000000
20
460.760000000000
30
0.0
11
614.600000000000
21
453.760000000000
31
0.0
0
LINE
5
6bb
100
AcDbEntity
8
0-00
6
CONTINUOUS
62
7
100
AcDbLine
10
612.600000000000
20
462.760000000000
30
0.0
11
611.850000000000
21
462.760000000000
31
0.0
0
LINE
5
6bc
100
AcDbEntity
8
0-00
6
CONTINUOUS
62
7
100
AcDbLine
10
611.850000000000
20
463.260000000000
30
0.0
11
612.600000000000
21
463.260000000000
31
0.0
0
LINE
5
6bd
100
AcDbEntity
8
0-00
6
CONTINUOUS
62
7
100
AcDbLine
10
615.100000000000
20
453.760000000000
30
0.0
11
615.100000000000
21
460.760000000000
31
0.0
0
LINE
5
6be
100
AcDbEntity
8
0-00
6
CONTINUOUS
62
7
100
AcDbLine
10
611.100000000000
20
462.760000000000
30
0.0
11
611.850000000000
21
462.760000000000
31
0.0
0
LINE
5
6bf
100
AcDbEntity
8
0-00
6
CONTINUOUS
62
7
100
AcDbLine
10
611.850000000000
20
463.260000000000
30
0.0
11
611.100000000000
21
463.260000000000
31
0.0
0
LINE
5
6c0
100
AcDbEntity
8
0-00
6
CONTINUOUS
62
7
100
AcDbLine
10
609.100000000000
20
460.760000000000
30
0.0
11
609.100000000000
21
449.500000000000
31
0.0
0
LINE
5
6c1
100
AcDbEntity
8
0-00
6
CONTINUOUS
62
7
100
AcDbLine
10
608.600000000000
20
449.500000000000
30
0.0
11
608.600000000000
21
460.760000000000
31
0.0
0
LINE
5
6c2
100
AcDbEntity
8
0-00
6
CONTINUOUS
62
7
100
AcDbLine
10
614.100000000000
20
433.260000000000
30
0.0
11
614.100000000000
21
460.760000000000
31
0.0
0
LINE
5
6c3
100
AcDbEntity
8
0-00
6
CONTINUOUS
62
7
100
AcDbLine
10
613.600000000000
20
460.760000000000
30
0.0
11
613.600000000000
21
433.260000000000
31
0.0
0
LINE
5
6c4
100
AcDbEntity
8
0-00
6
CONTINUOUS
62
7
100
AcDbLine
10
612.600000000000
20
461.760000000000
30
0.0
11
611.850000000000
21
461.760000000000
31
0.0
0
LINE
5
6c5
100
AcDbEntity
8
0-00
6
CONTINUOUS
62
7
100
AcDbLine
10
612.600000000000
20
462.260000000000
30
0.0
11
611.850000000000
21
462.260000000000
31
0.0
0
LINE
5
6c6
100
AcDbEntity
8
0-00
6
CONTINUOUS
62
7
100
AcDbLine
10
611.100000000000
20
461.760000000000
30
0.0
11
611.850000000000
21
461.760000000000
31
0.0
0
LINE
5
6c7
100
AcDbEntity
8
0-00
6
CONTINUOUS
62
7
100
AcDbLine
10
611.100000000000
20
462.260000000000
30
0.0
11
611.850000000000
21
462.260000000000
31
0.0
0
LINE
5
6c8
100
AcDbEntity
8
0-00
6
CONTINUOUS
62
7
100
AcDbLine
10
609.600000000000
20
449.500000000000
30
0.0
11
609.600000000000
21
460.760000000000
31
0.0
0
LINE
5
6c9
100
AcDbEntity
8
0-00
6
CONTINUOUS
62
7
100
AcDbLine
10
610.100000000000
20
460.760000000000
30
0.0
11
610.100000000000
21
449.500000000000
31
0.0
0
LINE
5
6ca
100
AcDbEntity
8
0-00
6
CONTINUOUS
62
7
100
AcDbLine
10
611.100000000000
20
460.760000000000
30
0.0
11
611.850000000000
21
460.760000000000
31
0.0
0
LINE
5
6cb
100
AcDbEntity
8
0-00
6
CONTINUOUS
62
7
100
AcDbLine
10
611.100000000000
20
460.760000000000
30
0.0
11
611.100000000000
21
449.500000000000
31
0.0
0
LINE
5
6cc
100
AcDbEntity
8
0-00
6
CONTINUOUS
62
7
100
AcDbLine
10
610.600000000000
20
449.500000000000
30
0.0
11
610.600000000000
21
460.760000000000
31
0.0
0
LINE
5
6cd
100
AcDbEntity
8
0-00
6
CONTINUOUS
62
7
100
AcDbLine
10
611.100000000000
20
461.260000000000
30
0.0
11
611.850000000000
21
461.260000000000
31
0.0
0
LINE
5
6ce
100
AcDbEntity
8
0-00
6
CONTINUOUS
62
7
100
AcDbLine
10
612.600000000000
20
460.760000000000
30
0.0
11
611.850000000000
21
460.760000000000
31
0.0
0
LINE
5
6cf
100
AcDbEntity
8
0-00
6
CONTINUOUS
62
7
100
AcDbLine
10
612.600000000000
20
461.260000000000
30
0.0
11
611.850000000000
21
461.260000000000
31
0.0
0
LINE
5
6d0
100
AcDbEntity
8
0-00
6
CONTINUOUS
62
7
100
AcDbLine
10
612.600000000000
20
433.260000000000
30
0.0
11
612.600000000000
21
460.760000000000
31
0.0
0
LINE
5
6d1
100
AcDbEntity
8
0-00
6
CONTINUOUS
62
7
100
AcDbLine
10
613.100000000000
20
460.760000000000
30
0.0
11
613.100000000000
21
433.260000000000
31
0.0
0
LINE
5
6d2
100
AcDbEntity
8
0-00
6
CONTINUOUS
62
7
100
AcDbLine
10
646.600000000000
20
432.760000000000
30
0.0
11
630.600000000000
21
432.760000000000
31
0.0
0
LINE
5
6d3
100
AcDbEntity
8
0-00
6
CONTINUOUS
62
7
100
AcDbLine
10
646.600000000000
20
432.260000000000
30
0.0
11
630.600000000000
21
432.260000000000
31
0.0
0
LINE
5
6d4
100
AcDbEntity
8
0-00
6
CONTINUOUS
62
7
100
AcDbLine
10
645.600000000000
20
453.260000000000
30
0.0
11
630.600000000000
21
453.260000000000
31
0.0
0
LINE
5
6d5
100
AcDbEntity
8
0-00
6
CONTINUOUS
62
7
100
AcDbLine
10
645.600000000000
20
452.760000000000
30
0.0
11
630.600000000000
21
452.760000000000
31
0.0
0
LINE
5
6d6
100
AcDbEntity
8
0-00
6
CONTINUOUS
62
7
100
AcDbLine
10
651.600000000000
20
449.500000000000
30
0.0
11
651.100000000000
21
449.500000000000
31
0.0
0
LINE
5
6d7
100
AcDbEntity
8
0-00
6
CONTINUOUS
62
7
100
AcDbLine
10
650.600000000000
20
449.500000000000
30
0.0
11
650.100000000000
21
449.500000000000
31
0.0
0
LINE
5
6d8
100
AcDbEntity
8
0-00
6
CONTINUOUS
62
7
100
AcDbLine
10
649.600000000000
20
456.860000000000
30
0.0
11
649.600000000000
21
449.500000000000
31
0.0
0
LINE
5
6d9
100
AcDbEntity
8
0-00
6
CONTINUOUS
62
7
100
AcDbLine
10
649.100000000000
20
456.860000000000
30
0.0
11
649.600000000000
21
456.860000000000
31
0.0
0
LINE
5
6da
100
AcDbEntity
8
0-00
6
CONTINUOUS
62
7
100
AcDbLine
10
649.100000000000
20
456.860000000000
30
0.0
11
649.100000000000
21
449.500000000000
31
0.0
0
LINE
5
6db
100
AcDbEntity
8
0-00
6
CONTINUOUS
62
7
100
AcDbLine
10
646.600000000000
20
460.760000000000
30
0.0
11
646.600000000000
21
453.760000000000
31
0.0
0
LINE
5
6dc
100
AcDbEntity
8
0-00
6
CONTINUOUS
62
7
100
AcDbLine
10
648.600000000000
20
462.760000000000
30
0.0
11
649.350000000000
21
462.760000000000
31
0.0
0
LINE
5
6dd
100
AcDbEntity
8
0-00
6
CONTINUOUS
62
7
100
AcDbLine
10
649.350000000000
20
463.260000000000
30
0.0
11
648.600000000000
21
463.260000000000
31
0.0
0
LINE
5
6de
100
AcDbEntity
8
0-00
6
CONTINUOUS
62
7
100
AcDbLine
10
646.100000000000
20
453.760000000000
30
0.0
11
646.100000000000
21
460.760000000000
31
0.0
0
LINE
5
6df
100
AcDbEntity
8
0-00
6
CONTINUOUS
62
7
100
AcDbLine
10
650.100000000000
20
462.760000000000
30
0.0
11
649.350000000000
21
462.760000000000
31
0.0
0
LINE
5
6e0
100
AcDbEntity
8
0-00
6
CONTINUOUS
62
7
100
AcDbLine
10
649.350000000000
20
463.260000000000
30
0.0
11
650.100000000000
21
463.260000000000
31
0.0
0
LINE
5
6e1
100
AcDbEntity
8
0-00
6
CONTINUOUS
62
7
100
AcDbLine
10
652.100000000000
20
460.760000000000
30
0.0
11
652.100000000000
21
449.500000000000
31
0.0
0
LINE
5
6e2
100
AcDbEntity
8
0-00
6
CONTINUOUS
62
7
100
AcDbLine
10
652.600000000000
20
449.500000000000
30
0.0
11
652.600000000000
21
460.760000000000
31
0.0
0
LINE
5
6e3
100
AcDbEntity
8
0-00
6
CONTINUOUS
62
7
100
AcDbLine
10
647.100000000000
20
433.260000000000
30
0.0
11
647.100000000000
21
460.760000000000
31
0.0
0
LINE
5
6e4
100
AcDbEntity
8
0-00
6
CONTINUOUS
62
7
100
AcDbLine
10
647.600000000000
20
460.760000000000
30
0.0
11
647.600000000000
21
433.260000000000
31
0.0
0
LINE
5
6e5
100
AcDbEntity
8
0-00
6
CONTINUOUS
62
7
100
AcDbLine
10
648.600000000000
20
461.760000000000
30
0.0
11
649.350000000000
21
461.760000000000
31
0.0
0
LINE
5
6e6
100
AcDbEntity
8
0-00
6
CONTINUOUS
62
7
100
AcDbLine
10
648.600000000000
20
462.260000000000
30
0.0
11
649.350000000000
21
462.260000000000
31
0.0
0
LINE
5
6e7
100
AcDbEntity
8
0-00
6
CONTINUOUS
62
7
100
AcDbLine
10
650.100000000000
20
461.760000000000
30
0.0
11
649.350000000000
21
461.760000000000
31
0.0
0
LINE
5
6e8
100
AcDbEntity
8
0-00
6
CONTINUOUS
62
7
100
AcDbLine
10
650.100000000000
20
462.260000000000
30
0.0
11
649.350000000000
21
462.260000000000
31
0.0
0
LINE
5
6e9
100
AcDbEntity
8
0-00
6
CONTINUOUS
62
7
100
AcDbLine
10
651.600000000000
20
449.500000000000
30
0.0
11
651.600000000000
21
460.760000000000
31
0.0
0
LINE
5
6ea
100
AcDbEntity
8
0-00
6
CONTINUOUS
62
7
100
AcDbLine
10
651.100000000000
20
460.760000000000
30
0.0
11
651.100000000000
21
449.500000000000
31
0.0
0
LINE
5
6eb
100
AcDbEntity
8
0-00
6
CONTINUOUS
62
7
100
AcDbLine
10
650.100000000000
20
460.760000000000
30
0.0
11
649.350000000000
21
460.760000000000
31
0.0
0
LINE
5
6ec
100
AcDbEntity
8
0-00
6
CONTINUOUS
62
7
100
AcDbLine
10
650.100000000000
20
460.760000000000
30
0.0
11
650.100000000000
21
449.500000000000
31
0.0
0
LINE
5
6ed
100
AcDbEntity
8
0-00
6
CONTINUOUS
62
7
100
AcDbLine
10
650.600000000000
20
449.500000000000
30
0.0
11
650.600000000000
21
460.760000000000
31
0.0
0
LINE
5
6ee
100
AcDbEntity
8
0-00
6
CONTINUOUS
62
7
100
AcDbLine
10
650.100000000000
20
461.260000000000
30
0.0
11
649.350000000000
21
461.260000000000
31
0.0
0
LINE
5
6ef
100
AcDbEntity
8
0-00
6
CONTINUOUS
62
7
100
AcDbLine
10
648.600000000000
20
460.760000000000
30
0.0
11
649.350000000000
21
460.760000000000
31
0.0
0
LINE
5
6f0
100
AcDbEntity
8
0-00
6
CONTINUOUS
62
7
100
AcDbLine
10
648.600000000000
20
461.260000000000
30
0.0
11
649.350000000000
21
461.260000000000
31
0.0
0
LINE
5
6f1
100
AcDbEntity
8
0-00
6
CONTINUOUS
62
7
100
AcDbLine
10
648.600000000000
20
433.260000000000
30
0.0
11
648.600000000000
21
460.760000000000
31
0.0
0
LINE
5
6f2
100
AcDbEntity
8
0-00
6
CONTINUOUS
62
7
100
AcDbLine
10
648.100000000000
20
460.760000000000
30
0.0
11
648.100000000000
21
433.260000000000
31
0.0
0
LINE
5
6f3
100
AcDbEntity
8
0-00
6
CONTINUOUS
62
4
100
AcDbLine
10
614.100000000000
20
475.880000000000
30
0.0
11
647.100000000000
21
475.880000000000
31
0.0
0
LINE
5
6f4
100
AcDbEntity
8
0-00
6
CONTINUOUS
62
4
100
AcDbLine
10
640.100000000000
20
453.260000000000
30
0.0
11
640.100000000000
21
463.260000000000
31
0.0
0
LINE
5
6f5
100
AcDbEntity
8
0-00
6
CONTINUOUS
62
4
100
AcDbLine
10
662.100000000000
20
463.260000000000
30
0.0
11
667.100000000000
21
463.260000000000
31
0.0
0
LINE
5
6f6
100
AcDbEntity
8
0-00
6
CONTINUOUS
62
4
100
AcDbLine
10
667.100000000000
20
432.760000000000
30
0.0
11
667.100000000000
21
463.260000000000
31
0.0
0
LINE
5
6f7
100
AcDbEntity
8
0-00
6
CONTINUOUS
62
4
100
AcDbLine
10
647.100000000000
20
470.880000000000
30
0.0
11
647.100000000000
21
475.880000000000
31
0.0
0
LINE
5
6f8
100
AcDbEntity
8
0-00
6
CONTINUOUS
62
4
100
AcDbLine
10
614.100000000000
20
470.880000000000
30
0.0
11
614.100000000000
21
475.880000000000
31
0.0
0
LINE
5
6f9
100
AcDbEntity
8
0-00
6
CONTINUOUS
62
4
100
AcDbLine
10
645.100000000000
20
463.260000000000
30
0.0
11
640.100000000000
21
463.260000000000
31
0.0
0
LINE
5
6fa
100
AcDbEntity
8
0-00
6
CONTINUOUS
62
7
100
AcDbLine
10
627.360000000000
20
418.150000000000
30
0.0
11
633.840000000000
21
419.230000000000
31
0.0
0
LINE
5
6fb
100
AcDbEntity
8
0-00
6
CONTINUOUS
62
7
100
AcDbLine
10
627.360000000000
20
420.310000000000
30
0.0
11
633.840000000000
21
421.390000000000
31
0.0
0
LINE
5
6fc
100
AcDbEntity
8
0-00
6
CONTINUOUS
62
7
100
AcDbLine
10
627.360000000000
20
424.640000000000
30
0.0
11
633.840000000000
21
425.720000000000
31
0.0
0
LINE
5
6fd
100
AcDbEntity
8
0-00
6
CONTINUOUS
62
7
100
AcDbLine
10
627.360000000000
20
422.470000000000
30
0.0
11
633.840000000000
21
423.560000000000
31
0.0
0
LINE
5
6fe
100
AcDbEntity
8
0-00
6
CONTINUOUS
62
7
100
AcDbLine
10
627.360000000000
20
426.800000000000
30
0.0
11
633.840000000000
21
427.880000000000
31
0.0
0
LINE
5
6ff
100
AcDbEntity
8
0-00
6
CONTINUOUS
62
7
100
AcDbLine
10
627.360000000000
20
428.960000000000
30
0.0
11
633.840000000000
21
430.040000000000
31
0.0
0
LINE
5
700
100
AcDbEntity
8
0-00
6
CONTINUOUS
62
7
100
AcDbLine
10
633.300000000000
20
392.220000000000
30
0.0
11
630.600000000000
21
390.060000000000
31
0.0
0
LINE
5
701
100
AcDbEntity
8
0-00
6
CONTINUOUS
62
7
100
AcDbLine
10
627.900000000000
20
392.220000000000
30
0.0
11
630.600000000000
21
390.060000000000
31
0.0
0
LINE
5
702
100
AcDbEntity
8
0-00
6
CONTINUOUS
62
7
100
AcDbLine
10
627.360000000000
20
413.830000000000
30
0.0
11
633.840000000000
21
414.910000000000
31
0.0
0
LINE
5
703
100
AcDbEntity
8
0-00
6
CONTINUOUS
62
7
100
AcDbLine
10
627.360000000000
20
415.990000000000
30
0.0
11
633.840000000000
21
417.070000000000
31
0.0
0
LINE
5
704
100
AcDbEntity
8
0-00
6
CONTINUOUS
62
7
100
AcDbLine
10
627.360000000000
20
409.500000000000
30
0.0
11
633.840000000000
21
410.580000000000
31
0.0
0
LINE
5
705
100
AcDbEntity
8
0-00
6
CONTINUOUS
62
7
100
AcDbLine
10
627.360000000000
20
411.660000000000
30
0.0
11
633.840000000000
21
412.750000000000
31
0.0
0
LINE
5
706
100
AcDbEntity
8
0-00
6
CONTINUOUS
62
7
100
AcDbLine
10
627.360000000000
20
405.180000000000
30
0.0
11
633.840000000000
21
406.260000000000
31
0.0
0
LINE
5
707
100
AcDbEntity
8
0-00
6
CONTINUOUS
62
7
100
AcDbLine
10
627.360000000000
20
407.340000000000
30
0.0
11
633.840000000000
21
408.420000000000
31
0.0
0
LINE
5
708
100
AcDbEntity
8
0-00
6
CONTINUOUS
62
7
100
AcDbLine
10
633.300000000000
20
438.240000000000
30
0.0
11
633.300000000000
21
435.340000000000
31
0.0
0
LINE
5
709
100
AcDbEntity
8
0-00
6
CONTINUOUS
62
7
100
AcDbLine
10
627.900000000000
20
435.340000000000
30
0.0
11
627.900000000000
21
438.240000000000
31
0.0
0
LINE
5
70a
100
AcDbEntity
8
0-00
6
CONTINUOUS
62
7
100
AcDbLine
10
627.360000000000
20
400.860000000000
30
0.0
11
633.840000000000
21
401.940000000000
31
0.0
0
LINE
5
70b
100
AcDbEntity
8
0-00
6
CONTINUOUS
62
7
100
AcDbLine
10
627.360000000000
20
403.020000000000
30
0.0
11
633.840000000000
21
404.100000000000
31
0.0
0
LINE
5
70c
100
AcDbEntity
8
0-00
6
CONTINUOUS
62
7
100
AcDbLine
10
633.300000000000
20
392.220000000000
30
0.0
11
633.300000000000
21
432.760000000000
31
0.0
0
LINE
5
70d
100
AcDbEntity
8
0-00
6
CONTINUOUS
62
7
100
AcDbLine
10
627.900000000000
20
392.220000000000
30
0.0
11
627.900000000000
21
432.760000000000
31
0.0
0
LINE
5
70e
100
AcDbEntity
8
0-00
6
CONTINUOUS
62
7
100
AcDbLine
10
627.360000000000
20
431.120000000000
30
0.0
11
633.840000000000
21
432.200000000000
31
0.0
0
POLYLINE
5
70f
100
AcDbEntity
8
0-00
6
CONTINUOUS
62
  7
100
AcDb2dPolyline
66
1
10
0.0
20
0.0
30
0.0
70
0
0
VERTEX
5
710
100
AcDbEntity
8
0-00
6
CONTINUOUS
62
  7
100
AcDbVertex
100
AcDb2dVertex
10
625.610000000000
20
435.340000000000
30
0.0
0
VERTEX
5
711
100
AcDbEntity
8
0-00
6
CONTINUOUS
62
  7
100
AcDbVertex
100
AcDb2dVertex
10
635.590000000000
20
435.340000000000
30
0.0
0
VERTEX
5
712
100
AcDbEntity
8
0-00
6
CONTINUOUS
62
  7
100
AcDbVertex
100
AcDb2dVertex
10
635.590000000000
20
438.240000000000
30
0.0
0
VERTEX
5
713
100
AcDbEntity
8
0-00
6
CONTINUOUS
62
  7
100
AcDbVertex
100
AcDb2dVertex
10
633.300000000000
20
438.240000000000
30
0.0
0
VERTEX
5
714
100
AcDbEntity
8
0-00
6
CONTINUOUS
62
  7
100
AcDbVertex
100
AcDb2dVertex
10
627.900000000000
20
438.240000000000
30
0.0
0
VERTEX
5
715
100
AcDbEntity
8
0-00
6
CONTINUOUS
62
  7
100
AcDbVertex
100
AcDb2dVertex
10
625.610000000000
20
438.240000000000
30
0.0
0
VERTEX
5
716
100
AcDbEntity
8
0-00
6
CONTINUOUS
62
  7
100
AcDbVertex
100
AcDb2dVertex
10
625.610000000000
20
435.340000000000
30
0.0
0
SEQEND
5
717
100
AcDbEntity
8
0-00
0
POLYLINE
5
718
100
AcDbEntity
8
0-00
6
CONTINUOUS
62
  7
100
AcDb2dPolyline
66
1
10
0.0
20
0.0
30
0.0
70
0
0
VERTEX
5
719
100
AcDbEntity
8
0-00
6
CONTINUOUS
62
  7
100
AcDbVertex
100
AcDb2dVertex
10
624.110000000000
20
434.260000000000
30
0.0
0
VERTEX
5
71a
100
AcDbEntity
8
0-00
6
CONTINUOUS
62
  7
100
AcDbVertex
100
AcDb2dVertex
10
637.090000000000
20
434.260000000000
30
0.0
0
VERTEX
5
71b
100
AcDbEntity
8
0-00
6
CONTINUOUS
62
  7
100
AcDbVertex
100
AcDb2dVertex
10
637.090000000000
20
435.340000000000
30
0.0
0
VERTEX
5
71c
100
AcDbEntity
8
0-00
6
CONTINUOUS
62
  7
100
AcDbVertex
100
AcDb2dVertex
10
624.110000000000
20
435.340000000000
30
0.0
0
VERTEX
5
71d
100
AcDbEntity
8
0-00
6
CONTINUOUS
62
  7
100
AcDbVertex
100
AcDb2dVertex
10
624.110000000000
20
434.260000000000
30
0.0
0
SEQEND
5
71e
100
AcDbEntity
8
0-00
0
POLYLINE
5
71f
100
AcDbEntity
8
0-00
6
CONTINUOUS
62
  7
100
AcDb2dPolyline
66
1
10
0.0
20
0.0
30
0.0
70
0
0
VERTEX
5
720
100
AcDbEntity
8
0-00
6
CONTINUOUS
62
  7
100
AcDbVertex
100
AcDb2dVertex
10
631.680000000000
20
391.140000000000
30
0.0
0
VERTEX
5
721
100
AcDbEntity
8
0-00
6
CONTINUOUS
62
  7
100
AcDbVertex
100
AcDb2dVertex
10
630.600000000000
20
392.220000000000
30
0.0
0
VERTEX
5
722
100
AcDbEntity
8
0-00
6
CONTINUOUS
62
  7
100
AcDbVertex
100
AcDb2dVertex
10
631.330000000000
20
393.700000000000
30
0.0
0
VERTEX
5
723
100
AcDbEntity
8
0-00
6
CONTINUOUS
62
  7
100
AcDbVertex
100
AcDb2dVertex
10
629.680000000000
20
394.630000000000
30
0.0
0
VERTEX
5
724
100
AcDbEntity
8
0-00
6
CONTINUOUS
62
  7
100
AcDbVertex
100
AcDb2dVertex
10
627.900000000000
20
392.220000000000
30
0.0
0
SEQEND
5
725
100
AcDbEntity
8
0-00
0
LINE
5
726
100
AcDbEntity
8
0-00
6
CONTINUOUS
62
7
100
AcDbLine
10
616.100000000000
20
432.760000000000
30
0.0
11
645.100000000000
21
432.760000000000
31
0.0
0
LINE
5
727
100
AcDbEntity
8
0-00
6
CONTINUOUS
62
7
100
AcDbLine
10
616.100000000000
20
432.760000000000
30
0.0
11
616.100000000000
21
434.260000000000
31
0.0
0
LINE
5
728
100
AcDbEntity
8
0-00
6
CONTINUOUS
62
7
100
AcDbLine
10
645.100000000000
20
434.260000000000
30
0.0
11
616.100000000000
21
434.260000000000
31
0.0
0
LINE
5
729
100
AcDbEntity
8
0-00
6
CONTINUOUS
62
7
100
AcDbLine
10
645.100000000000
20
432.760000000000
30
0.0
11
645.100000000000
21
434.260000000000
31
0.0
0
LINE
5
72a
100
AcDbEntity
8
0-00
6
CENTER2
62
7
100
AcDbLine
10
212.600000000000
20
507.260000000000
30
0.0
11
212.600000000000
21
397.760000000000
31
0.0
0
LINE
5
72b
100
AcDbEntity
8
0-00
6
CENTER2
62
7
100
AcDbLine
10
630.600000000000
20
475.880000000000
30
0.0
11
630.600000000000
21
397.760000000000
31
0.0
0
LINE
5
72c
100
AcDbEntity
8
0-00
6
CONTINUOUS
62
7
100
AcDbLine
10
231.100000000000
20
432.760000000000
30
0.0
11
421.600000000000
21
432.760000000000
31
0.0
0
LINE
5
72d
100
AcDbEntity
8
0-00
6
CONTINUOUS
62
7
100
AcDbLine
10
231.100000000000
20
432.260000000000
30
0.0
11
421.600000000000
21
432.260000000000
31
0.0
0
LINE
5
72e
100
AcDbEntity
8
0-00
6
CONTINUOUS
62
7
100
AcDbLine
10
612.100000000000
20
432.760000000000
30
0.0
11
421.600000000000
21
432.760000000000
31
0.0
0
LINE
5
72f
100
AcDbEntity
8
0-00
6
CONTINUOUS
62
7
100
AcDbLine
10
612.100000000000
20
432.260000000000
30
0.0
11
421.600000000000
21
432.260000000000
31
0.0
0
LINE
5
730
100
AcDbEntity
8
0-00
6
CENTER2
62
7
100
AcDbLine
10
630.600000000000
20
507.260000000000
30
0.0
11
630.600000000000
21
485.840000000000
31
0.0
0
LINE
5
731
100
AcDbEntity
8
0-00
6
CONTINUOUS
62
4
100
AcDbLine
10
142.600000000000
20
507.260000000000
30
0.0
11
212.600000000000
21
507.260000000000
31
0.0
0
LINE
5
732
100
AcDbEntity
8
0-00
6
CONTINUOUS
62
7
100
AcDbLine
10
194.100000000000
20
432.760000000000
30
0.0
11
142.600000000000
21
432.760000000000
31
0.0
0
LINE
5
733
100
AcDbEntity
8
0-00
6
CONTINUOUS
62
7
100
AcDbLine
10
194.100000000000
20
432.260000000000
30
0.0
11
142.600000000000
21
432.260000000000
31
0.0
0
LINE
5
734
100
AcDbEntity
8
0-00
6
DASHED
62
7
100
AcDbLine
10
421.600000000000
20
431.260000000000
30
0.0
11
142.600000000000
21
431.260000000000
31
0.0
0
LINE
5
735
100
AcDbEntity
8
0-00
6
CONTINUOUS
62
4
100
AcDbLine
10
142.600000000000
20
424.790000000000
30
0.0
11
148.070000000000
21
430.260000000000
31
0.0
0
LINE
5
736
100
AcDbEntity
8
0-00
6
CONTINUOUS
62
4
100
AcDbLine
10
142.600000000000
20
410.650000000000
30
0.0
11
162.210000000000
21
430.260000000000
31
0.0
0
LINE
5
737
100
AcDbEntity
8
0-00
6
CONTINUOUS
62
3
100
AcDbLine
10
421.600000000000
20
405.260000000000
30
0.0
11
142.600000000000
21
405.260000000000
31
0.0
0
LINE
5
738
100
AcDbEntity
8
0-00
6
CONTINUOUS
62
3
100
AcDbLine
10
421.600000000000
20
385.260000000000
30
0.0
11
142.600000000000
21
385.260000000000
31
0.0
0
LINE
5
739
100
AcDbEntity
8
0-00
6
CONTINUOUS
62
7
100
AcDbLine
10
421.600000000000
20
430.260000000000
30
0.0
11
142.600000000000
21
430.260000000000
31
0.0
0
LINE
5
73a
100
AcDbEntity
8
0-00
6
CONTINUOUS
62
4
100
AcDbLine
10
700.600000000000
20
507.260000000000
30
0.0
11
694.810000000000
21
508.810000000000
31
0.0
0
LINE
5
73b
100
AcDbEntity
8
0-00
6
CONTINUOUS
62
4
100
AcDbLine
10
700.600000000000
20
507.260000000000
30
0.0
11
694.810000000000
21
505.700000000000
31
0.0
0
LINE
5
73c
100
AcDbEntity
8
0-00
6
CONTINUOUS
62
4
100
AcDbLine
10
630.600000000000
20
507.260000000000
30
0.0
11
700.600000000000
21
507.260000000000
31
0.0
0
LINE
5
73d
100
AcDbEntity
8
0-00
6
CONTINUOUS
62
7
100
AcDbLine
10
649.100000000000
20
432.760000000000
30
0.0
11
700.600000000000
21
432.760000000000
31
0.0
0
LINE
5
73e
100
AcDbEntity
8
0-00
6
CONTINUOUS
62
7
100
AcDbLine
10
649.100000000000
20
432.260000000000
30
0.0
11
700.600000000000
21
432.260000000000
31
0.0
0
LINE
5
73f
100
AcDbEntity
8
0-00
6
DASHED
62
7
100
AcDbLine
10
421.600000000000
20
431.260000000000
30
0.0
11
700.600000000000
21
431.260000000000
31
0.0
0
LINE
5
740
100
AcDbEntity
8
0-00
6
CONTINUOUS
62
7
100
AcDbLine
10
421.600000000000
20
430.260000000000
30
0.0
11
700.600000000000
21
430.260000000000
31
0.0
0
LINE
5
741
100
AcDbEntity
8
0-00
6
CONTINUOUS
62
4
100
AcDbLine
10
688.750000000000
20
405.260000000000
30
0.0
11
700.600000000000
21
417.110000000000
31
0.0
0
LINE
5
742
100
AcDbEntity
8
0-00
6
CONTINUOUS
62
3
100
AcDbLine
10
421.600000000000
20
405.260000000000
30
0.0
11
700.600000000000
21
405.260000000000
31
0.0
0
LINE
5
743
100
AcDbEntity
8
0-00
6
CONTINUOUS
62
3
100
AcDbLine
10
421.600000000000
20
385.260000000000
30
0.0
11
700.600000000000
21
385.260000000000
31
0.0
0
POLYLINE
5
744
100
AcDbEntity
8
F-0
6
CONTINUOUS
62
  3
100
AcDb2dPolyline
66
1
10
0.0
20
0.0
30
0.0
70
0
0
VERTEX
5
745
100
AcDbEntity
8
F-0
6
CONTINUOUS
62
  3
100
AcDbVertex
100
AcDb2dVertex
10
35.860000000000
20
29.550000000000
30
0.0
0
VERTEX
5
746
100
AcDbEntity
8
F-0
6
CONTINUOUS
62
  3
100
AcDbVertex
100
AcDb2dVertex
10
35.860000000000
20
37.550000000000
30
0.0
0
VERTEX
5
747
100
AcDbEntity
8
F-0
6
CONTINUOUS
62
  3
100
AcDbVertex
100
AcDb2dVertex
10
43.860000000000
20
37.550000000000
30
0.0
0
VERTEX
5
748
100
AcDbEntity
8
F-0
6
CONTINUOUS
62
  3
100
AcDbVertex
100
AcDb2dVertex
10
43.860000000000
20
29.550000000000
30
0.0
0
VERTEX
5
749
100
AcDbEntity
8
F-0
6
CONTINUOUS
62
  3
100
AcDbVertex
100
AcDb2dVertex
10
35.860000000000
20
29.550000000000
30
0.0
0
SEQEND
5
74a
100
AcDbEntity
8
F-0
0
LINE
5
74b
100
AcDbEntity
8
F-0
6
CONTINUOUS
62
3
100
AcDbLine
10
36.660000000000
20
30.630000000000
30
0.0
11
36.660000000000
21
36.750000000000
31
0.0
0
LINE
5
74c
100
AcDbEntity
8
F-0
6
CONTINUOUS
62
3
100
AcDbLine
10
43.060000000000
20
30.350000000000
30
0.0
11
36.940000000000
21
30.350000000000
31
0.0
0
POLYLINE
5
74d
100
AcDbEntity
8
F-0
6
CONTINUOUS
62
  3
100
AcDb2dPolyline
66
1
10
0.0
20
0.0
30
0.0
70
0
0
VERTEX
5
74e
100
AcDbEntity
8
F-0
6
CONTINUOUS
62
  3
100
AcDbVertex
100
AcDb2dVertex
10
36.660000000000
20
36.750000000000
30
0.0
0
VERTEX
5
74f
100
AcDbEntity
8
F-0
6
CONTINUOUS
62
  3
100
AcDbVertex
100
AcDb2dVertex
10
42.770000000000
20
36.750000000000
30
0.0
0
VERTEX
5
750
100
AcDbEntity
8
F-0
6
CONTINUOUS
62
  3
100
AcDbVertex
100
AcDb2dVertex
10
36.660000000000
20
30.630000000000
30
0.0
0
SEQEND
5
751
100
AcDbEntity
8
F-0
0
LINE
5
752
100
AcDbEntity
8
F-0
6
CONTINUOUS
62
3
100
AcDbLine
10
43.060000000000
20
36.470000000000
30
0.0
11
36.940000000000
21
30.350000000000
31
0.0
0
LINE
5
753
100
AcDbEntity
8
F-0
6
CONTINUOUS
62
3
100
AcDbLine
10
43.060000000000
20
36.470000000000
30
0.0
11
43.060000000000
21
30.350000000000
31
0.0
0
LINE
5
754
100
AcDbEntity
8
F-0
6
CONTINUOUS
62
4
100
AcDbLine
10
35.860000000000
20
37.470000000000
30
0.0
11
43.860000000000
21
37.470000000000
31
0.0
0
LINE
5
755
100
AcDbEntity
8
F-0
6
CONTINUOUS
62
4
100
AcDbLine
10
35.860000000000
20
37.310000000000
30
0.0
11
43.860000000000
21
37.310000000000
31
0.0
0
LINE
5
756
100
AcDbEntity
8
F-0
6
CONTINUOUS
62
4
100
AcDbLine
10
35.860000000000
20
37.150000000000
30
0.0
11
43.860000000000
21
37.150000000000
31
0.0
0
LINE
5
757
100
AcDbEntity
8
F-0
6
CONTINUOUS
62
4
100
AcDbLine
10
35.860000000000
20
36.990000000000
30
0.0
11
43.860000000000
21
36.990000000000
31
0.0
0
LINE
5
758
100
AcDbEntity
8
F-0
6
CONTINUOUS
62
4
100
AcDbLine
10
35.860000000000
20
36.830000000000
30
0.0
11
43.860000000000
21
36.830000000000
31
0.0
0
LINE
5
759
100
AcDbEntity
8
F-0
6
CONTINUOUS
62
4
100
AcDbLine
10
35.860000000000
20
30.270000000000
30
0.0
11
43.860000000000
21
30.270000000000
31
0.0
0
LINE
5
75a
100
AcDbEntity
8
F-0
6
CONTINUOUS
62
4
100
AcDbLine
10
35.860000000000
20
30.110000000000
30
0.0
11
43.860000000000
21
30.110000000000
31
0.0
0
LINE
5
75b
100
AcDbEntity
8
F-0
6
CONTINUOUS
62
4
100
AcDbLine
10
35.860000000000
20
29.950000000000
30
0.0
11
43.860000000000
21
29.950000000000
31
0.0
0
LINE
5
75c
100
AcDbEntity
8
F-0
6
CONTINUOUS
62
4
100
AcDbLine
10
35.860000000000
20
29.790000000000
30
0.0
11
43.860000000000
21
29.790000000000
31
0.0
0
LINE
5
75d
100
AcDbEntity
8
F-0
6
CONTINUOUS
62
4
100
AcDbLine
10
35.860000000000
20
29.630000000000
30
0.0
11
43.860000000000
21
29.630000000000
31
0.0
0
LINE
5
75e
100
AcDbEntity
8
F-0
6
CONTINUOUS
62
4
100
AcDbLine
10
35.860000000000
20
30.750000000000
30
0.0
11
36.660000000000
21
30.750000000000
31
0.0
0
LINE
5
75f
100
AcDbEntity
8
F-0
6
CONTINUOUS
62
4
100
AcDbLine
10
35.860000000000
20
30.910000000000
30
0.0
11
36.660000000000
21
30.910000000000
31
0.0
0
LINE
5
760
100
AcDbEntity
8
F-0
6
CONTINUOUS
62
4
100
AcDbLine
10
35.860000000000
20
31.070000000000
30
0.0
11
36.660000000000
21
31.070000000000
31
0.0
0
LINE
5
761
100
AcDbEntity
8
F-0
6
CONTINUOUS
62
4
100
AcDbLine
10
35.860000000000
20
31.230000000000
30
0.0
11
36.660000000000
21
31.230000000000
31
0.0
0
LINE
5
762
100
AcDbEntity
8
F-0
6
CONTINUOUS
62
4
100
AcDbLine
10
35.860000000000
20
31.390000000000
30
0.0
11
36.660000000000
21
31.390000000000
31
0.0
0
LINE
5
763
100
AcDbEntity
8
F-0
6
CONTINUOUS
62
4
100
AcDbLine
10
35.860000000000
20
31.550000000000
30
0.0
11
36.660000000000
21
31.550000000000
31
0.0
0
LINE
5
764
100
AcDbEntity
8
F-0
6
CONTINUOUS
62
4
100
AcDbLine
10
35.860000000000
20
31.710000000000
30
0.0
11
36.660000000000
21
31.710000000000
31
0.0
0
LINE
5
765
100
AcDbEntity
8
F-0
6
CONTINUOUS
62
4
100
AcDbLine
10
35.860000000000
20
31.870000000000
30
0.0
11
36.660000000000
21
31.870000000000
31
0.0
0
LINE
5
766
100
AcDbEntity
8
F-0
6
CONTINUOUS
62
4
100
AcDbLine
10
35.860000000000
20
32.030000000000
30
0.0
11
36.660000000000
21
32.030000000000
31
0.0
0
LINE
5
767
100
AcDbEntity
8
F-0
6
CONTINUOUS
62
4
100
AcDbLine
10
35.860000000000
20
32.190000000000
30
0.0
11
36.660000000000
21
32.190000000000
31
0.0
0
LINE
5
768
100
AcDbEntity
8
F-0
6
CONTINUOUS
62
4
100
AcDbLine
10
35.860000000000
20
32.350000000000
30
0.0
11
36.660000000000
21
32.350000000000
31
0.0
0
LINE
5
769
100
AcDbEntity
8
F-0
6
CONTINUOUS
62
4
100
AcDbLine
10
35.860000000000
20
32.510000000000
30
0.0
11
36.660000000000
21
32.510000000000
31
0.0
0
LINE
5
76a
100
AcDbEntity
8
F-0
6
CONTINUOUS
62
4
100
AcDbLine
10
35.860000000000
20
32.670000000000
30
0.0
11
36.660000000000
21
32.670000000000
31
0.0
0
LINE
5
76b
100
AcDbEntity
8
F-0
6
CONTINUOUS
62
4
100
AcDbLine
10
35.860000000000
20
32.830000000000
30
0.0
11
36.660000000000
21
32.830000000000
31
0.0
0
LINE
5
76c
100
AcDbEntity
8
F-0
6
CONTINUOUS
62
4
100
AcDbLine
10
35.860000000000
20
32.990000000000
30
0.0
11
36.660000000000
21
32.990000000000
31
0.0
0
LINE
5
76d
100
AcDbEntity
8
F-0
6
CONTINUOUS
62
4
100
AcDbLine
10
35.860000000000
20
33.150000000000
30
0.0
11
36.660000000000
21
33.150000000000
31
0.0
0
LINE
5
76e
100
AcDbEntity
8
F-0
6
CONTINUOUS
62
4
100
AcDbLine
10
35.860000000000
20
33.310000000000
30
0.0
11
36.660000000000
21
33.310000000000
31
0.0
0
LINE
5
76f
100
AcDbEntity
8
F-0
6
CONTINUOUS
62
4
100
AcDbLine
10
35.860000000000
20
33.470000000000
30
0.0
11
36.660000000000
21
33.470000000000
31
0.0
0
LINE
5
770
100
AcDbEntity
8
F-0
6
CONTINUOUS
62
4
100
AcDbLine
10
35.860000000000
20
33.630000000000
30
0.0
11
36.660000000000
21
33.630000000000
31
0.0
0
LINE
5
771
100
AcDbEntity
8
F-0
6
CONTINUOUS
62
4
100
AcDbLine
10
35.860000000000
20
33.790000000000
30
0.0
11
36.660000000000
21
33.790000000000
31
0.0
0
LINE
5
772
100
AcDbEntity
8
F-0
6
CONTINUOUS
62
4
100
AcDbLine
10
35.860000000000
20
33.950000000000
30
0.0
11
36.660000000000
21
33.950000000000
31
0.0
0
LINE
5
773
100
AcDbEntity
8
F-0
6
CONTINUOUS
62
4
100
AcDbLine
10
35.860000000000
20
34.110000000000
30
0.0
11
36.660000000000
21
34.110000000000
31
0.0
0
LINE
5
774
100
AcDbEntity
8
F-0
6
CONTINUOUS
62
4
100
AcDbLine
10
35.860000000000
20
34.270000000000
30
0.0
11
36.660000000000
21
34.270000000000
31
0.0
0
LINE
5
775
100
AcDbEntity
8
F-0
6
CONTINUOUS
62
4
100
AcDbLine
10
35.860000000000
20
34.430000000000
30
0.0
11
36.660000000000
21
34.430000000000
31
0.0
0
LINE
5
776
100
AcDbEntity
8
F-0
6
CONTINUOUS
62
4
100
AcDbLine
10
35.860000000000
20
34.910000000000
30
0.0
11
36.660000000000
21
34.910000000000
31
0.0
0
LINE
5
777
100
AcDbEntity
8
F-0
6
CONTINUOUS
62
4
100
AcDbLine
10
35.860000000000
20
35.390000000000
30
0.0
11
36.660000000000
21
35.390000000000
31
0.0
0
LINE
5
778
100
AcDbEntity
8
F-0
6
CONTINUOUS
62
4
100
AcDbLine
10
35.860000000000
20
35.550000000000
30
0.0
11
36.660000000000
21
35.550000000000
31
0.0
0
LINE
5
779
100
AcDbEntity
8
F-0
6
CONTINUOUS
62
4
100
AcDbLine
10
35.860000000000
20
35.710000000000
30
0.0
11
36.660000000000
21
35.710000000000
31
0.0
0
LINE
5
77a
100
AcDbEntity
8
F-0
6
CONTINUOUS
62
4
100
AcDbLine
10
35.860000000000
20
35.870000000000
30
0.0
11
36.660000000000
21
35.870000000000
31
0.0
0
LINE
5
77b
100
AcDbEntity
8
F-0
6
CONTINUOUS
62
4
100
AcDbLine
10
35.860000000000
20
36.670000000000
30
0.0
11
36.660000000000
21
36.670000000000
31
0.0
0
LINE
5
77c
100
AcDbEntity
8
F-0
6
CONTINUOUS
62
4
100
AcDbLine
10
35.860000000000
20
36.510000000000
30
0.0
11
36.660000000000
21
36.510000000000
31
0.0
0
LINE
5
77d
100
AcDbEntity
8
F-0
6
CONTINUOUS
62
4
100
AcDbLine
10
35.860000000000
20
36.350000000000
30
0.0
11
36.660000000000
21
36.350000000000
31
0.0
0
LINE
5
77e
100
AcDbEntity
8
F-0
6
CONTINUOUS
62
4
100
AcDbLine
10
35.860000000000
20
36.190000000000
30
0.0
11
36.660000000000
21
36.190000000000
31
0.0
0
LINE
5
77f
100
AcDbEntity
8
F-0
6
CONTINUOUS
62
4
100
AcDbLine
10
35.860000000000
20
36.030000000000
30
0.0
11
36.660000000000
21
36.030000000000
31
0.0
0
LINE
5
780
100
AcDbEntity
8
F-0
6
CONTINUOUS
62
4
100
AcDbLine
10
35.860000000000
20
35.070000000000
30
0.0
11
36.660000000000
21
35.070000000000
31
0.0
0
LINE
5
781
100
AcDbEntity
8
F-0
6
CONTINUOUS
62
4
100
AcDbLine
10
35.860000000000
20
35.230000000000
30
0.0
11
36.660000000000
21
35.230000000000
31
0.0
0
LINE
5
782
100
AcDbEntity
8
F-0
6
CONTINUOUS
62
4
100
AcDbLine
10
35.860000000000
20
34.750000000000
30
0.0
11
36.660000000000
21
34.750000000000
31
0.0
0
LINE
5
783
100
AcDbEntity
8
F-0
6
CONTINUOUS
62
4
100
AcDbLine
10
35.860000000000
20
34.590000000000
30
0.0
11
36.660000000000
21
34.590000000000
31
0.0
0
LINE
5
784
100
AcDbEntity
8
F-0
6
CONTINUOUS
62
4
100
AcDbLine
10
36.930000000000
20
30.910000000000
30
0.0
11
37.500000000000
21
30.910000000000
31
0.0
0
LINE
5
785
100
AcDbEntity
8
F-0
6
CONTINUOUS
62
4
100
AcDbLine
10
36.770000000000
20
30.750000000000
30
0.0
11
37.340000000000
21
30.750000000000
31
0.0
0
LINE
5
786
100
AcDbEntity
8
F-0
6
CONTINUOUS
62
4
100
AcDbLine
10
35.860000000000
20
30.590000000000
30
0.0
11
37.180000000000
21
30.590000000000
31
0.0
0
LINE
5
787
100
AcDbEntity
8
F-0
6
CONTINUOUS
62
4
100
AcDbLine
10
35.860000000000
20
30.430000000000
30
0.0
11
37.020000000000
21
30.430000000000
31
0.0
0
LINE
5
788
100
AcDbEntity
8
F-0
6
CONTINUOUS
62
4
100
AcDbLine
10
37.890000000000
20
31.870000000000
30
0.0
11
38.460000000000
21
31.870000000000
31
0.0
0
LINE
5
789
100
AcDbEntity
8
F-0
6
CONTINUOUS
62
4
100
AcDbLine
10
37.730000000000
20
31.710000000000
30
0.0
11
38.300000000000
21
31.710000000000
31
0.0
0
LINE
5
78a
100
AcDbEntity
8
F-0
6
CONTINUOUS
62
4
100
AcDbLine
10
37.570000000000
20
31.550000000000
30
0.0
11
38.140000000000
21
31.550000000000
31
0.0
0
LINE
5
78b
100
AcDbEntity
8
F-0
6
CONTINUOUS
62
4
100
AcDbLine
10
37.420000000000
20
31.390000000000
30
0.0
11
37.980000000000
21
31.390000000000
31
0.0
0
LINE
5
78c
100
AcDbEntity
8
F-0
6
CONTINUOUS
62
4
100
AcDbLine
10
37.250000000000
20
31.230000000000
30
0.0
11
37.820000000000
21
31.230000000000
31
0.0
0
LINE
5
78d
100
AcDbEntity
8
F-0
6
CONTINUOUS
62
4
100
AcDbLine
10
37.090000000000
20
31.070000000000
30
0.0
11
37.660000000000
21
31.070000000000
31
0.0
0
LINE
5
78e
100
AcDbEntity
8
F-0
6
CONTINUOUS
62
4
100
AcDbLine
10
36.660000000000
20
36.750000000000
30
0.0
11
36.660000000000
21
36.910000000000
31
0.0
0
LINE
5
78f
100
AcDbEntity
8
F-0
6
CONTINUOUS
62
4
100
AcDbLine
10
43.060000000000
20
30.750000000000
30
0.0
11
43.860000000000
21
30.750000000000
31
0.0
0
LINE
5
790
100
AcDbEntity
8
F-0
6
CONTINUOUS
62
4
100
AcDbLine
10
43.060000000000
20
30.910000000000
30
0.0
11
43.860000000000
21
30.910000000000
31
0.0
0
LINE
5
791
100
AcDbEntity
8
F-0
6
CONTINUOUS
62
4
100
AcDbLine
10
43.060000000000
20
31.070000000000
30
0.0
11
43.860000000000
21
31.070000000000
31
0.0
0
LINE
5
792
100
AcDbEntity
8
F-0
6
CONTINUOUS
62
4
100
AcDbLine
10
43.060000000000
20
31.230000000000
30
0.0
11
43.860000000000
21
31.230000000000
31
0.0
0
LINE
5
793
100
AcDbEntity
8
F-0
6
CONTINUOUS
62
4
100
AcDbLine
10
43.060000000000
20
31.390000000000
30
0.0
11
43.860000000000
21
31.390000000000
31
0.0
0
LINE
5
794
100
AcDbEntity
8
F-0
6
CONTINUOUS
62
4
100
AcDbLine
10
43.060000000000
20
31.550000000000
30
0.0
11
43.860000000000
21
31.550000000000
31
0.0
0
LINE
5
795
100
AcDbEntity
8
F-0
6
CONTINUOUS
62
4
100
AcDbLine
10
43.060000000000
20
31.710000000000
30
0.0
11
43.860000000000
21
31.710000000000
31
0.0
0
LINE
5
796
100
AcDbEntity
8
F-0
6
CONTINUOUS
62
4
100
AcDbLine
10
43.060000000000
20
31.870000000000
30
0.0
11
43.860000000000
21
31.870000000000
31
0.0
0
LINE
5
797
100
AcDbEntity
8
F-0
6
CONTINUOUS
62
4
100
AcDbLine
10
43.060000000000
20
32.030000000000
30
0.0
11
43.860000000000
21
32.030000000000
31
0.0
0
LINE
5
798
100
AcDbEntity
8
F-0
6
CONTINUOUS
62
4
100
AcDbLine
10
43.060000000000
20
32.190000000000
30
0.0
11
43.860000000000
21
32.190000000000
31
0.0
0
LINE
5
799
100
AcDbEntity
8
F-0
6
CONTINUOUS
62
4
100
AcDbLine
10
43.060000000000
20
32.350000000000
30
0.0
11
43.860000000000
21
32.350000000000
31
0.0
0
LINE
5
79a
100
AcDbEntity
8
F-0
6
CONTINUOUS
62
4
100
AcDbLine
10
43.060000000000
20
32.510000000000
30
0.0
11
43.860000000000
21
32.510000000000
31
0.0
0
LINE
5
79b
100
AcDbEntity
8
F-0
6
CONTINUOUS
62
4
100
AcDbLine
10
43.060000000000
20
32.670000000000
30
0.0
11
43.860000000000
21
32.670000000000
31
0.0
0
LINE
5
79c
100
AcDbEntity
8
F-0
6
CONTINUOUS
62
4
100
AcDbLine
10
43.060000000000
20
32.990000000000
30
0.0
11
43.860000000000
21
32.990000000000
31
0.0
0
LINE
5
79d
100
AcDbEntity
8
F-0
6
CONTINUOUS
62
4
100
AcDbLine
10
43.060000000000
20
33.150000000000
30
0.0
11
43.860000000000
21
33.150000000000
31
0.0
0
LINE
5
79e
100
AcDbEntity
8
F-0
6
CONTINUOUS
62
4
100
AcDbLine
10
43.060000000000
20
33.310000000000
30
0.0
11
43.860000000000
21
33.310000000000
31
0.0
0
LINE
5
79f
100
AcDbEntity
8
F-0
6
CONTINUOUS
62
4
100
AcDbLine
10
43.060000000000
20
33.470000000000
30
0.0
11
43.860000000000
21
33.470000000000
31
0.0
0
LINE
5
7a0
100
AcDbEntity
8
F-0
6
CONTINUOUS
62
4
100
AcDbLine
10
43.060000000000
20
33.630000000000
30
0.0
11
43.860000000000
21
33.630000000000
31
0.0
0
LINE
5
7a1
100
AcDbEntity
8
F-0
6
CONTINUOUS
62
4
100
AcDbLine
10
43.060000000000
20
33.790000000000
30
0.0
11
43.860000000000
21
33.790000000000
31
0.0
0
LINE
5
7a2
100
AcDbEntity
8
F-0
6
CONTINUOUS
62
4
100
AcDbLine
10
43.060000000000
20
33.950000000000
30
0.0
11
43.860000000000
21
33.950000000000
31
0.0
0
LINE
5
7a3
100
AcDbEntity
8
F-0
6
CONTINUOUS
62
4
100
AcDbLine
10
43.060000000000
20
34.110000000000
30
0.0
11
43.860000000000
21
34.110000000000
31
0.0
0
LINE
5
7a4
100
AcDbEntity
8
F-0
6
CONTINUOUS
62
4
100
AcDbLine
10
43.060000000000
20
34.270000000000
30
0.0
11
43.860000000000
21
34.270000000000
31
0.0
0
LINE
5
7a5
100
AcDbEntity
8
F-0
6
CONTINUOUS
62
4
100
AcDbLine
10
43.060000000000
20
34.430000000000
30
0.0
11
43.860000000000
21
34.430000000000
31
0.0
0
LINE
5
7a6
100
AcDbEntity
8
F-0
6
CONTINUOUS
62
4
100
AcDbLine
10
43.060000000000
20
34.910000000000
30
0.0
11
43.860000000000
21
34.910000000000
31
0.0
0
LINE
5
7a7
100
AcDbEntity
8
F-0
6
CONTINUOUS
62
4
100
AcDbLine
10
43.060000000000
20
35.390000000000
30
0.0
11
43.860000000000
21
35.390000000000
31
0.0
0
LINE
5
7a8
100
AcDbEntity
8
F-0
6
CONTINUOUS
62
4
100
AcDbLine
10
43.060000000000
20
35.550000000000
30
0.0
11
43.860000000000
21
35.550000000000
31
0.0
0
LINE
5
7a9
100
AcDbEntity
8
F-0
6
CONTINUOUS
62
4
100
AcDbLine
10
43.060000000000
20
35.710000000000
30
0.0
11
43.860000000000
21
35.710000000000
31
0.0
0
LINE
5
7aa
100
AcDbEntity
8
F-0
6
CONTINUOUS
62
4
100
AcDbLine
10
43.060000000000
20
35.870000000000
30
0.0
11
43.860000000000
21
35.870000000000
31
0.0
0
LINE
5
7ab
100
AcDbEntity
8
F-0
6
CONTINUOUS
62
4
100
AcDbLine
10
43.060000000000
20
36.350000000000
30
0.0
11
43.860000000000
21
36.350000000000
31
0.0
0
LINE
5
7ac
100
AcDbEntity
8
F-0
6
CONTINUOUS
62
4
100
AcDbLine
10
43.060000000000
20
36.190000000000
30
0.0
11
43.860000000000
21
36.190000000000
31
0.0
0
LINE
5
7ad
100
AcDbEntity
8
F-0
6
CONTINUOUS
62
4
100
AcDbLine
10
43.060000000000
20
36.030000000000
30
0.0
11
43.860000000000
21
36.030000000000
31
0.0
0
LINE
5
7ae
100
AcDbEntity
8
F-0
6
CONTINUOUS
62
4
100
AcDbLine
10
43.060000000000
20
35.070000000000
30
0.0
11
43.860000000000
21
35.070000000000
31
0.0
0
LINE
5
7af
100
AcDbEntity
8
F-0
6
CONTINUOUS
62
4
100
AcDbLine
10
43.060000000000
20
35.230000000000
30
0.0
11
43.860000000000
21
35.230000000000
31
0.0
0
LINE
5
7b0
100
AcDbEntity
8
F-0
6
CONTINUOUS
62
4
100
AcDbLine
10
43.060000000000
20
34.750000000000
30
0.0
11
43.860000000000
21
34.750000000000
31
0.0
0
LINE
5
7b1
100
AcDbEntity
8
F-0
6
CONTINUOUS
62
4
100
AcDbLine
10
43.060000000000
20
34.590000000000
30
0.0
11
43.860000000000
21
34.590000000000
31
0.0
0
LINE
5
7b2
100
AcDbEntity
8
F-0
6
CONTINUOUS
62
4
100
AcDbLine
10
43.060000000000
20
30.430000000000
30
0.0
11
43.860000000000
21
30.430000000000
31
0.0
0
LINE
5
7b3
100
AcDbEntity
8
F-0
6
CONTINUOUS
62
4
100
AcDbLine
10
43.060000000000
20
30.590000000000
30
0.0
11
43.860000000000
21
30.590000000000
31
0.0
0
LINE
5
7b4
100
AcDbEntity
8
F-0
6
CONTINUOUS
62
4
100
AcDbLine
10
42.690000000000
20
36.670000000000
30
0.0
11
43.860000000000
21
36.670000000000
31
0.0
0
LINE
5
7b5
100
AcDbEntity
8
F-0
6
CONTINUOUS
62
4
100
AcDbLine
10
42.530000000000
20
36.510000000000
30
0.0
11
43.860000000000
21
36.510000000000
31
0.0
0
LINE
5
7b6
100
AcDbEntity
8
F-0
6
CONTINUOUS
62
4
100
AcDbLine
10
38.530000000000
20
32.510000000000
30
0.0
11
39.100000000000
21
32.510000000000
31
0.0
0
LINE
5
7b7
100
AcDbEntity
8
F-0
6
CONTINUOUS
62
4
100
AcDbLine
10
38.370000000000
20
32.350000000000
30
0.0
11
38.940000000000
21
32.350000000000
31
0.0
0
LINE
5
7b8
100
AcDbEntity
8
F-0
6
CONTINUOUS
62
4
100
AcDbLine
10
38.210000000000
20
32.190000000000
30
0.0
11
38.780000000000
21
32.190000000000
31
0.0
0
LINE
5
7b9
100
AcDbEntity
8
F-0
6
CONTINUOUS
62
4
100
AcDbLine
10
38.050000000000
20
32.030000000000
30
0.0
11
38.620000000000
21
32.030000000000
31
0.0
0
LINE
5
7ba
100
AcDbEntity
8
F-0
6
CONTINUOUS
62
4
100
AcDbLine
10
39.170000000000
20
33.150000000000
30
0.0
11
39.740000000000
21
33.150000000000
31
0.0
0
LINE
5
7bb
100
AcDbEntity
8
F-0
6
CONTINUOUS
62
4
100
AcDbLine
10
39.010000000000
20
32.990000000000
30
0.0
11
39.580000000000
21
32.990000000000
31
0.0
0
LINE
5
7bc
100
AcDbEntity
8
F-0
6
CONTINUOUS
62
4
100
AcDbLine
10
38.850000000000
20
32.830000000000
30
0.0
11
39.420000000000
21
32.830000000000
31
0.0
0
LINE
5
7bd
100
AcDbEntity
8
F-0
6
CONTINUOUS
62
4
100
AcDbLine
10
38.690000000000
20
32.670000000000
30
0.0
11
39.260000000000
21
32.670000000000
31
0.0
0
LINE
5
7be
100
AcDbEntity
8
F-0
6
CONTINUOUS
62
4
100
AcDbLine
10
39.810000000000
20
33.790000000000
30
0.0
11
40.380000000000
21
33.790000000000
31
0.0
0
LINE
5
7bf
100
AcDbEntity
8
F-0
6
CONTINUOUS
62
4
100
AcDbLine
10
39.650000000000
20
33.630000000000
30
0.0
11
40.220000000000
21
33.630000000000
31
0.0
0
LINE
5
7c0
100
AcDbEntity
8
F-0
6
CONTINUOUS
62
4
100
AcDbLine
10
39.490000000000
20
33.470000000000
30
0.0
11
40.060000000000
21
33.470000000000
31
0.0
0
LINE
5
7c1
100
AcDbEntity
8
F-0
6
CONTINUOUS
62
4
100
AcDbLine
10
39.330000000000
20
33.310000000000
30
0.0
11
39.900000000000
21
33.310000000000
31
0.0
0
LINE
5
7c2
100
AcDbEntity
8
F-0
6
CONTINUOUS
62
4
100
AcDbLine
10
40.450000000000
20
34.430000000000
30
0.0
11
41.020000000000
21
34.430000000000
31
0.0
0
LINE
5
7c3
100
AcDbEntity
8
F-0
6
CONTINUOUS
62
4
100
AcDbLine
10
40.290000000000
20
34.270000000000
30
0.0
11
40.860000000000
21
34.270000000000
31
0.0
0
LINE
5
7c4
100
AcDbEntity
8
F-0
6
CONTINUOUS
62
4
100
AcDbLine
10
40.130000000000
20
34.110000000000
30
0.0
11
40.700000000000
21
34.110000000000
31
0.0
0
LINE
5
7c5
100
AcDbEntity
8
F-0
6
CONTINUOUS
62
4
100
AcDbLine
10
39.970000000000
20
33.950000000000
30
0.0
11
40.540000000000
21
33.950000000000
31
0.0
0
LINE
5
7c6
100
AcDbEntity
8
F-0
6
CONTINUOUS
62
4
100
AcDbLine
10
41.100000000000
20
35.070000000000
30
0.0
11
41.660000000000
21
35.070000000000
31
0.0
0
LINE
5
7c7
100
AcDbEntity
8
F-0
6
CONTINUOUS
62
4
100
AcDbLine
10
40.930000000000
20
34.910000000000
30
0.0
11
41.500000000000
21
34.910000000000
31
0.0
0
LINE
5
7c8
100
AcDbEntity
8
F-0
6
CONTINUOUS
62
4
100
AcDbLine
10
40.770000000000
20
34.750000000000
30
0.0
11
41.340000000000
21
34.750000000000
31
0.0
0
LINE
5
7c9
100
AcDbEntity
8
F-0
6
CONTINUOUS
62
4
100
AcDbLine
10
40.610000000000
20
34.590000000000
30
0.0
11
41.180000000000
21
34.590000000000
31
0.0
0
LINE
5
7ca
100
AcDbEntity
8
F-0
6
CONTINUOUS
62
4
100
AcDbLine
10
41.730000000000
20
35.710000000000
30
0.0
11
42.300000000000
21
35.710000000000
31
0.0
0
LINE
5
7cb
100
AcDbEntity
8
F-0
6
CONTINUOUS
62
4
100
AcDbLine
10
41.570000000000
20
35.550000000000
30
0.0
11
42.140000000000
21
35.550000000000
31
0.0
0
LINE
5
7cc
100
AcDbEntity
8
F-0
6
CONTINUOUS
62
4
100
AcDbLine
10
41.410000000000
20
35.390000000000
30
0.0
11
41.980000000000
21
35.390000000000
31
0.0
0
LINE
5
7cd
100
AcDbEntity
8
F-0
6
CONTINUOUS
62
4
100
AcDbLine
10
41.250000000000
20
35.230000000000
30
0.0
11
41.820000000000
21
35.230000000000
31
0.0
0
LINE
5
7ce
100
AcDbEntity
8
F-0
6
CONTINUOUS
62
4
100
AcDbLine
10
42.370000000000
20
36.350000000000
30
0.0
11
42.940000000000
21
36.350000000000
31
0.0
0
LINE
5
7cf
100
AcDbEntity
8
F-0
6
CONTINUOUS
62
4
100
AcDbLine
10
42.210000000000
20
36.190000000000
30
0.0
11
42.780000000000
21
36.190000000000
31
0.0
0
LINE
5
7d0
100
AcDbEntity
8
F-0
6
CONTINUOUS
62
4
100
AcDbLine
10
42.050000000000
20
36.030000000000
30
0.0
11
42.620000000000
21
36.030000000000
31
0.0
0
LINE
5
7d1
100
AcDbEntity
8
F-0
6
CONTINUOUS
62
4
100
AcDbLine
10
41.890000000000
20
35.870000000000
30
0.0
11
42.460000000000
21
35.870000000000
31
0.0
0
LINE
5
7d2
100
AcDbEntity
8
F-0
6
CONTINUOUS
62
4
100
AcDbLine
10
43.060000000000
20
32.830000000000
30
0.0
11
43.860000000000
21
32.830000000000
31
0.0
0
ARC
5
7d3
100
AcDbEntity
8
0-2_2_1
6
CONTINUOUS
62
7
100
AcDbCircle
10
91.250000000000
20
184.090000000000
30
0.0
40
0.499999992412
100
AcDbArc
50
360.000000000000
51
450.000000000000
0
ARC
5
7d4
100
AcDbEntity
8
0-2_2_1
6
CONTINUOUS
62
7
100
AcDbCircle
10
91.250000000000
20
184.090000000000
30
0.0
40
0.999999984825
100
AcDbArc
50
360.000000000000
51
450.000000000000
0
ARC
5
7d5
100
AcDbEntity
8
0-2_2_1
6
CONTINUOUS
62
7
100
AcDbCircle
10
91.250000000000
20
157.090000000000
30
0.0
40
0.499999992412
100
AcDbArc
50
270.000000000000
51
0.000000000000
0
ARC
5
7d6
100
AcDbEntity
8
0-2_2_1
6
CONTINUOUS
62
7
100
AcDbCircle
10
91.250000000000
20
157.090000000000
30
0.0
40
0.999999984825
100
AcDbArc
50
270.000000000000
51
0.000000000000
0
ARC
5
7d7
100
AcDbEntity
8
0-2_2_1
6
CONTINUOUS
62
7
100
AcDbCircle
10
92.250000000000
20
185.090000000000
30
0.0
40
0.499999992412
100
AcDbArc
50
360.000000000000
51
450.000000000000
0
ARC
5
7d8
100
AcDbEntity
8
0-2_2_1
6
CONTINUOUS
62
7
100
AcDbCircle
10
93.750000000000
20
157.090000000000
30
0.0
40
0.499999992412
100
AcDbArc
50
180.000000000000
51
270.000000000000
0
ARC
5
7d9
100
AcDbEntity
8
0-2_2_1
6
CONTINUOUS
62
7
100
AcDbCircle
10
93.750000000000
20
157.090000000000
30
0.0
40
0.999999984825
100
AcDbArc
50
180.000000000000
51
270.000000000000
0
ARC
5
7da
100
AcDbEntity
8
0-2_2_1
6
CONTINUOUS
62
7
100
AcDbCircle
10
92.250000000000
20
185.090000000000
30
0.0
40
0.999999984825
100
AcDbArc
50
360.000000000000
51
450.000000000000
0
ARC
5
7db
100
AcDbEntity
8
0-2_2_1
6
CONTINUOUS
62
7
100
AcDbCircle
10
79.750000000000
20
186.090000000000
30
0.0
40
0.499999992412
100
AcDbArc
50
90.000000000000
51
180.000000000000
0
ARC
5
7dc
100
AcDbEntity
8
0-2_2_1
6
CONTINUOUS
62
7
100
AcDbCircle
10
93.250000000000
20
186.090000000000
30
0.0
40
0.499999992412
100
AcDbArc
50
360.000000000000
51
450.000000000000
0
ARC
5
7dd
100
AcDbEntity
8
0-2_2_1
6
CONTINUOUS
62
7
100
AcDbCircle
10
94.750000000000
20
177.590000000000
30
0.0
40
0.499999992412
100
AcDbArc
50
180.000000000000
51
270.000000000000
0
ARC
5
7de
100
AcDbEntity
8
0-2_2_1
6
CONTINUOUS
62
7
100
AcDbCircle
10
94.750000000000
20
177.590000000000
30
0.0
40
0.999999984825
100
AcDbArc
50
180.000000000000
51
270.000000000000
0
ARC
5
7df
100
AcDbEntity
8
0-2_2_1
6
CONTINUOUS
62
7
100
AcDbCircle
10
93.250000000000
20
186.090000000000
30
0.0
40
0.999999984825
100
AcDbArc
50
360.000000000000
51
450.000000000000
0
ARC
5
7e0
100
AcDbEntity
8
0-2_2_1
6
CONTINUOUS
62
7
100
AcDbCircle
10
79.750000000000
20
186.090000000000
30
0.0
40
0.999999984825
100
AcDbArc
50
90.000000000000
51
180.000000000000
0
ARC
5
7e1
100
AcDbEntity
8
0-2_2_1
6
CONTINUOUS
62
7
100
AcDbCircle
10
181.250000000000
20
184.090000000000
30
0.0
40
0.499999992412
100
AcDbArc
50
360.000000000000
51
450.000000000000
0
ARC
5
7e2
100
AcDbEntity
8
0-2_2_1
6
CONTINUOUS
62
7
100
AcDbCircle
10
181.250000000000
20
184.090000000000
30
0.0
40
0.999999984825
100
AcDbArc
50
360.000000000000
51
450.000000000000
0
ARC
5
7e3
100
AcDbEntity
8
0-2_2_1
6
CONTINUOUS
62
7
100
AcDbCircle
10
181.250000000000
20
157.090000000000
30
0.0
40
0.499999992412
100
AcDbArc
50
270.000000000000
51
0.000000000000
0
ARC
5
7e4
100
AcDbEntity
8
0-2_2_1
6
CONTINUOUS
62
7
100
AcDbCircle
10
181.250000000000
20
157.090000000000
30
0.0
40
0.999999984825
100
AcDbArc
50
270.000000000000
51
0.000000000000
0
ARC
5
7e5
100
AcDbEntity
8
0-2_2_1
6
CONTINUOUS
62
7
100
AcDbCircle
10
182.250000000000
20
185.090000000000
30
0.0
40
0.499999992412
100
AcDbArc
50
360.000000000000
51
450.000000000000
0
ARC
5
7e6
100
AcDbEntity
8
0-2_2_1
6
CONTINUOUS
62
7
100
AcDbCircle
10
183.750000000000
20
157.090000000000
30
0.0
40
0.499999992412
100
AcDbArc
50
180.000000000000
51
270.000000000000
0
ARC
5
7e7
100
AcDbEntity
8
0-2_2_1
6
CONTINUOUS
62
7
100
AcDbCircle
10
183.750000000000
20
157.090000000000
30
0.0
40
0.999999984825
100
AcDbArc
50
180.000000000000
51
270.000000000000
0
ARC
5
7e8
100
AcDbEntity
8
0-2_2_1
6
CONTINUOUS
62
7
100
AcDbCircle
10
182.250000000000
20
185.090000000000
30
0.0
40
0.999999984825
100
AcDbArc
50
360.000000000000
51
450.000000000000
0
ARC
5
7e9
100
AcDbEntity
8
0-2_2_1
6
CONTINUOUS
62
7
100
AcDbCircle
10
183.250000000000
20
186.090000000000
30
0.0
40
0.499999992412
100
AcDbArc
50
360.000000000000
51
450.000000000000
0
ARC
5
7ea
100
AcDbEntity
8
0-2_2_1
6
CONTINUOUS
62
7
100
AcDbCircle
10
184.750000000000
20
177.590000000000
30
0.0
40
0.499999992412
100
AcDbArc
50
180.000000000000
51
270.000000000000
0
ARC
5
7eb
100
AcDbEntity
8
0-2_2_1
6
CONTINUOUS
62
7
100
AcDbCircle
10
184.750000000000
20
177.590000000000
30
0.0
40
0.999999984825
100
AcDbArc
50
180.000000000000
51
270.000000000000
0
ARC
5
7ec
100
AcDbEntity
8
0-2_2_1
6
CONTINUOUS
62
7
100
AcDbCircle
10
183.250000000000
20
186.090000000000
30
0.0
40
0.999999984825
100
AcDbArc
50
360.000000000000
51
450.000000000000
0
ARC
5
7ed
100
AcDbEntity
8
0-2_2_1
6
CONTINUOUS
62
7
100
AcDbCircle
10
170.750000000000
20
185.340000000000
30
0.0
40
1.750023392085
100
AcDbArc
50
90.000000000000
51
270.000000000000
0
ARC
5
7ee
100
AcDbEntity
8
0-2_2_1
6
CONTINUOUS
62
7
100
AcDbCircle
10
170.750000000000
20
185.340000000000
30
0.0
40
1.250019335280
100
AcDbArc
50
90.000000000000
51
270.000000000000
0
ARC
5
7ef
100
AcDbEntity
8
0-2_2_1
6
CONTINUOUS
62
7
100
AcDbCircle
10
271.250000000000
20
157.090000000000
30
0.0
40
0.499999992412
100
AcDbArc
50
270.000000000000
51
0.000000000000
0
ARC
5
7f0
100
AcDbEntity
8
0-2_2_1
6
CONTINUOUS
62
7
100
AcDbCircle
10
271.250000000000
20
157.090000000000
30
0.0
40
0.999999984825
100
AcDbArc
50
270.000000000000
51
0.000000000000
0
ARC
5
7f1
100
AcDbEntity
8
0-2_2_1
6
CONTINUOUS
62
7
100
AcDbCircle
10
273.750000000000
20
157.090000000000
30
0.0
40
0.499999992412
100
AcDbArc
50
180.000000000000
51
270.000000000000
0
ARC
5
7f2
100
AcDbEntity
8
0-2_2_1
6
CONTINUOUS
62
7
100
AcDbCircle
10
273.750000000000
20
157.090000000000
30
0.0
40
0.999999984825
100
AcDbArc
50
180.000000000000
51
270.000000000000
0
ARC
5
7f3
100
AcDbEntity
8
0-2_2_1
6
CONTINUOUS
62
7
100
AcDbCircle
10
274.750000000000
20
177.590000000000
30
0.0
40
0.499999992412
100
AcDbArc
50
180.000000000000
51
270.000000000000
0
ARC
5
7f4
100
AcDbEntity
8
0-2_2_1
6
CONTINUOUS
62
7
100
AcDbCircle
10
274.750000000000
20
177.590000000000
30
0.0
40
0.999999984825
100
AcDbArc
50
180.000000000000
51
270.000000000000
0
ARC
5
7f5
100
AcDbEntity
8
0-2_2_1
6
CONTINUOUS
62
7
100
AcDbCircle
10
269.500000000000
20
173.330000000000
30
0.0
40
1.750023392085
100
AcDbArc
50
180.000000000000
51
360.000000000000
0
ARC
5
7f6
100
AcDbEntity
8
0-2_2_1
6
CONTINUOUS
62
7
100
AcDbCircle
10
269.500000000000
20
173.330000000000
30
0.0
40
1.250019335280
100
AcDbArc
50
180.000000000000
51
360.000000000000
0
ARC
5
7f7
100
AcDbEntity
8
0-2_2_1
6
CONTINUOUS
62
7
100
AcDbCircle
10
271.750000000000
20
184.590000000000
30
0.0
40
1.999999969650
100
AcDbArc
50
360.000000000000
51
450.000000000000
0
ARC
5
7f8
100
AcDbEntity
8
0-2_2_1
6
CONTINUOUS
62
7
100
AcDbCircle
10
271.750000000000
20
184.590000000000
30
0.0
40
2.499999962062
100
AcDbArc
50
360.000000000000
51
450.000000000000
0
ARC
5
7f9
100
AcDbEntity
8
0-2_2_1
6
CONTINUOUS
62
7
100
AcDbCircle
10
270.250000000000
20
184.590000000000
30
0.0
40
1.999999969650
100
AcDbArc
50
90.000000000000
51
180.000000000000
0
ARC
5
7fa
100
AcDbEntity
8
0-2_2_1
6
CONTINUOUS
62
7
100
AcDbCircle
10
270.250000000000
20
184.590000000000
30
0.0
40
2.499999962062
100
AcDbArc
50
90.000000000000
51
180.000000000000
0
ARC
5
7fb
100
AcDbEntity
8
0-2_2_1
6
CONTINUOUS
62
7
100
AcDbCircle
10
271.750000000000
20
184.590000000000
30
0.0
40
1.499999977237
100
AcDbArc
50
360.000000000000
51
450.000000000000
0
ARC
5
7fc
100
AcDbEntity
8
0-2_2_1
6
CONTINUOUS
62
7
100
AcDbCircle
10
271.750000000000
20
184.590000000000
30
0.0
40
0.999999984825
100
AcDbArc
50
360.000000000000
51
450.000000000000
0
ARC
5
7fd
100
AcDbEntity
8
0-2_2_1
6
CONTINUOUS
62
7
100
AcDbCircle
10
270.250000000000
20
184.590000000000
30
0.0
40
1.499999977237
100
AcDbArc
50
90.000000000000
51
180.000000000000
0
ARC
5
7fe
100
AcDbEntity
8
0-2_2_1
6
CONTINUOUS
62
7
100
AcDbCircle
10
270.250000000000
20
184.590000000000
30
0.0
40
0.999999984825
100
AcDbArc
50
90.000000000000
51
180.000000000000
0
ARC
5
7ff
100
AcDbEntity
8
0-2_2_1
6
CONTINUOUS
62
7
100
AcDbCircle
10
270.250000000000
20
184.590000000000
30
0.0
40
0.499999992412
100
AcDbArc
50
90.000000000000
51
180.000000000000
0
ARC
5
800
100
AcDbEntity
8
0-2_2_1
6
CONTINUOUS
62
7
100
AcDbCircle
10
271.750000000000
20
184.590000000000
30
0.0
40
0.499999992412
100
AcDbArc
50
360.000000000000
51
450.000000000000
0
ARC
5
801
100
AcDbEntity
8
0-2_2_1
6
CONTINUOUS
62
7
100
AcDbCircle
10
128.250000000000
20
184.090000000000
30
0.0
40
0.499999992412
100
AcDbArc
50
90.000000000000
51
180.000000000000
0
ARC
5
802
100
AcDbEntity
8
0-2_2_1
6
CONTINUOUS
62
7
100
AcDbCircle
10
128.250000000000
20
184.090000000000
30
0.0
40
0.999999984825
100
AcDbArc
50
90.000000000000
51
180.000000000000
0
ARC
5
803
100
AcDbEntity
8
0-2_2_1
6
CONTINUOUS
62
7
100
AcDbCircle
10
128.250000000000
20
157.090000000000
30
0.0
40
0.499999992412
100
AcDbArc
50
180.000000000000
51
-90.000000000000
0
ARC
5
804
100
AcDbEntity
8
0-2_2_1
6
CONTINUOUS
62
7
100
AcDbCircle
10
128.250000000000
20
157.090000000000
30
0.0
40
0.999999984825
100
AcDbArc
50
180.000000000000
51
-90.000000000000
0
ARC
5
805
100
AcDbEntity
8
0-2_2_1
6
CONTINUOUS
62
7
100
AcDbCircle
10
127.250000000000
20
185.090000000000
30
0.0
40
0.499999992412
100
AcDbArc
50
90.000000000000
51
180.000000000000
0
ARC
5
806
100
AcDbEntity
8
0-2_2_1
6
CONTINUOUS
62
7
100
AcDbCircle
10
125.750000000000
20
157.090000000000
30
0.0
40
0.499999992412
100
AcDbArc
50
270.000000000000
51
360.000000000000
0
ARC
5
807
100
AcDbEntity
8
0-2_2_1
6
CONTINUOUS
62
7
100
AcDbCircle
10
125.750000000000
20
157.090000000000
30
0.0
40
0.999999984825
100
AcDbArc
50
270.000000000000
51
360.000000000000
0
ARC
5
808
100
AcDbEntity
8
0-2_2_1
6
CONTINUOUS
62
7
100
AcDbCircle
10
127.250000000000
20
185.090000000000
30
0.0
40
0.999999984825
100
AcDbArc
50
90.000000000000
51
180.000000000000
0
ARC
5
809
100
AcDbEntity
8
0-2_2_1
6
CONTINUOUS
62
7
100
AcDbCircle
10
139.750000000000
20
186.090000000000
30
0.0
40
0.499999992412
100
AcDbArc
50
360.000000000000
51
450.000000000000
0
ARC
5
80a
100
AcDbEntity
8
0-2_2_1
6
CONTINUOUS
62
7
100
AcDbCircle
10
126.250000000000
20
186.090000000000
30
0.0
40
0.499999992412
100
AcDbArc
50
90.000000000000
51
180.000000000000
0
ARC
5
80b
100
AcDbEntity
8
0-2_2_1
6
CONTINUOUS
62
7
100
AcDbCircle
10
124.750000000000
20
177.590000000000
30
0.0
40
0.499999992412
100
AcDbArc
50
270.000000000000
51
360.000000000000
0
ARC
5
80c
100
AcDbEntity
8
0-2_2_1
6
CONTINUOUS
62
7
100
AcDbCircle
10
124.750000000000
20
177.590000000000
30
0.0
40
0.999999984825
100
AcDbArc
50
270.000000000000
51
360.000000000000
0
ARC
5
80d
100
AcDbEntity
8
0-2_2_1
6
CONTINUOUS
62
7
100
AcDbCircle
10
126.250000000000
20
186.090000000000
30
0.0
40
0.999999984825
100
AcDbArc
50
90.000000000000
51
180.000000000000
0
ARC
5
80e
100
AcDbEntity
8
0-2_2_1
6
CONTINUOUS
62
7
100
AcDbCircle
10
139.750000000000
20
186.090000000000
30
0.0
40
0.999999984825
100
AcDbArc
50
360.000000000000
51
450.000000000000
0
ARC
5
80f
100
AcDbEntity
8
0-2_2_1
6
CONTINUOUS
62
7
100
AcDbCircle
10
218.250000000000
20
184.090000000000
30
0.0
40
0.499999992412
100
AcDbArc
50
90.000000000000
51
180.000000000000
0
ARC
5
810
100
AcDbEntity
8
0-2_2_1
6
CONTINUOUS
62
7
100
AcDbCircle
10
218.250000000000
20
184.090000000000
30
0.0
40
0.999999984825
100
AcDbArc
50
90.000000000000
51
180.000000000000
0
ARC
5
811
100
AcDbEntity
8
0-2_2_1
6
CONTINUOUS
62
7
100
AcDbCircle
10
218.250000000000
20
157.090000000000
30
0.0
40
0.499999992412
100
AcDbArc
50
180.000000000000
51
-90.000000000000
0
ARC
5
812
100
AcDbEntity
8
0-2_2_1
6
CONTINUOUS
62
7
100
AcDbCircle
10
218.250000000000
20
157.090000000000
30
0.0
40
0.999999984825
100
AcDbArc
50
180.000000000000
51
-90.000000000000
0
ARC
5
813
100
AcDbEntity
8
0-2_2_1
6
CONTINUOUS
62
7
100
AcDbCircle
10
217.250000000000
20
185.090000000000
30
0.0
40
0.499999992412
100
AcDbArc
50
90.000000000000
51
180.000000000000
0
ARC
5
814
100
AcDbEntity
8
0-2_2_1
6
CONTINUOUS
62
7
100
AcDbCircle
10
215.750000000000
20
157.090000000000
30
0.0
40
0.499999992412
100
AcDbArc
50
270.000000000000
51
360.000000000000
0
ARC
5
815
100
AcDbEntity
8
0-2_2_1
6
CONTINUOUS
62
7
100
AcDbCircle
10
215.750000000000
20
157.090000000000
30
0.0
40
0.999999984825
100
AcDbArc
50
270.000000000000
51
360.000000000000
0
ARC
5
816
100
AcDbEntity
8
0-2_2_1
6
CONTINUOUS
62
7
100
AcDbCircle
10
217.250000000000
20
185.090000000000
30
0.0
40
0.999999984825
100
AcDbArc
50
90.000000000000
51
180.000000000000
0
ARC
5
817
100
AcDbEntity
8
0-2_2_1
6
CONTINUOUS
62
7
100
AcDbCircle
10
216.250000000000
20
186.090000000000
30
0.0
40
0.499999992412
100
AcDbArc
50
90.000000000000
51
180.000000000000
0
ARC
5
818
100
AcDbEntity
8
0-2_2_1
6
CONTINUOUS
62
7
100
AcDbCircle
10
214.750000000000
20
177.590000000000
30
0.0
40
0.499999992412
100
AcDbArc
50
270.000000000000
51
360.000000000000
0
ARC
5
819
100
AcDbEntity
8
0-2_2_1
6
CONTINUOUS
62
7
100
AcDbCircle
10
214.750000000000
20
177.590000000000
30
0.0
40
0.999999984825
100
AcDbArc
50
270.000000000000
51
360.000000000000
0
ARC
5
81a
100
AcDbEntity
8
0-2_2_1
6
CONTINUOUS
62
7
100
AcDbCircle
10
216.250000000000
20
186.090000000000
30
0.0
40
0.999999984825
100
AcDbArc
50
90.000000000000
51
180.000000000000
0
ARC
5
81b
100
AcDbEntity
8
0-2_2_1
6
CONTINUOUS
62
7
100
AcDbCircle
10
228.750000000000
20
185.340000000000
30
0.0
40
1.750023392085
100
AcDbArc
50
270.000000000000
51
450.000000000000
0
ARC
5
81c
100
AcDbEntity
8
0-2_2_1
6
CONTINUOUS
62
7
100
AcDbCircle
10
228.750000000000
20
185.340000000000
30
0.0
40
1.250019335280
100
AcDbArc
50
270.000000000000
51
450.000000000000
0
ARC
5
81d
100
AcDbEntity
8
0-2_2_1
6
CONTINUOUS
62
7
100
AcDbCircle
10
308.250000000000
20
157.090000000000
30
0.0
40
0.499999992412
100
AcDbArc
50
180.000000000000
51
-90.000000000000
0
ARC
5
81e
100
AcDbEntity
8
0-2_2_1
6
CONTINUOUS
62
7
100
AcDbCircle
10
308.250000000000
20
157.090000000000
30
0.0
40
0.999999984825
100
AcDbArc
50
180.000000000000
51
-90.000000000000
0
ARC
5
81f
100
AcDbEntity
8
0-2_2_1
6
CONTINUOUS
62
7
100
AcDbCircle
10
305.750000000000
20
157.090000000000
30
0.0
40
0.499999992412
100
AcDbArc
50
270.000000000000
51
360.000000000000
0
ARC
5
820
100
AcDbEntity
8
0-2_2_1
6
CONTINUOUS
62
7
100
AcDbCircle
10
305.750000000000
20
157.090000000000
30
0.0
40
0.999999984825
100
AcDbArc
50
270.000000000000
51
360.000000000000
0
ARC
5
821
100
AcDbEntity
8
0-2_2_1
6
CONTINUOUS
62
7
100
AcDbCircle
10
304.750000000000
20
177.590000000000
30
0.0
40
0.499999992412
100
AcDbArc
50
270.000000000000
51
360.000000000000
0
ARC
5
822
100
AcDbEntity
8
0-2_2_1
6
CONTINUOUS
62
7
100
AcDbCircle
10
304.750000000000
20
177.590000000000
30
0.0
40
0.999999984825
100
AcDbArc
50
270.000000000000
51
360.000000000000
0
ARC
5
823
100
AcDbEntity
8
0-2_2_1
6
CONTINUOUS
62
7
100
AcDbCircle
10
310.000000000000
20
173.330000000000
30
0.0
40
1.750023392085
100
AcDbArc
50
180.000000000000
51
360.000000000000
0
ARC
5
824
100
AcDbEntity
8
0-2_2_1
6
CONTINUOUS
62
7
100
AcDbCircle
10
310.000000000000
20
173.330000000000
30
0.0
40
1.250019335280
100
AcDbArc
50
180.000000000000
51
360.000000000000
0
ARC
5
825
100
AcDbEntity
8
0-2_2_1
6
CONTINUOUS
62
7
100
AcDbCircle
10
307.750000000000
20
184.590000000000
30
0.0
40
1.999999969650
100
AcDbArc
50
90.000000000000
51
180.000000000000
0
ARC
5
826
100
AcDbEntity
8
0-2_2_1
6
CONTINUOUS
62
7
100
AcDbCircle
10
307.750000000000
20
184.590000000000
30
0.0
40
2.499999962062
100
AcDbArc
50
90.000000000000
51
180.000000000000
0
ARC
5
827
100
AcDbEntity
8
0-2_2_1
6
CONTINUOUS
62
7
100
AcDbCircle
10
309.250000000000
20
184.590000000000
30
0.0
40
1.999999969650
100
AcDbArc
50
360.000000000000
51
450.000000000000
0
ARC
5
828
100
AcDbEntity
8
0-2_2_1
6
CONTINUOUS
62
7
100
AcDbCircle
10
309.250000000000
20
184.590000000000
30
0.0
40
2.499999962062
100
AcDbArc
50
360.000000000000
51
450.000000000000
0
ARC
5
829
100
AcDbEntity
8
0-2_2_1
6
CONTINUOUS
62
7
100
AcDbCircle
10
307.750000000000
20
184.590000000000
30
0.0
40
1.499999977237
100
AcDbArc
50
90.000000000000
51
180.000000000000
0
ARC
5
82a
100
AcDbEntity
8
0-2_2_1
6
CONTINUOUS
62
7
100
AcDbCircle
10
307.750000000000
20
184.590000000000
30
0.0
40
0.999999984825
100
AcDbArc
50
90.000000000000
51
180.000000000000
0
ARC
5
82b
100
AcDbEntity
8
0-2_2_1
6
CONTINUOUS
62
7
100
AcDbCircle
10
309.250000000000
20
184.590000000000
30
0.0
40
1.499999977237
100
AcDbArc
50
360.000000000000
51
450.000000000000
0
ARC
5
82c
100
AcDbEntity
8
0-2_2_1
6
CONTINUOUS
62
7
100
AcDbCircle
10
309.250000000000
20
184.590000000000
30
0.0
40
0.999999984825
100
AcDbArc
50
360.000000000000
51
450.000000000000
0
ARC
5
82d
100
AcDbEntity
8
0-2_2_1
6
CONTINUOUS
62
7
100
AcDbCircle
10
309.250000000000
20
184.590000000000
30
0.0
40
0.499999992412
100
AcDbArc
50
360.000000000000
51
450.000000000000
0
ARC
5
82e
100
AcDbEntity
8
0-2_2_1
6
CONTINUOUS
62
7
100
AcDbCircle
10
307.750000000000
20
184.590000000000
30
0.0
40
0.499999992412
100
AcDbArc
50
90.000000000000
51
180.000000000000
0
ARC
5
82f
100
AcDbEntity
8
0-1_2_0
6
CONTINUOUS
62
7
100
AcDbCircle
10
68.390000000000
20
323.850000000000
30
0.0
40
0.499999992412
100
AcDbArc
50
90.000000000000
51
180.000000000000
0
ARC
5
830
100
AcDbEntity
8
0-1_2_0
6
CONTINUOUS
62
7
100
AcDbCircle
10
81.890000000000
20
323.850000000000
30
0.0
40
0.499999992412
100
AcDbArc
50
360.000000000000
51
450.000000000000
0
ARC
5
831
100
AcDbEntity
8
0-1_2_0
6
CONTINUOUS
62
7
100
AcDbCircle
10
83.390000000000
20
315.350000000000
30
0.0
40
0.499999992412
100
AcDbArc
50
180.000000000000
51
270.000000000000
0
ARC
5
832
100
AcDbEntity
8
0-1_2_0
6
CONTINUOUS
62
7
100
AcDbCircle
10
83.390000000000
20
315.350000000000
30
0.0
40
0.999999984825
100
AcDbArc
50
180.000000000000
51
270.000000000000
0
ARC
5
833
100
AcDbEntity
8
0-1_2_0
6
CONTINUOUS
62
7
100
AcDbCircle
10
81.890000000000
20
323.850000000000
30
0.0
40
0.999999984825
100
AcDbArc
50
360.000000000000
51
450.000000000000
0
ARC
5
834
100
AcDbEntity
8
0-1_2_0
6
CONTINUOUS
62
7
100
AcDbCircle
10
68.390000000000
20
323.850000000000
30
0.0
40
0.999999984825
100
AcDbArc
50
90.000000000000
51
180.000000000000
0
ARC
5
835
100
AcDbEntity
8
0-1_2_0
6
CONTINUOUS
62
7
100
AcDbCircle
10
128.390000000000
20
323.850000000000
30
0.0
40
0.499999992412
100
AcDbArc
50
360.000000000000
51
450.000000000000
0
ARC
5
836
100
AcDbEntity
8
0-1_2_0
6
CONTINUOUS
62
7
100
AcDbCircle
10
114.890000000000
20
323.850000000000
30
0.0
40
0.499999992412
100
AcDbArc
50
90.000000000000
51
180.000000000000
0
ARC
5
837
100
AcDbEntity
8
0-1_2_0
6
CONTINUOUS
62
7
100
AcDbCircle
10
113.390000000000
20
315.350000000000
30
0.0
40
0.499999992412
100
AcDbArc
50
270.000000000000
51
360.000000000000
0
ARC
5
838
100
AcDbEntity
8
0-1_2_0
6
CONTINUOUS
62
7
100
AcDbCircle
10
113.390000000000
20
315.350000000000
30
0.0
40
0.999999984825
100
AcDbArc
50
270.000000000000
51
360.000000000000
0
ARC
5
839
100
AcDbEntity
8
0-1_2_0
6
CONTINUOUS
62
7
100
AcDbCircle
10
114.890000000000
20
323.850000000000
30
0.0
40
0.999999984825
100
AcDbArc
50
90.000000000000
51
180.000000000000
0
ARC
5
83a
100
AcDbEntity
8
0-1_2_0
6
CONTINUOUS
62
7
100
AcDbCircle
10
128.390000000000
20
323.850000000000
30
0.0
40
0.999999984825
100
AcDbArc
50
360.000000000000
51
450.000000000000
0
ARC
5
83b
100
AcDbEntity
8
0-1_2_0
6
CONTINUOUS
62
7
100
AcDbCircle
10
170.890000000000
20
322.850000000000
30
0.0
40
0.499999992412
100
AcDbArc
50
360.000000000000
51
450.000000000000
0
ARC
5
83c
100
AcDbEntity
8
0-1_2_0
6
CONTINUOUS
62
7
100
AcDbCircle
10
172.390000000000
20
294.850000000000
30
0.0
40
0.499999992412
100
AcDbArc
50
180.000000000000
51
270.000000000000
0
ARC
5
83d
100
AcDbEntity
8
0-1_2_0
6
CONTINUOUS
62
7
100
AcDbCircle
10
172.390000000000
20
294.850000000000
30
0.0
40
0.999999984825
100
AcDbArc
50
180.000000000000
51
270.000000000000
0
ARC
5
83e
100
AcDbEntity
8
0-1_2_0
6
CONTINUOUS
62
7
100
AcDbCircle
10
170.890000000000
20
322.850000000000
30
0.0
40
0.999999984825
100
AcDbArc
50
360.000000000000
51
450.000000000000
0
ARC
5
83f
100
AcDbEntity
8
0-1_2_0
6
CONTINUOUS
62
7
100
AcDbCircle
10
205.890000000000
20
322.850000000000
30
0.0
40
0.499999992412
100
AcDbArc
50
90.000000000000
51
180.000000000000
0
ARC
5
840
100
AcDbEntity
8
0-1_2_0
6
CONTINUOUS
62
7
100
AcDbCircle
10
204.390000000000
20
294.850000000000
30
0.0
40
0.499999992412
100
AcDbArc
50
270.000000000000
51
360.000000000000
0
ARC
5
841
100
AcDbEntity
8
0-1_2_0
6
CONTINUOUS
62
7
100
AcDbCircle
10
204.390000000000
20
294.850000000000
30
0.0
40
0.999999984825
100
AcDbArc
50
270.000000000000
51
360.000000000000
0
ARC
5
842
100
AcDbEntity
8
0-1_2_0
6
CONTINUOUS
62
7
100
AcDbCircle
10
205.890000000000
20
322.850000000000
30
0.0
40
0.999999984825
100
AcDbArc
50
90.000000000000
51
180.000000000000
0
ARC
5
843
100
AcDbEntity
8
0-1_2_0
6
CONTINUOUS
62
7
100
AcDbCircle
10
251.890000000000
20
321.850000000000
30
0.0
40
0.499999992412
100
AcDbArc
50
90.000000000000
51
180.000000000000
0
ARC
5
844
100
AcDbEntity
8
0-1_2_0
6
CONTINUOUS
62
7
100
AcDbCircle
10
251.890000000000
20
321.850000000000
30
0.0
40
0.999999984825
100
AcDbArc
50
90.000000000000
51
180.000000000000
0
ARC
5
845
100
AcDbEntity
8
0-1_2_0
6
CONTINUOUS
62
7
100
AcDbCircle
10
251.890000000000
20
294.850000000000
30
0.0
40
0.499999992412
100
AcDbArc
50
180.000000000000
51
-90.000000000000
0
ARC
5
846
100
AcDbEntity
8
0-1_2_0
6
CONTINUOUS
62
7
100
AcDbCircle
10
251.890000000000
20
294.850000000000
30
0.0
40
0.999999984825
100
AcDbArc
50
180.000000000000
51
-90.000000000000
0
ARC
5
847
100
AcDbEntity
8
0-1_2_0
6
CONTINUOUS
62
7
100
AcDbCircle
10
412.000000000000
20
321.850000000000
30
0.0
40
0.499999992412
100
AcDbArc
50
360.000000000000
51
450.000000000000
0
ARC
5
848
100
AcDbEntity
8
0-1_2_0
6
CONTINUOUS
62
7
100
AcDbCircle
10
412.000000000000
20
321.850000000000
30
0.0
40
0.999999984825
100
AcDbArc
50
360.000000000000
51
450.000000000000
0
ARC
5
849
100
AcDbEntity
8
0-1_2_0
6
CONTINUOUS
62
7
100
AcDbCircle
10
412.000000000000
20
294.850000000000
30
0.0
40
0.499999992412
100
AcDbArc
50
270.000000000000
51
0.000000000000
0
ARC
5
84a
100
AcDbEntity
8
0-1_2_0
6
CONTINUOUS
62
7
100
AcDbCircle
10
412.000000000000
20
294.850000000000
30
0.0
40
0.999999984825
100
AcDbArc
50
270.000000000000
51
0.000000000000
0
ELLIPSE
  5
84b
100
AcDbEntity
8
0-3_2_2
6
CONTINUOUS
62
7
100
AcDbEllipse
10
392.934559642646
20
188.399128212637
30
0.0
11
-0.264959628096
21
0.424024041644
31
0.0
210
0.0
220
0.0
230
1.0
40
0.742399990559
41
5.585053606382
42
7.155849933177
0
ELLIPSE
  5
84c
100
AcDbEntity
8
0-3_2_2
6
CONTINUOUS
62
7
100
AcDbEllipse
10
403.993125433339
20
185.126656043387
30
0.0
11
-0.264959628096
21
0.424024041644
31
0.0
210
0.0
220
0.0
230
1.0
40
0.742399990559
41
4.014257279587
42
5.585053606382
0
ELLIPSE
  5
84d
100
AcDbEntity
8
0-3_2_2
6
CONTINUOUS
62
7
100
AcDbEllipse
10
405.221863223451
20
177.059482985533
30
0.0
11
-0.264959628096
21
0.424024041644
31
0.0
210
0.0
220
0.0
230
1.0
40
0.742399990559
41
0.872664625997
42
2.443460952792
0
ELLIPSE
  5
84e
100
AcDbEntity
8
0-3_2_2
6
CONTINUOUS
62
7
100
AcDbEllipse
10
405.221863223451
20
177.059482985533
30
0.0
11
-0.529919256192
21
0.848048083287
31
0.0
210
0.0
220
0.0
230
1.0
40
0.742399990559
41
0.872664625997
42
2.443460952792
0
ELLIPSE
  5
84f
100
AcDbEntity
8
0-3_2_2
6
CONTINUOUS
62
7
100
AcDbEllipse
10
403.993125433339
20
185.126656043387
30
0.0
11
-0.529919256192
21
0.848048083287
31
0.0
210
0.0
220
0.0
230
1.0
40
0.742399990559
41
4.014257279587
42
5.585053606382
0
ELLIPSE
  5
850
100
AcDbEntity
8
0-3_2_2
6
CONTINUOUS
62
7
100
AcDbEllipse
10
392.934559642646
20
188.399128212637
30
0.0
11
-0.529919256192
21
0.848048083287
31
0.0
210
0.0
220
0.0
230
1.0
40
0.742399990559
41
5.585053606382
42
7.155849933177
0
ELLIPSE
  5
851
100
AcDbEntity
8
0-3_2_2
6
CONTINUOUS
62
7
100
AcDbEllipse
10
442.083650098670
20
173.854890038543
30
0.0
11
-0.264959628096
21
0.424024041644
31
0.0
210
0.0
220
0.0
230
1.0
40
0.742399990559
41
4.014257279587
42
5.585053606382
0
ELLIPSE
  5
852
100
AcDbEntity
8
0-3_2_2
6
CONTINUOUS
62
7
100
AcDbEllipse
10
431.025084307978
20
177.127312660916
30
0.0
11
-0.264959628096
21
0.424024041644
31
0.0
210
0.0
220
0.0
230
1.0
40
0.742399990559
41
5.585053606382
42
7.155849933177
0
ELLIPSE
  5
853
100
AcDbEntity
8
0-3_2_2
6
CONTINUOUS
62
7
100
AcDbEllipse
10
429.796420838182
20
169.787339125047
30
0.0
11
-0.264959628096
21
0.424024041644
31
0.0
210
0.0
220
0.0
230
1.0
40
0.742399990559
41
2.443460952792
42
4.014257279587
0
ELLIPSE
  5
854
100
AcDbEntity
8
0-3_2_2
6
CONTINUOUS
62
7
100
AcDbEllipse
10
429.796420838182
20
169.787339125047
30
0.0
11
-0.529919256192
21
0.848048083287
31
0.0
210
0.0
220
0.0
230
1.0
40
0.742399990559
41
2.443460952792
42
4.014257279587
0
ELLIPSE
  5
855
100
AcDbEntity
8
0-3_2_2
6
CONTINUOUS
62
7
100
AcDbEllipse
10
431.025084307978
20
177.127312660916
30
0.0
11
-0.529919256192
21
0.848048083287
31
0.0
210
0.0
220
0.0
230
1.0
40
0.742399990559
41
5.585053606382
42
7.155849933177
0
ELLIPSE
  5
856
100
AcDbEntity
8
0-3_2_2
6
CONTINUOUS
62
7
100
AcDbEllipse
10
442.083650098670
20
173.854890038543
30
0.0
11
-0.529919256192
21
0.848048083287
31
0.0
210
0.0
220
0.0
230
1.0
40
0.742399990559
41
4.014257279587
42
5.585053606382
0
ELLIPSE
  5
857
100
AcDbEntity
8
0-3_2_2
6
CONTINUOUS
62
7
100
AcDbEllipse
10
506.313249358085
20
180.400478486452
30
0.0
11
-0.264959628096
21
0.424024041644
31
0.0
210
0.0
220
0.0
230
1.0
40
0.742399990559
41
4.014257279587
42
5.585053606382
0
ELLIPSE
  5
858
100
AcDbEntity
8
0-3_2_2
6
CONTINUOUS
62
7
100
AcDbEllipse
10
507.541962374758
20
154.660281030185
30
0.0
11
-0.264959628096
21
0.424024041644
31
0.0
210
0.0
220
0.0
230
1.0
40
0.742399990559
41
0.872664625997
42
2.443460952792
0
ELLIPSE
  5
859
100
AcDbEntity
8
0-3_2_2
6
CONTINUOUS
62
7
100
AcDbEllipse
10
507.541962374758
20
154.660281030185
30
0.0
11
-0.529919256192
21
0.848048083287
31
0.0
210
0.0
220
0.0
230
1.0
40
0.742399990559
41
0.872664625997
42
2.443460952792
0
ELLIPSE
  5
85a
100
AcDbEntity
8
0-3_2_2
6
CONTINUOUS
62
7
100
AcDbEllipse
10
506.313249358085
20
180.400478486452
30
0.0
11
-0.529919256192
21
0.848048083287
31
0.0
210
0.0
220
0.0
230
1.0
40
0.742399990559
41
4.014257279587
42
5.585053606382
0
ELLIPSE
  5
85b
100
AcDbEntity
8
0-3_2_2
6
CONTINUOUS
62
7
100
AcDbEllipse
10
534.983550059645
20
171.916368453909
30
0.0
11
-0.264959628096
21
0.424024041644
31
0.0
210
0.0
220
0.0
230
1.0
40
0.742399990559
41
5.585053606382
42
7.155849933177
0
ELLIPSE
  5
85c
100
AcDbEntity
8
0-3_2_2
6
CONTINUOUS
62
7
100
AcDbEllipse
10
533.754837042972
20
146.903370519627
30
0.0
11
-0.264959628096
21
0.424024041644
31
0.0
210
0.0
220
0.0
230
1.0
40
0.742399990559
41
2.443460952792
42
4.014257279587
0
ELLIPSE
  5
85d
100
AcDbEntity
8
0-3_2_2
6
CONTINUOUS
62
7
100
AcDbEllipse
10
533.754837042972
20
146.903370519627
30
0.0
11
-0.529919256192
21
0.848048083287
31
0.0
210
0.0
220
0.0
230
1.0
40
0.742399990559
41
2.443460952792
42
4.014257279587
0
ELLIPSE
  5
85e
100
AcDbEntity
8
0-3_2_2
6
CONTINUOUS
62
7
100
AcDbEllipse
10
534.983550059645
20
171.916368453909
30
0.0
11
-0.529919256192
21
0.848048083287
31
0.0
210
0.0
220
0.0
230
1.0
40
0.742399990559
41
5.585053606382
42
7.155849933177
0
ELLIPSE
  5
85f
100
AcDbEntity
8
0-3_2_2
6
CONTINUOUS
62
7
100
AcDbEllipse
10
596.520771992313
20
174.258152075025
30
0.0
11
-0.264959628096
21
0.424024041644
31
0.0
210
0.0
220
0.0
230
1.0
40
0.742399990559
41
5.585053606382
42
7.155849933177
0
ELLIPSE
  5
860
100
AcDbEntity
8
0-3_2_2
6
CONTINUOUS
62
7
100
AcDbEllipse
10
596.520771992313
20
174.258152075025
30
0.0
11
-0.529919256192
21
0.848048083287
31
0.0
210
0.0
220
0.0
230
1.0
40
0.742399990559
41
5.585053606382
42
7.155849933177
0
ELLIPSE
  5
861
100
AcDbEntity
8
0-3_2_2
6
CONTINUOUS
62
7
100
AcDbEllipse
10
596.520771992313
20
149.787890637563
30
0.0
11
-0.264959628096
21
0.424024041644
31
0.0
210
0.0
220
0.0
230
1.0
40
0.742399990559
41
0.872664625997
42
2.443460952792
0
ELLIPSE
  5
862
100
AcDbEntity
8
0-3_2_2
6
CONTINUOUS
62
7
100
AcDbEllipse
10
596.520771992313
20
149.787890637563
30
0.0
11
-0.529919256192
21
0.848048083287
31
0.0
210
0.0
220
0.0
230
1.0
40
0.742399990559
41
0.872664625997
42
2.443460952792
0
ELLIPSE
  5
863
100
AcDbEntity
8
0-3_2_2
6
CONTINUOUS
62
7
100
AcDbEllipse
10
727.676113400586
20
135.446596473965
30
0.0
11
-0.264959628096
21
0.424024041644
31
0.0
210
0.0
220
0.0
230
1.0
40
0.742399990559
41
4.014257279587
42
5.585053606382
0
ELLIPSE
  5
864
100
AcDbEntity
8
0-3_2_2
6
CONTINUOUS
62
7
100
AcDbEllipse
10
727.676113400586
20
135.446596473965
30
0.0
11
-0.529919256192
21
0.848048083287
31
0.0
210
0.0
220
0.0
230
1.0
40
0.742399990559
41
4.014257279587
42
5.585053606382
0
ELLIPSE
  5
865
100
AcDbEntity
8
0-3_2_2
6
CONTINUOUS
62
7
100
AcDbEllipse
10
727.676113400586
20
110.976384583380
30
0.0
11
-0.264959628096
21
0.424024041644
31
0.0
210
0.0
220
0.0
230
1.0
40
0.742399990559
41
2.443460952792
42
4.014257279587
0
ELLIPSE
  5
866
100
AcDbEntity
8
0-3_2_2
6
CONTINUOUS
62
7
100
AcDbEllipse
10
727.676113400586
20
110.976384583380
30
0.0
11
-0.529919256192
21
0.848048083287
31
0.0
210
0.0
220
0.0
230
1.0
40
0.742399990559
41
2.443460952792
42
4.014257279587
0
ARC
5
867
100
AcDbEntity
8
0-00
6
CONTINUOUS
62
7
100
AcDbCircle
10
194.100000000000
20
433.260000000000
30
0.0
40
0.499999992412
100
AcDbArc
50
270.000000000000
51
0.000000000000
0
ARC
5
868
100
AcDbEntity
8
0-00
6
CONTINUOUS
62
7
100
AcDbCircle
10
194.100000000000
20
433.260000000000
30
0.0
40
0.999999984825
100
AcDbArc
50
270.000000000000
51
0.000000000000
0
ARC
5
869
100
AcDbEntity
8
0-00
6
CONTINUOUS
62
7
100
AcDbCircle
10
196.600000000000
20
433.260000000000
30
0.0
40
0.499999992412
100
AcDbArc
50
180.000000000000
51
270.000000000000
0
ARC
5
86a
100
AcDbEntity
8
0-00
6
CONTINUOUS
62
7
100
AcDbCircle
10
196.600000000000
20
433.260000000000
30
0.0
40
0.999999984825
100
AcDbArc
50
180.000000000000
51
270.000000000000
0
ARC
5
86b
100
AcDbEntity
8
0-00
6
CONTINUOUS
62
7
100
AcDbCircle
10
197.600000000000
20
453.760000000000
30
0.0
40
0.499999992412
100
AcDbArc
50
180.000000000000
51
270.000000000000
0
ARC
5
86c
100
AcDbEntity
8
0-00
6
CONTINUOUS
62
7
100
AcDbCircle
10
197.600000000000
20
453.760000000000
30
0.0
40
0.999999984825
100
AcDbArc
50
180.000000000000
51
270.000000000000
0
ARC
5
86d
100
AcDbEntity
8
0-00
6
CONTINUOUS
62
7
100
AcDbCircle
10
192.350000000000
20
449.500000000000
30
0.0
40
1.750023392085
100
AcDbArc
50
180.000000000000
51
360.000000000000
0
ARC
5
86e
100
AcDbEntity
8
0-00
6
CONTINUOUS
62
7
100
AcDbCircle
10
192.350000000000
20
449.500000000000
30
0.0
40
1.250019335280
100
AcDbArc
50
180.000000000000
51
360.000000000000
0
ARC
5
86f
100
AcDbEntity
8
0-00
6
CONTINUOUS
62
7
100
AcDbCircle
10
194.600000000000
20
460.760000000000
30
0.0
40
1.999999969650
100
AcDbArc
50
360.000000000000
51
450.000000000000
0
ARC
5
870
100
AcDbEntity
8
0-00
6
CONTINUOUS
62
7
100
AcDbCircle
10
194.600000000000
20
460.760000000000
30
0.0
40
2.499999962062
100
AcDbArc
50
360.000000000000
51
450.000000000000
0
ARC
5
871
100
AcDbEntity
8
0-00
6
CONTINUOUS
62
7
100
AcDbCircle
10
193.100000000000
20
460.760000000000
30
0.0
40
1.999999969650
100
AcDbArc
50
90.000000000000
51
180.000000000000
0
ARC
5
872
100
AcDbEntity
8
0-00
6
CONTINUOUS
62
7
100
AcDbCircle
10
193.100000000000
20
460.760000000000
30
0.0
40
2.499999962062
100
AcDbArc
50
90.000000000000
51
180.000000000000
0
ARC
5
873
100
AcDbEntity
8
0-00
6
CONTINUOUS
62
7
100
AcDbCircle
10
194.600000000000
20
460.760000000000
30
0.0
40
1.499999977237
100
AcDbArc
50
360.000000000000
51
450.000000000000
0
ARC
5
874
100
AcDbEntity
8
0-00
6
CONTINUOUS
62
7
100
AcDbCircle
10
194.600000000000
20
460.760000000000
30
0.0
40
0.999999984825
100
AcDbArc
50
360.000000000000
51
450.000000000000
0
ARC
5
875
100
AcDbEntity
8
0-00
6
CONTINUOUS
62
7
100
AcDbCircle
10
193.100000000000
20
460.760000000000
30
0.0
40
1.499999977237
100
AcDbArc
50
90.000000000000
51
180.000000000000
0
ARC
5
876
100
AcDbEntity
8
0-00
6
CONTINUOUS
62
7
100
AcDbCircle
10
193.100000000000
20
460.760000000000
30
0.0
40
0.999999984825
100
AcDbArc
50
90.000000000000
51
180.000000000000
0
ARC
5
877
100
AcDbEntity
8
0-00
6
CONTINUOUS
62
7
100
AcDbCircle
10
193.100000000000
20
460.760000000000
30
0.0
40
0.499999992412
100
AcDbArc
50
90.000000000000
51
180.000000000000
0
ARC
5
878
100
AcDbEntity
8
0-00
6
CONTINUOUS
62
7
100
AcDbCircle
10
194.600000000000
20
460.760000000000
30
0.0
40
0.499999992412
100
AcDbArc
50
360.000000000000
51
450.000000000000
0
ARC
5
879
100
AcDbEntity
8
0-00
6
CONTINUOUS
62
7
100
AcDbCircle
10
231.100000000000
20
433.260000000000
30
0.0
40
0.499999992412
100
AcDbArc
50
180.000000000000
51
-90.000000000000
0
ARC
5
87a
100
AcDbEntity
8
0-00
6
CONTINUOUS
62
7
100
AcDbCircle
10
231.100000000000
20
433.260000000000
30
0.0
40
0.999999984825
100
AcDbArc
50
180.000000000000
51
-90.000000000000
0
ARC
5
87b
100
AcDbEntity
8
0-00
6
CONTINUOUS
62
7
100
AcDbCircle
10
228.600000000000
20
433.260000000000
30
0.0
40
0.499999992412
100
AcDbArc
50
270.000000000000
51
360.000000000000
0
ARC
5
87c
100
AcDbEntity
8
0-00
6
CONTINUOUS
62
7
100
AcDbCircle
10
228.600000000000
20
433.260000000000
30
0.0
40
0.999999984825
100
AcDbArc
50
270.000000000000
51
360.000000000000
0
ARC
5
87d
100
AcDbEntity
8
0-00
6
CONTINUOUS
62
7
100
AcDbCircle
10
227.600000000000
20
453.760000000000
30
0.0
40
0.499999992412
100
AcDbArc
50
270.000000000000
51
360.000000000000
0
ARC
5
87e
100
AcDbEntity
8
0-00
6
CONTINUOUS
62
7
100
AcDbCircle
10
227.600000000000
20
453.760000000000
30
0.0
40
0.999999984825
100
AcDbArc
50
270.000000000000
51
360.000000000000
0
ARC
5
87f
100
AcDbEntity
8
0-00
6
CONTINUOUS
62
7
100
AcDbCircle
10
232.850000000000
20
449.500000000000
30
0.0
40
1.750023392085
100
AcDbArc
50
180.000000000000
51
360.000000000000
0
ARC
5
880
100
AcDbEntity
8
0-00
6
CONTINUOUS
62
7
100
AcDbCircle
10
232.850000000000
20
449.500000000000
30
0.0
40
1.250019335280
100
AcDbArc
50
180.000000000000
51
360.000000000000
0
ARC
5
881
100
AcDbEntity
8
0-00
6
CONTINUOUS
62
7
100
AcDbCircle
10
230.600000000000
20
460.760000000000
30
0.0
40
1.999999969650
100
AcDbArc
50
90.000000000000
51
180.000000000000
0
ARC
5
882
100
AcDbEntity
8
0-00
6
CONTINUOUS
62
7
100
AcDbCircle
10
230.600000000000
20
460.760000000000
30
0.0
40
2.499999962062
100
AcDbArc
50
90.000000000000
51
180.000000000000
0
ARC
5
883
100
AcDbEntity
8
0-00
6
CONTINUOUS
62
7
100
AcDbCircle
10
232.100000000000
20
460.760000000000
30
0.0
40
1.999999969650
100
AcDbArc
50
360.000000000000
51
450.000000000000
0
ARC
5
884
100
AcDbEntity
8
0-00
6
CONTINUOUS
62
7
100
AcDbCircle
10
232.100000000000
20
460.760000000000
30
0.0
40
2.499999962062
100
AcDbArc
50
360.000000000000
51
450.000000000000
0
ARC
5
885
100
AcDbEntity
8
0-00
6
CONTINUOUS
62
7
100
AcDbCircle
10
230.600000000000
20
460.760000000000
30
0.0
40
1.499999977237
100
AcDbArc
50
90.000000000000
51
180.000000000000
0
ARC
5
886
100
AcDbEntity
8
0-00
6
CONTINUOUS
62
7
100
AcDbCircle
10
230.600000000000
20
460.760000000000
30
0.0
40
0.999999984825
100
AcDbArc
50
90.000000000000
51
180.000000000000
0
ARC
5
887
100
AcDbEntity
8
0-00
6
CONTINUOUS
62
7
100
AcDbCircle
10
232.100000000000
20
460.760000000000
30
0.0
40
1.499999977237
100
AcDbArc
50
360.000000000000
51
450.000000000000
0
ARC
5
888
100
AcDbEntity
8
0-00
6
CONTINUOUS
62
7
100
AcDbCircle
10
232.100000000000
20
460.760000000000
30
0.0
40
0.999999984825
100
AcDbArc
50
360.000000000000
51
450.000000000000
0
ARC
5
889
100
AcDbEntity
8
0-00
6
CONTINUOUS
62
7
100
AcDbCircle
10
232.100000000000
20
460.760000000000
30
0.0
40
0.499999992412
100
AcDbArc
50
360.000000000000
51
450.000000000000
0
ARC
5
88a
100
AcDbEntity
8
0-00
6
CONTINUOUS
62
7
100
AcDbCircle
10
230.600000000000
20
460.760000000000
30
0.0
40
0.499999992412
100
AcDbArc
50
90.000000000000
51
180.000000000000
0
ARC
5
88b
100
AcDbEntity
8
0-00
6
CONTINUOUS
62
7
100
AcDbCircle
10
612.100000000000
20
433.260000000000
30
0.0
40
0.499999992412
100
AcDbArc
50
270.000000000000
51
0.000000000000
0
ARC
5
88c
100
AcDbEntity
8
0-00
6
CONTINUOUS
62
7
100
AcDbCircle
10
612.100000000000
20
433.260000000000
30
0.0
40
0.999999984825
100
AcDbArc
50
270.000000000000
51
0.000000000000
0
ARC
5
88d
100
AcDbEntity
8
0-00
6
CONTINUOUS
62
7
100
AcDbCircle
10
614.600000000000
20
433.260000000000
30
0.0
40
0.499999992412
100
AcDbArc
50
180.000000000000
51
270.000000000000
0
ARC
5
88e
100
AcDbEntity
8
0-00
6
CONTINUOUS
62
7
100
AcDbCircle
10
614.600000000000
20
433.260000000000
30
0.0
40
0.999999984825
100
AcDbArc
50
180.000000000000
51
270.000000000000
0
ARC
5
88f
100
AcDbEntity
8
0-00
6
CONTINUOUS
62
7
100
AcDbCircle
10
615.600000000000
20
453.760000000000
30
0.0
40
0.499999992412
100
AcDbArc
50
180.000000000000
51
270.000000000000
0
ARC
5
890
100
AcDbEntity
8
0-00
6
CONTINUOUS
62
7
100
AcDbCircle
10
615.600000000000
20
453.760000000000
30
0.0
40
0.999999984825
100
AcDbArc
50
180.000000000000
51
270.000000000000
0
ARC
5
891
100
AcDbEntity
8
0-00
6
CONTINUOUS
62
7
100
AcDbCircle
10
610.350000000000
20
449.500000000000
30
0.0
40
1.750023392085
100
AcDbArc
50
180.000000000000
51
360.000000000000
0
ARC
5
892
100
AcDbEntity
8
0-00
6
CONTINUOUS
62
7
100
AcDbCircle
10
610.350000000000
20
449.500000000000
30
0.0
40
1.250019335280
100
AcDbArc
50
180.000000000000
51
360.000000000000
0
ARC
5
893
100
AcDbEntity
8
0-00
6
CONTINUOUS
62
7
100
AcDbCircle
10
612.600000000000
20
460.760000000000
30
0.0
40
1.999999969650
100
AcDbArc
50
360.000000000000
51
450.000000000000
0
ARC
5
894
100
AcDbEntity
8
0-00
6
CONTINUOUS
62
7
100
AcDbCircle
10
612.600000000000
20
460.760000000000
30
0.0
40
2.499999962062
100
AcDbArc
50
360.000000000000
51
450.000000000000
0
ARC
5
895
100
AcDbEntity
8
0-00
6
CONTINUOUS
62
7
100
AcDbCircle
10
611.100000000000
20
460.760000000000
30
0.0
40
1.999999969650
100
AcDbArc
50
90.000000000000
51
180.000000000000
0
ARC
5
896
100
AcDbEntity
8
0-00
6
CONTINUOUS
62
7
100
AcDbCircle
10
611.100000000000
20
460.760000000000
30
0.0
40
2.499999962062
100
AcDbArc
50
90.000000000000
51
180.000000000000
0
ARC
5
897
100
AcDbEntity
8
0-00
6
CONTINUOUS
62
7
100
AcDbCircle
10
612.600000000000
20
460.760000000000
30
0.0
40
1.499999977237
100
AcDbArc
50
360.000000000000
51
450.000000000000
0
ARC
5
898
100
AcDbEntity
8
0-00
6
CONTINUOUS
62
7
100
AcDbCircle
10
612.600000000000
20
460.760000000000
30
0.0
40
0.999999984825
100
AcDbArc
50
360.000000000000
51
450.000000000000
0
ARC
5
899
100
AcDbEntity
8
0-00
6
CONTINUOUS
62
7
100
AcDbCircle
10
611.100000000000
20
460.760000000000
30
0.0
40
1.499999977237
100
AcDbArc
50
90.000000000000
51
180.000000000000
0
ARC
5
89a
100
AcDbEntity
8
0-00
6
CONTINUOUS
62
7
100
AcDbCircle
10
611.100000000000
20
460.760000000000
30
0.0
40
0.999999984825
100
AcDbArc
50
90.000000000000
51
180.000000000000
0
ARC
5
89b
100
AcDbEntity
8
0-00
6
CONTINUOUS
62
7
100
AcDbCircle
10
611.100000000000
20
460.760000000000
30
0.0
40
0.499999992412
100
AcDbArc
50
90.000000000000
51
180.000000000000
0
ARC
5
89c
100
AcDbEntity
8
0-00
6
CONTINUOUS
62
7
100
AcDbCircle
10
612.600000000000
20
460.760000000000
30
0.0
40
0.499999992412
100
AcDbArc
50
360.000000000000
51
450.000000000000
0
ARC
5
89d
100
AcDbEntity
8
0-00
6
CONTINUOUS
62
7
100
AcDbCircle
10
649.100000000000
20
433.260000000000
30
0.0
40
0.499999992412
100
AcDbArc
50
180.000000000000
51
-90.000000000000
0
ARC
5
89e
100
AcDbEntity
8
0-00
6
CONTINUOUS
62
7
100
AcDbCircle
10
649.100000000000
20
433.260000000000
30
0.0
40
0.999999984825
100
AcDbArc
50
180.000000000000
51
-90.000000000000
0
ARC
5
89f
100
AcDbEntity
8
0-00
6
CONTINUOUS
62
7
100
AcDbCircle
10
646.600000000000
20
433.260000000000
30
0.0
40
0.499999992412
100
AcDbArc
50
270.000000000000
51
360.000000000000
0
ARC
5
8a0
100
AcDbEntity
8
0-00
6
CONTINUOUS
62
7
100
AcDbCircle
10
646.600000000000
20
433.260000000000
30
0.0
40
0.999999984825
100
AcDbArc
50
270.000000000000
51
360.000000000000
0
ARC
5
8a1
100
AcDbEntity
8
0-00
6
CONTINUOUS
62
7
100
AcDbCircle
10
645.600000000000
20
453.760000000000
30
0.0
40
0.499999992412
100
AcDbArc
50
270.000000000000
51
360.000000000000
0
ARC
5
8a2
100
AcDbEntity
8
0-00
6
CONTINUOUS
62
7
100
AcDbCircle
10
645.600000000000
20
453.760000000000
30
0.0
40
0.999999984825
100
AcDbArc
50
270.000000000000
51
360.000000000000
0
ARC
5
8a3
100
AcDbEntity
8
0-00
6
CONTINUOUS
62
7
100
AcDbCircle
10
650.850000000000
20
449.500000000000
30
0.0
40
1.750023392085
100
AcDbArc
50
180.000000000000
51
360.000000000000
0
ARC
5
8a4
100
AcDbEntity
8
0-00
6
CONTINUOUS
62
7
100
AcDbCircle
10
650.850000000000
20
449.500000000000
30
0.0
40
1.250019335280
100
AcDbArc
50
180.000000000000
51
360.000000000000
0
ARC
5
8a5
100
AcDbEntity
8
0-00
6
CONTINUOUS
62
7
100
AcDbCircle
10
648.600000000000
20
460.760000000000
30
0.0
40
1.999999969650
100
AcDbArc
50
90.000000000000
51
180.000000000000
0
ARC
5
8a6
100
AcDbEntity
8
0-00
6
CONTINUOUS
62
7
100
AcDbCircle
10
648.600000000000
20
460.760000000000
30
0.0
40
2.499999962062
100
AcDbArc
50
90.000000000000
51
180.000000000000
0
ARC
5
8a7
100
AcDbEntity
8
0-00
6
CONTINUOUS
62
7
100
AcDbCircle
10
650.100000000000
20
460.760000000000
30
0.0
40
1.999999969650
100
AcDbArc
50
360.000000000000
51
450.000000000000
0
ARC
5
8a8
100
AcDbEntity
8
0-00
6
CONTINUOUS
62
7
100
AcDbCircle
10
650.100000000000
20
460.760000000000
30
0.0
40
2.499999962062
100
AcDbArc
50
360.000000000000
51
450.000000000000
0
ARC
5
8a9
100
AcDbEntity
8
0-00
6
CONTINUOUS
62
7
100
AcDbCircle
10
648.600000000000
20
460.760000000000
30
0.0
40
1.499999977237
100
AcDbArc
50
90.000000000000
51
180.000000000000
0
ARC
5
8aa
100
AcDbEntity
8
0-00
6
CONTINUOUS
62
7
100
AcDbCircle
10
648.600000000000
20
460.760000000000
30
0.0
40
0.999999984825
100
AcDbArc
50
90.000000000000
51
180.000000000000
0
ARC
5
8ab
100
AcDbEntity
8
0-00
6
CONTINUOUS
62
7
100
AcDbCircle
10
650.100000000000
20
460.760000000000
30
0.0
40
1.499999977237
100
AcDbArc
50
360.000000000000
51
450.000000000000
0
ARC
5
8ac
100
AcDbEntity
8
0-00
6
CONTINUOUS
62
7
100
AcDbCircle
10
650.100000000000
20
460.760000000000
30
0.0
40
0.999999984825
100
AcDbArc
50
360.000000000000
51
450.000000000000
0
ARC
5
8ad
100
AcDbEntity
8
0-00
6
CONTINUOUS
62
7
100
AcDbCircle
10
650.100000000000
20
460.760000000000
30
0.0
40
0.499999992412
100
AcDbArc
50
360.000000000000
51
450.000000000000
0
ARC
5
8ae
100
AcDbEntity
8
0-00
6
CONTINUOUS
62
7
100
AcDbCircle
10
648.600000000000
20
460.760000000000
30
0.0
40
0.499999992412
100
AcDbArc
50
90.000000000000
51
180.000000000000
0
CIRCLE
5
8af
100
AcDbEntity
8
F-0
6
CONTINUOUS
62
3
100
AcDbCircle
10
39.860000000000
20
33.550000000000
30
0.0
40
5.656854879605
0
CIRCLE
5
8b0
100
AcDbEntity
8
F-0
6
CONTINUOUS
62
3
100
AcDbCircle
10
39.860000000000
20
33.550000000000
30
0.0
40
6.456854248129
0
CIRCLE
5
8b1
100
AcDbEntity
8
F-0
6
CONTINUOUS
62
4
100
AcDbCircle
10
39.860000000000
20
33.550000000000
30
0.0
40
5.736855280960
0
CIRCLE
5
8b2
100
AcDbEntity
8
F-0
6
CONTINUOUS
62
4
100
AcDbCircle
10
39.860000000000
20
33.550000000000
30
0.0
40
5.896853374073
0
CIRCLE
5
8b3
100
AcDbEntity
8
F-0
6
CONTINUOUS
62
4
100
AcDbCircle
10
39.860000000000
20
33.550000000000
30
0.0
40
6.056854176782
0
CIRCLE
5
8b4
100
AcDbEntity
8
F-0
6
CONTINUOUS
62
4
100
AcDbCircle
10
39.860000000000
20
33.550000000000
30
0.0
40
6.216853431151
0
CIRCLE
5
8b5
100
AcDbEntity
8
F-0
6
CONTINUOUS
62
4
100
AcDbCircle
10
39.860000000000
20
33.550000000000
30
0.0
40
6.376852298435
0
TEXT
5
8b6
100
AcDbEntity
8
F-0
62
3
370
-3
100
AcDbText
10
266.045
20
37.876
30
0.0
40
2.461
1
変　　　　　　更　　　　　　記　　　　　　事
41
0.999
50
0.000
100
AcDbText
0
TEXT
5
8b7
100
AcDbEntity
8
F-0
62
3
370
-3
100
AcDbText
10
407.912
20
37.476
30
0.0
40
2.461
1
受領　　日附
41
0.999
50
0.000
100
AcDbText
0
TEXT
5
8b8
100
AcDbEntity
8
F-0
62
3
370
-3
100
AcDbText
10
507.021
20
22.760
30
0.0
40
2.461
1
施工者
41
0.999
50
0.000
100
AcDbText
0
TEXT
5
8b9
100
AcDbEntity
8
F-0
62
3
370
-3
100
AcDbText
10
507.021
20
37.575
30
0.0
40
2.461
1
設計者
41
0.999
50
0.000
100
AcDbText
0
TEXT
5
8ba
100
AcDbEntity
8
F-0
62
3
370
-3
100
AcDbText
10
609.763
20
22.489
30
0.0
40
2.461
1
作図
41
0.999
50
0.000
100
AcDbText
0
TEXT
5
8bb
100
AcDbEntity
8
F-0
62
3
370
-3
100
AcDbText
10
645.676
20
22.754
30
0.0
40
2.461
1
図面名
41
0.999
50
0.000
100
AcDbText
0
TEXT
5
8bc
100
AcDbEntity
8
F-0
62
3
370
-3
100
AcDbText
10
609.763
20
37.303
30
0.0
40
2.461
1
日附
41
0.999
50
0.000
100
AcDbText
0
TEXT
5
8bd
100
AcDbEntity
8
F-0
62
3
370
-3
100
AcDbText
10
645.676
20
37.569
30
0.0
40
2.461
1
工事件名
41
0.999
50
0.000
100
AcDbText
0
TEXT
5
8be
100
AcDbEntity
8
F-0
62
3
370
-3
100
AcDbText
10
620.831
20
37.178
30
0.0
40
2.461
1
年　月　日
41
0.999
50
0.000
100
AcDbText
0
TEXT
5
8bf
100
AcDbEntity
8
F-0
62
3
370
-3
100
AcDbText
10
620.831
20
22.363
30
0.0
40
2.461
1
年　月　日
41
0.999
50
0.000
100
AcDbText
0
TEXT
5
8c0
100
AcDbEntity
8
F-0
62
3
370
-3
100
AcDbText
10
771.848
20
37.569
30
0.0
40
2.461
1
設計番号
41
0.999
50
0.000
100
AcDbText
0
MTEXT
5
8c1
100
AcDbEntity
8
F-0
62
3
370
-3
100
AcDbMText
10
193.506
20
33.910
30
0.0
40
2.325
41
0.000
71
7
72
1
1
\W1.134;{\W0.817;. }　{\W0.817;.}　{\W0.817; }
7
STANDARD
11
1.00000
21
0.00000
31
0.0
0
MTEXT
5
8c2
100
AcDbEntity
8
F-0
62
3
370
-3
100
AcDbMText
10
193.506
20
28.972
30
0.0
40
2.325
41
0.000
71
7
72
1
1
\W1.134;{\W0.817;. }　{\W0.817;.}　{\W0.817; }
7
STANDARD
11
1.00000
21
0.00000
31
0.0
0
MTEXT
5
8c3
100
AcDbEntity
8
F-0
62
3
370
-3
100
AcDbMText
10
193.506
20
24.034
30
0.0
40
2.325
41
0.000
71
7
72
1
1
\W1.134;{\W0.817;. }　{\W0.817;.}　{\W0.817; }
7
STANDARD
11
1.00000
21
0.00000
31
0.0
0
MTEXT
5
8c4
100
AcDbEntity
8
F-0
62
3
370
-3
100
AcDbMText
10
193.506
20
19.095
30
0.0
40
2.325
41
0.000
71
7
72
1
1
\W1.134;{\W0.817;. }　{\W0.817;.}　{\W0.817; }
7
STANDARD
11
1.00000
21
0.00000
31
0.0
0
MTEXT
5
8c5
100
AcDbEntity
8
F-0
62
3
370
-3
100
AcDbMText
10
193.506
20
14.157
30
0.0
40
2.325
41
0.000
71
7
72
1
1
\W1.134;{\W0.817;. }　{\W0.817;.}　{\W0.817; }
7
STANDARD
11
1.00000
21
0.00000
31
0.0
0
TEXT
5
8c6
100
AcDbEntity
8
F-0
62
3
370
-3
100
AcDbText
10
517.191
20
31.186
30
0.0
40
3.282
1
　　　　　　　　　　
41
0.963
50
0.000
100
AcDbText
0
TEXT
5
8c7
100
AcDbEntity
8
F-0
62
3
370
-3
100
AcDbText
10
517.191
20
16.371
30
0.0
40
3.282
1
　　　　　　　　　　
41
0.963
50
0.000
100
AcDbText
0
TEXT
5
8c8
100
AcDbEntity
8
F-0
62
3
370
-3
100
AcDbText
10
658.923
20
31.960
30
0.0
40
3.282
1
　　　　　　　　　　　　　
41
0.963
50
0.000
100
AcDbText
0
TEXT
5
8c9
100
AcDbEntity
8
F-0
62
3
370
-3
100
AcDbText
10
189.020
20
37.843
30
0.0
40
2.461
1
年　月　日
41
0.999
50
0.000
100
AcDbText
0
TEXT
5
8ca
100
AcDbEntity
8
F-0
62
3
370
-3
100
AcDbText
10
436.498
20
37.184
30
0.0
40
2.461
1
年　　月　　日
41
0.999
50
0.000
100
AcDbText
0
MTEXT
5
8cb
100
AcDbEntity
8
F-0
62
3
370
-3
100
AcDbMText
10
442.774
20
31.699
30
0.0
40
2.325
41
0.000
71
7
72
1
1
\W1.134;{\W0.817;.}　{\W0.817; }　{\W0.817;.}
7
STANDARD
11
1.00000
21
0.00000
31
0.0
0
TEXT
5
8cc
100
AcDbEntity
8
F-0
62
3
370
-3
100
AcDbText
10
407.912
20
22.661
30
0.0
40
2.461
1
受領　　日附
41
0.999
50
0.000
100
AcDbText
0
TEXT
5
8cd
100
AcDbEntity
8
F-0
62
3
370
-3
100
AcDbText
10
436.498
20
22.369
30
0.0
40
2.461
1
年　　月　　日
41
0.999
50
0.000
100
AcDbText
0
MTEXT
5
8ce
100
AcDbEntity
8
F-0
62
3
370
-3
100
AcDbMText
10
442.774
20
16.884
30
0.0
40
2.325
41
0.000
71
7
72
1
1
\W1.134;{\W0.817;.}　{\W0.817; }　{\W0.817;.}
7
STANDARD
11
1.00000
21
0.00000
31
0.0
0
MTEXT
5
8cf
100
AcDbEntity
8
F-0
62
3
370
-3
100
AcDbMText
10
624.217
20
30.842
30
0.0
40
2.325
41
0.000
71
7
72
1
1
\W1.134;{\W0.817;.}　　{\W0.817;.}　
7
STANDARD
11
1.00000
21
0.00000
31
0.0
0
TEXT
5
8d0
100
AcDbEntity
8
0-2_2_1
62
3
370
-3
100
AcDbText
10
294.048
20
179.149
30
0.0
40
6.564
41
0.816
50
90.000
1
10
72
1
11
294.777
21
183.536
31
0.0
100
AcDbText
73
1
0
TEXT
5
8d1
100
AcDbEntity
8
0-2_2_1
62
3
370
-3
100
AcDbText
10
285.807
20
201.911
30
0.0
40
6.564
41
0.581
50
0.000
1
33
72
1
11
290.195
21
201.182
31
0.0
100
AcDbText
73
1
0
TEXT
5
8d2
100
AcDbEntity
8
0-2_2_1
62
3
370
-3
100
AcDbText
10
334.048
20
168.899
30
0.0
40
6.564
41
0.637
50
90.000
1
30
72
1
11
334.777
21
173.286
31
0.0
100
AcDbText
73
1
0
TEXT
5
8d3
100
AcDbEntity
8
0-3_2_2
62
3
370
-3
100
AcDbText
10
463.418
20
231.054
30
0.0
40
6.564
1
キャップ
41
0.963
50
0.000
100
AcDbText
0
TEXT
5
8d4
100
AcDbEntity
8
0-3_2_2
62
3
370
-3
100
AcDbText
10
574.838
20
229.429
30
0.0
40
6.564
1
通し吊子
41
0.963
50
0.000
100
AcDbText
0
TEXT
5
8d5
100
AcDbEntity
8
0-3_2_2
62
3
370
-3
100
AcDbText
10
733.071
20
231.054
30
0.0
40
6.564
1
溝　板
41
0.963
50
0.000
100
AcDbText
0
TEXT
5
8d6
100
AcDbEntity
8
0-1_2_0
62
3
370
-3
100
AcDbText
10
93.703
20
275.349
30
0.0
40
6.564
41
0.581
50
0.000
1
33
72
1
11
98.090
21
274.620
31
0.0
100
AcDbText
73
1
0
TEXT
5
8d7
100
AcDbEntity
8
0-1_2_0
62
3
370
-3
100
AcDbText
10
183.453
20
275.349
30
0.0
40
6.564
41
0.581
50
0.000
1
33
72
1
11
187.840
21
274.620
31
0.0
100
AcDbText
73
1
0
TEXT
5
8d8
100
AcDbEntity
8
0-1_2_0
62
3
370
-3
100
AcDbText
10
233.555
20
304.415
30
0.0
40
6.564
41
0.637
50
90.000
1
30
72
1
11
234.284
21
308.802
31
0.0
100
AcDbText
73
1
0
TEXT
5
8d9
100
AcDbEntity
8
0-2_2_1
62
3
370
-3
100
AcDbText
10
169.979
20
211.957
30
0.0
40
4.923
1
１番はぜ締め状態
41
0.999
50
0.000
100
AcDbText
0
TEXT
5
8da
100
AcDbEntity
8
0-2_2_1
62
3
370
-3
100
AcDbText
10
249.979
20
211.957
30
0.0
40
4.923
1
２番はぜ締め状態（完成）
41
0.999
50
0.000
100
AcDbText
0
TEXT
5
8db
100
AcDbEntity
8
0-2_2_1
62
3
370
-3
100
AcDbText
10
89.979
20
211.957
30
0.0
40
4.923
1
各部材組付け
41
0.999
50
0.000
100
AcDbText
0
TEXT
5
8dc
100
AcDbEntity
8
0-1_2_0
62
3
370
-3
100
AcDbText
10
324.258
20
275.349
30
0.0
40
6.564
41
0.586
50
0.000
1
376
72
1
11
330.839
21
274.620
31
0.0
100
AcDbText
73
1
0
TEXT
5
8dd
100
AcDbEntity
8
F-0
62
3
370
-3
100
AcDbText
10
771.848
20
22.754
30
0.0
40
2.461
1
縮　尺
41
0.999
50
0.000
100
AcDbText
0
TEXT
5
8de
100
AcDbEntity
8
F-0
62
3
370
-3
100
AcDbText
10
783.506
20
20.823
30
0.0
40
3.282
1
Ａ１－１／１　
41
0.963
50
0.000
100
AcDbText
0
TEXT
5
8df
100
AcDbEntity
8
F-0
62
3
370
-3
100
AcDbText
10
783.506
20
13.416
30
0.0
40
3.282
1
Ａ３－１／２　
41
0.963
50
0.000
100
AcDbText
0
TEXT
5
8e0
100
AcDbEntity
8
0-00
62
3
370
-3
100
AcDbText
10
637.604
20
455.397
30
0.0
40
8.205
41
0.798
50
90.000
1
10
72
1
11
638.516
21
460.759
31
0.0
100
AcDbText
73
1
0
TEXT
5
8e1
100
AcDbEntity
8
0-00
62
3
370
-3
100
AcDbText
10
626.741
20
478.380
30
0.0
40
8.205
41
0.568
50
0.000
1
33
72
1
11
632.103
21
477.468
31
0.0
100
AcDbText
73
1
0
TEXT
5
8e2
100
AcDbEntity
8
0-00
62
3
370
-3
100
AcDbText
10
676.604
20
445.147
30
0.0
40
8.205
41
0.623
50
90.000
1
30
72
1
11
677.516
21
450.509
31
0.0
100
AcDbText
73
1
0
TEXT
5
8e3
100
AcDbEntity
8
0-00
62
3
370
-3
100
AcDbText
10
165.630
20
509.253
30
0.0
40
8.205
41
0.942
50
0.000
1
＠４１８
72
1
11
187.080
21
508.342
31
0.0
100
AcDbText
73
1
0
TEXT
5
8e4
100
AcDbEntity
8
0-00
62
3
370
-3
100
AcDbText
10
409.093
20
509.519
30
0.0
40
8.205
41
0.942
50
0.000
1
４１８
72
1
11
425.180
21
508.607
31
0.0
100
AcDbText
73
1
0
TEXT
5
8e5
100
AcDbEntity
8
0-00
62
3
370
-3
100
AcDbText
10
643.352
20
509.253
30
0.0
40
8.205
41
0.942
50
0.000
1
＠４１８
72
1
11
664.802
21
508.342
31
0.0
100
AcDbText
73
1
0
TEXT
5
8e6
100
AcDbEntity
8
0-1_2_0
62
3
370
-3
100
AcDbText
10
84.625
20
341.265
30
0.0
40
4.923
1
キャップ
41
0.999
50
0.000
100
AcDbText
0
TEXT
5
8e7
100
AcDbEntity
8
0-1_2_0
62
3
370
-3
100
AcDbText
10
174.625
20
341.265
30
0.0
40
4.923
1
通し吊子
41
0.999
50
0.000
100
AcDbText
0
TEXT
5
8e8
100
AcDbEntity
8
0-1_2_0
62
3
370
-3
100
AcDbText
10
322.180
20
341.265
30
0.0
40
4.923
1
溝　板
41
0.999
50
0.000
100
AcDbText
0
TEXT
5
8e9
100
AcDbEntity
8
0-3_2_2
62
3
370
-3
100
AcDbText
10
412.363
20
147.636
30
0.0
40
6.564
1
33
41
0.581
50
0.000
100
AcDbText
0
TEXT
5
8ea
100
AcDbEntity
8
0-3_2_2
62
3
370
-3
100
AcDbText
10
515.419
20
117.227
30
0.0
40
6.564
1
33
41
0.581
50
0.000
100
AcDbText
0
TEXT
5
8eb
100
AcDbEntity
8
0-3_2_2
62
3
370
-3
100
AcDbText
10
569.554
20
146.581
30
0.0
40
6.564
1
30
41
0.637
50
0.000
100
AcDbText
0
TEXT
5
8ec
100
AcDbEntity
8
0-3_2_2
62
3
370
-3
100
AcDbText
10
645.826
20
99.524
30
0.0
40
6.564
1
376
41
0.586
50
0.000
100
AcDbText
0
TEXT
5
8ed
100
AcDbEntity
8
F-0
62
3
370
-3
100
AcDbText
10
83.334
20
14.383
30
0.0
40
3.282
1
電話（０５４）２６３－２２８０（代表）
41
0.963
50
0.000
100
AcDbText
0
TEXT
5
8ee
100
AcDbEntity
8
F-0
62
3
370
-3
100
AcDbText
10
61.385
20
30.579
30
0.0
40
6.564
1
小　池　弥　太　郎　商　店
41
0.963
50
0.000
100
AcDbText
0
TEXT
5
8ef
100
AcDbEntity
8
F-0
62
3
370
-3
100
AcDbText
10
83.332
20
21.800
30
0.0
40
3.282
1
静岡県静岡市葵区流通センター１６番
41
0.963
50
0.000
100
AcDbText
0
TEXT
5
8f0
100
AcDbEntity
8
F-0
62
3
370
-3
100
AcDbText
10
50.067
20
34.125
30
0.0
40
2.461
1
株
41
0.999
50
0.000
100
AcDbText
0
TEXT
5
8f1
100
AcDbEntity
8
F-0
62
3
370
-3
100
AcDbText
10
53.642
20
30.500
30
0.0
40
2.461
1
社
41
0.999
50
0.000
100
AcDbText
0
TEXT
5
8f2
100
AcDbEntity
8
F-0
62
3
370
-3
100
AcDbText
10
50.042
20
30.500
30
0.0
40
2.461
1
会
41
0.999
50
0.000
100
AcDbText
0
TEXT
5
8f3
100
AcDbEntity
8
F-0
62
3
370
-3
100
AcDbText
10
53.442
20
34.025
30
0.0
40
2.461
1
式
41
0.999
50
0.000
100
AcDbText
0
TEXT
5
8f4
100
AcDbEntity
8
0-3_2_2
62
3
370
-3
100
AcDbText
10
53.809
20
546.393
30
0.0
40
8.205
1
ラジアル仕様　Ｒ＝６０００まで（サザナミ）
41
0.942
50
0.000
100
AcDbText
0
TEXT
5
8f5
100
AcDbEntity
8
F-0
62
3
370
-3
100
AcDbText
10
778.929
20
31.026
30
0.0
40
3.282
1
ＫＲ－ＡＫ－Ｋ１
41
0.963
50
0.000
100
AcDbText
0
TEXT
5
8f6
100
AcDbEntity
8
F-0
62
3
370
-3
100
AcDbText
10
658.923
20
17.145
30
0.0
40
3.282
1
コイケルーフ　芯木無し瓦棒葺　断面図
41
0.963
50
0.000
100
AcDbText
0
TEXT
5
8f7
100
AcDbEntity
8
F-F
62
3
370
-3
100
AcDbText
10
611.358
20
15.783
30
0.0
40
2.461
1
MA 2015-06-06  
41
0.696
50
0.000
100
AcDbText
0
POLYLINE
5
8f8
100
AcDbEntity
  8
0-2_2_1
6
CONTINUOUS
62
3
100
AcDb2dPolyline
66
1
10
0
20
0
70
1
40
0.400
41
0.400
0
VERTEX
5
8f9
100
AcDbEntity
  8
0-2_2_1
6
CONTINUOUS
62
3
100
AcDbVertex
100
AcDb2dVertex
10
273.045
20
199.714
30
0.0
42
1.000
0
VERTEX
5
8fa
100
AcDbEntity
  8
0-2_2_1
6
CONTINUOUS
62
3
100
AcDbVertex
100
AcDb2dVertex
10
273.445
20
199.714
30
0.0
42
1.000
0
SEQEND
5
8fb
100
AcDbEntity
  8
0-2_2_1
0
POLYLINE
5
8fc
100
AcDbEntity
  8
0-2_2_1
6
CONTINUOUS
62
3
100
AcDb2dPolyline
66
1
10
0
20
0
70
1
40
0.400
41
0.400
0
VERTEX
5
8fd
100
AcDbEntity
  8
0-2_2_1
6
CONTINUOUS
62
3
100
AcDbVertex
100
AcDb2dVertex
10
306.045
20
199.714
30
0.0
42
1.000
0
VERTEX
5
8fe
100
AcDbEntity
  8
0-2_2_1
6
CONTINUOUS
62
3
100
AcDbVertex
100
AcDb2dVertex
10
306.445
20
199.714
30
0.0
42
1.000
0
SEQEND
5
8ff
100
AcDbEntity
  8
0-2_2_1
0
POLYLINE
5
900
100
AcDbEntity
  8
0-2_2_1
6
CONTINUOUS
62
3
100
AcDb2dPolyline
66
1
10
0
20
0
70
1
40
0.400
41
0.400
0
VERTEX
5
901
100
AcDbEntity
  8
0-2_2_1
6
CONTINUOUS
62
3
100
AcDbVertex
100
AcDb2dVertex
10
296.045
20
177.087
30
0.0
42
1.000
0
VERTEX
5
902
100
AcDbEntity
  8
0-2_2_1
6
CONTINUOUS
62
3
100
AcDbVertex
100
AcDb2dVertex
10
296.445
20
177.087
30
0.0
42
1.000
0
SEQEND
5
903
100
AcDbEntity
  8
0-2_2_1
0
POLYLINE
5
904
100
AcDbEntity
  8
0-2_2_1
6
CONTINUOUS
62
3
100
AcDb2dPolyline
66
1
10
0
20
0
70
1
40
0.400
41
0.400
0
VERTEX
5
905
100
AcDbEntity
  8
0-2_2_1
6
CONTINUOUS
62
3
100
AcDbVertex
100
AcDb2dVertex
10
296.045
20
187.087
30
0.0
42
1.000
0
VERTEX
5
906
100
AcDbEntity
  8
0-2_2_1
6
CONTINUOUS
62
3
100
AcDbVertex
100
AcDb2dVertex
10
296.445
20
187.087
30
0.0
42
1.000
0
SEQEND
5
907
100
AcDbEntity
  8
0-2_2_1
0
POLYLINE
5
908
100
AcDbEntity
  8
0-2_2_1
6
CONTINUOUS
62
3
100
AcDb2dPolyline
66
1
10
0
20
0
70
1
40
0.400
41
0.400
0
VERTEX
5
909
100
AcDbEntity
  8
0-2_2_1
6
CONTINUOUS
62
3
100
AcDbVertex
100
AcDb2dVertex
10
326.045
20
156.587
30
0.0
42
1.000
0
VERTEX
5
90a
100
AcDbEntity
  8
0-2_2_1
6
CONTINUOUS
62
3
100
AcDbVertex
100
AcDb2dVertex
10
326.445
20
156.587
30
0.0
42
1.000
0
SEQEND
5
90b
100
AcDbEntity
  8
0-2_2_1
0
POLYLINE
5
90c
100
AcDbEntity
  8
0-2_2_1
6
CONTINUOUS
62
3
100
AcDb2dPolyline
66
1
10
0
20
0
70
1
40
0.400
41
0.400
0
VERTEX
5
90d
100
AcDbEntity
  8
0-2_2_1
6
CONTINUOUS
62
3
100
AcDbVertex
100
AcDb2dVertex
10
326.045
20
187.087
30
0.0
42
1.000
0
VERTEX
5
90e
100
AcDbEntity
  8
0-2_2_1
6
CONTINUOUS
62
3
100
AcDbVertex
100
AcDb2dVertex
10
326.445
20
187.087
30
0.0
42
1.000
0
SEQEND
5
90f
100
AcDbEntity
  8
0-2_2_1
0
POLYLINE
5
910
100
AcDbEntity
  8
0-1_2_0
6
CONTINUOUS
62
3
100
AcDb2dPolyline
66
1
10
0
20
0
70
1
40
0.400
41
0.400
0
VERTEX
5
911
100
AcDbEntity
  8
0-1_2_0
6
CONTINUOUS
62
3
100
AcDbVertex
100
AcDb2dVertex
10
82.691
20
273.652
30
0.0
42
1.000
0
VERTEX
5
912
100
AcDbEntity
  8
0-1_2_0
6
CONTINUOUS
62
3
100
AcDbVertex
100
AcDb2dVertex
10
83.091
20
273.652
30
0.0
42
1.000
0
SEQEND
5
913
100
AcDbEntity
  8
0-1_2_0
0
POLYLINE
5
914
100
AcDbEntity
  8
0-1_2_0
6
CONTINUOUS
62
3
100
AcDb2dPolyline
66
1
10
0
20
0
70
1
40
0.400
41
0.400
0
VERTEX
5
915
100
AcDbEntity
  8
0-1_2_0
6
CONTINUOUS
62
3
100
AcDbVertex
100
AcDb2dVertex
10
114.191
20
273.652
30
0.0
42
1.000
0
VERTEX
5
916
100
AcDbEntity
  8
0-1_2_0
6
CONTINUOUS
62
3
100
AcDbVertex
100
AcDb2dVertex
10
114.591
20
273.652
30
0.0
42
1.000
0
SEQEND
5
917
100
AcDbEntity
  8
0-1_2_0
0
POLYLINE
5
918
100
AcDbEntity
  8
0-1_2_0
6
CONTINUOUS
62
3
100
AcDb2dPolyline
66
1
10
0
20
0
70
1
40
0.400
41
0.400
0
VERTEX
5
919
100
AcDbEntity
  8
0-1_2_0
6
CONTINUOUS
62
3
100
AcDbVertex
100
AcDb2dVertex
10
171.191
20
273.652
30
0.0
42
1.000
0
VERTEX
5
91a
100
AcDbEntity
  8
0-1_2_0
6
CONTINUOUS
62
3
100
AcDbVertex
100
AcDb2dVertex
10
171.591
20
273.652
30
0.0
42
1.000
0
SEQEND
5
91b
100
AcDbEntity
  8
0-1_2_0
0
POLYLINE
5
91c
100
AcDbEntity
  8
0-1_2_0
6
CONTINUOUS
62
3
100
AcDb2dPolyline
66
1
10
0
20
0
70
1
40
0.400
41
0.400
0
VERTEX
5
91d
100
AcDbEntity
  8
0-1_2_0
6
CONTINUOUS
62
3
100
AcDbVertex
100
AcDb2dVertex
10
205.191
20
273.652
30
0.0
42
1.000
0
VERTEX
5
91e
100
AcDbEntity
  8
0-1_2_0
6
CONTINUOUS
62
3
100
AcDbVertex
100
AcDb2dVertex
10
205.591
20
273.652
30
0.0
42
1.000
0
SEQEND
5
91f
100
AcDbEntity
  8
0-1_2_0
0
POLYLINE
5
920
100
AcDbEntity
  8
0-1_2_0
6
CONTINUOUS
62
3
100
AcDb2dPolyline
66
1
10
0
20
0
70
1
40
0.400
41
0.400
0
VERTEX
5
921
100
AcDbEntity
  8
0-1_2_0
6
CONTINUOUS
62
3
100
AcDbVertex
100
AcDb2dVertex
10
250.691
20
273.652
30
0.0
42
1.000
0
VERTEX
5
922
100
AcDbEntity
  8
0-1_2_0
6
CONTINUOUS
62
3
100
AcDbVertex
100
AcDb2dVertex
10
251.091
20
273.652
30
0.0
42
1.000
0
SEQEND
5
923
100
AcDbEntity
  8
0-1_2_0
0
POLYLINE
5
924
100
AcDbEntity
  8
0-1_2_0
6
CONTINUOUS
62
3
100
AcDb2dPolyline
66
1
10
0
20
0
70
1
40
0.400
41
0.400
0
VERTEX
5
925
100
AcDbEntity
  8
0-1_2_0
6
CONTINUOUS
62
3
100
AcDbVertex
100
AcDb2dVertex
10
412.802
20
273.652
30
0.0
42
1.000
0
VERTEX
5
926
100
AcDbEntity
  8
0-1_2_0
6
CONTINUOUS
62
3
100
AcDbVertex
100
AcDb2dVertex
10
413.202
20
273.652
30
0.0
42
1.000
0
SEQEND
5
927
100
AcDbEntity
  8
0-1_2_0
0
POLYLINE
5
928
100
AcDbEntity
  8
0-1_2_0
6
CONTINUOUS
62
3
100
AcDb2dPolyline
66
1
10
0
20
0
70
1
40
0.400
41
0.400
0
VERTEX
5
929
100
AcDbEntity
  8
0-1_2_0
6
CONTINUOUS
62
3
100
AcDbVertex
100
AcDb2dVertex
10
235.052
20
323.853
30
0.0
42
1.000
0
VERTEX
5
92a
100
AcDbEntity
  8
0-1_2_0
6
CONTINUOUS
62
3
100
AcDbVertex
100
AcDb2dVertex
10
235.452
20
323.853
30
0.0
42
1.000
0
SEQEND
5
92b
100
AcDbEntity
  8
0-1_2_0
0
POLYLINE
5
92c
100
AcDbEntity
  8
0-1_2_0
6
CONTINUOUS
62
3
100
AcDb2dPolyline
66
1
10
0
20
0
70
1
40
0.400
41
0.400
0
VERTEX
5
92d
100
AcDbEntity
  8
0-1_2_0
6
CONTINUOUS
62
3
100
AcDbVertex
100
AcDb2dVertex
10
235.052
20
294.853
30
0.0
42
1.000
0
VERTEX
5
92e
100
AcDbEntity
  8
0-1_2_0
6
CONTINUOUS
62
3
100
AcDbVertex
100
AcDb2dVertex
10
235.452
20
294.853
30
0.0
42
1.000
0
SEQEND
5
92f
100
AcDbEntity
  8
0-1_2_0
0
POLYLINE
5
930
100
AcDbEntity
  8
0-3_2_2
6
CONTINUOUS
62
3
100
AcDb2dPolyline
66
1
10
0
20
0
70
1
40
0.400
41
0.400
0
VERTEX
5
931
100
AcDbEntity
  8
0-3_2_2
6
CONTINUOUS
62
3
100
AcDbVertex
100
AcDb2dVertex
10
404.203
20
153.740
30
0.0
42
1.000
0
VERTEX
5
932
100
AcDbEntity
  8
0-3_2_2
6
CONTINUOUS
62
3
100
AcDbVertex
100
AcDb2dVertex
10
404.603
20
153.740
30
0.0
42
1.000
0
SEQEND
5
933
100
AcDbEntity
  8
0-3_2_2
0
POLYLINE
5
934
100
AcDbEntity
  8
0-3_2_2
6
CONTINUOUS
62
3
100
AcDb2dPolyline
66
1
10
0
20
0
70
1
40
0.400
41
0.400
0
VERTEX
5
935
100
AcDbEntity
  8
0-3_2_2
6
CONTINUOUS
62
3
100
AcDbVertex
100
AcDb2dVertex
10
430.419
20
145.982
30
0.0
42
1.000
0
VERTEX
5
936
100
AcDbEntity
  8
0-3_2_2
6
CONTINUOUS
62
3
100
AcDbVertex
100
AcDb2dVertex
10
430.819
20
145.982
30
0.0
42
1.000
0
SEQEND
5
937
100
AcDbEntity
  8
0-3_2_2
0
POLYLINE
5
938
100
AcDbEntity
  8
0-3_2_2
6
CONTINUOUS
62
3
100
AcDb2dPolyline
66
1
10
0
20
0
70
1
40
0.400
41
0.400
0
VERTEX
5
939
100
AcDbEntity
  8
0-3_2_2
6
CONTINUOUS
62
3
100
AcDbVertex
100
AcDb2dVertex
10
506.523
20
123.460
30
0.0
42
1.000
0
VERTEX
5
93a
100
AcDbEntity
  8
0-3_2_2
6
CONTINUOUS
62
3
100
AcDbVertex
100
AcDb2dVertex
10
506.923
20
123.460
30
0.0
42
1.000
0
SEQEND
5
93b
100
AcDbEntity
  8
0-3_2_2
0
POLYLINE
5
93c
100
AcDbEntity
  8
0-3_2_2
6
CONTINUOUS
62
3
100
AcDb2dPolyline
66
1
10
0
20
0
70
1
40
0.400
41
0.400
0
VERTEX
5
93d
100
AcDbEntity
  8
0-3_2_2
6
CONTINUOUS
62
3
100
AcDbVertex
100
AcDb2dVertex
10
534.378
20
115.218
30
0.0
42
1.000
0
VERTEX
5
93e
100
AcDbEntity
  8
0-3_2_2
6
CONTINUOUS
62
3
100
AcDbVertex
100
AcDb2dVertex
10
534.778
20
115.218
30
0.0
42
1.000
0
SEQEND
5
93f
100
AcDbEntity
  8
0-3_2_2
0
POLYLINE
5
940
100
AcDbEntity
  8
0-3_2_2
6
CONTINUOUS
62
3
100
AcDb2dPolyline
66
1
10
0
20
0
70
1
40
0.400
41
0.400
0
VERTEX
5
941
100
AcDbEntity
  8
0-3_2_2
6
CONTINUOUS
62
3
100
AcDbVertex
100
AcDb2dVertex
10
573.183
20
134.723
30
0.0
42
1.000
0
VERTEX
5
942
100
AcDbEntity
  8
0-3_2_2
6
CONTINUOUS
62
3
100
AcDbVertex
100
AcDb2dVertex
10
573.583
20
134.723
30
0.0
42
1.000
0
SEQEND
5
943
100
AcDbEntity
  8
0-3_2_2
0
POLYLINE
5
944
100
AcDbEntity
  8
0-3_2_2
6
CONTINUOUS
62
3
100
AcDb2dPolyline
66
1
10
0
20
0
70
1
40
0.400
41
0.400
0
VERTEX
5
945
100
AcDbEntity
  8
0-3_2_2
6
CONTINUOUS
62
3
100
AcDbVertex
100
AcDb2dVertex
10
573.183
20
161.459
30
0.0
42
1.000
0
VERTEX
5
946
100
AcDbEntity
  8
0-3_2_2
6
CONTINUOUS
62
3
100
AcDbVertex
100
AcDb2dVertex
10
573.583
20
161.459
30
0.0
42
1.000
0
SEQEND
5
947
100
AcDbEntity
  8
0-3_2_2
0
POLYLINE
5
948
100
AcDbEntity
  8
0-3_2_2
6
CONTINUOUS
62
3
100
AcDb2dPolyline
66
1
10
0
20
0
70
1
40
0.400
41
0.400
0
VERTEX
5
949
100
AcDbEntity
  8
0-3_2_2
6
CONTINUOUS
62
3
100
AcDbVertex
100
AcDb2dVertex
10
595.505
20
118.586
30
0.0
42
1.000
0
VERTEX
5
94a
100
AcDbEntity
  8
0-3_2_2
6
CONTINUOUS
62
3
100
AcDbVertex
100
AcDb2dVertex
10
595.905
20
118.586
30
0.0
42
1.000
0
SEQEND
5
94b
100
AcDbEntity
  8
0-3_2_2
0
POLYLINE
5
94c
100
AcDbEntity
  8
0-3_2_2
6
CONTINUOUS
62
3
100
AcDb2dPolyline
66
1
10
0
20
0
70
1
40
0.400
41
0.400
0
VERTEX
5
94d
100
AcDbEntity
  8
0-3_2_2
6
CONTINUOUS
62
3
100
AcDbVertex
100
AcDb2dVertex
10
728.299
20
79.290
30
0.0
42
1.000
0
VERTEX
5
94e
100
AcDbEntity
  8
0-3_2_2
6
CONTINUOUS
62
3
100
AcDbVertex
100
AcDb2dVertex
10
728.699
20
79.290
30
0.0
42
1.000
0
SEQEND
5
94f
100
AcDbEntity
  8
0-3_2_2
0
POLYLINE
5
950
100
AcDbEntity
  8
0-00
6
CONTINUOUS
62
3
100
AcDb2dPolyline
66
1
10
0
20
0
70
1
40
0.400
41
0.400
0
VERTEX
5
951
100
AcDbEntity
  8
0-00
6
CONTINUOUS
62
3
100
AcDbVertex
100
AcDb2dVertex
10
212.401
20
507.257
30
0.0
42
1.000
0
VERTEX
5
952
100
AcDbEntity
  8
0-00
6
CONTINUOUS
62
3
100
AcDbVertex
100
AcDb2dVertex
10
212.801
20
507.257
30
0.0
42
1.000
0
SEQEND
5
953
100
AcDbEntity
  8
0-00
0
POLYLINE
5
954
100
AcDbEntity
  8
0-00
6
CONTINUOUS
62
3
100
AcDb2dPolyline
66
1
10
0
20
0
70
1
40
0.400
41
0.400
0
VERTEX
5
955
100
AcDbEntity
  8
0-00
6
CONTINUOUS
62
3
100
AcDbVertex
100
AcDb2dVertex
10
630.401
20
507.257
30
0.0
42
1.000
0
VERTEX
5
956
100
AcDbEntity
  8
0-00
6
CONTINUOUS
62
3
100
AcDbVertex
100
AcDb2dVertex
10
630.801
20
507.257
30
0.0
42
1.000
0
SEQEND
5
957
100
AcDbEntity
  8
0-00
0
POLYLINE
5
958
100
AcDbEntity
  8
0-00
6
CONTINUOUS
62
3
100
AcDb2dPolyline
66
1
10
0
20
0
70
1
40
0.400
41
0.400
0
VERTEX
5
959
100
AcDbEntity
  8
0-00
6
CONTINUOUS
62
3
100
AcDbVertex
100
AcDb2dVertex
10
700.401
20
507.257
30
0.0
42
1.000
0
VERTEX
5
95a
100
AcDbEntity
  8
0-00
6
CONTINUOUS
62
3
100
AcDbVertex
100
AcDb2dVertex
10
700.801
20
507.257
30
0.0
42
1.000
0
SEQEND
5
95b
100
AcDbEntity
  8
0-00
0
POLYLINE
5
95c
100
AcDbEntity
  8
0-00
6
CONTINUOUS
62
3
100
AcDb2dPolyline
66
1
10
0
20
0
70
1
40
0.400
41
0.400
0
VERTEX
5
95d
100
AcDbEntity
  8
0-00
6
CONTINUOUS
62
3
100
AcDbVertex
100
AcDb2dVertex
10
613.901
20
475.883
30
0.0
42
1.000
0
VERTEX
5
95e
100
AcDbEntity
  8
0-00
6
CONTINUOUS
62
3
100
AcDbVertex
100
AcDb2dVertex
10
614.301
20
475.883
30
0.0
42
1.000
0
SEQEND
5
95f
100
AcDbEntity
  8
0-00
0
POLYLINE
5
960
100
AcDbEntity
  8
0-00
6
CONTINUOUS
62
3
100
AcDb2dPolyline
66
1
10
0
20
0
70
1
40
0.400
41
0.400
0
VERTEX
5
961
100
AcDbEntity
  8
0-00
6
CONTINUOUS
62
3
100
AcDbVertex
100
AcDb2dVertex
10
646.901
20
475.883
30
0.0
42
1.000
0
VERTEX
5
962
100
AcDbEntity
  8
0-00
6
CONTINUOUS
62
3
100
AcDbVertex
100
AcDb2dVertex
10
647.301
20
475.883
30
0.0
42
1.000
0
SEQEND
5
963
100
AcDbEntity
  8
0-00
0
POLYLINE
5
964
100
AcDbEntity
  8
0-00
6
CONTINUOUS
62
3
100
AcDb2dPolyline
66
1
10
0
20
0
70
1
40
0.400
41
0.400
0
VERTEX
5
965
100
AcDbEntity
  8
0-00
6
CONTINUOUS
62
3
100
AcDbVertex
100
AcDb2dVertex
10
639.901
20
453.257
30
0.0
42
1.000
0
VERTEX
5
966
100
AcDbEntity
  8
0-00
6
CONTINUOUS
62
3
100
AcDbVertex
100
AcDb2dVertex
10
640.301
20
453.257
30
0.0
42
1.000
0
SEQEND
5
967
100
AcDbEntity
  8
0-00
0
POLYLINE
5
968
100
AcDbEntity
  8
0-00
6
CONTINUOUS
62
3
100
AcDb2dPolyline
66
1
10
0
20
0
70
1
40
0.400
41
0.400
0
VERTEX
5
969
100
AcDbEntity
  8
0-00
6
CONTINUOUS
62
3
100
AcDbVertex
100
AcDb2dVertex
10
639.901
20
463.257
30
0.0
42
1.000
0
VERTEX
5
96a
100
AcDbEntity
  8
0-00
6
CONTINUOUS
62
3
100
AcDbVertex
100
AcDb2dVertex
10
640.301
20
463.257
30
0.0
42
1.000
0
SEQEND
5
96b
100
AcDbEntity
  8
0-00
0
POLYLINE
5
96c
100
AcDbEntity
  8
0-00
6
CONTINUOUS
62
3
100
AcDb2dPolyline
66
1
10
0
20
0
70
1
40
0.400
41
0.400
0
VERTEX
5
96d
100
AcDbEntity
  8
0-00
6
CONTINUOUS
62
3
100
AcDbVertex
100
AcDb2dVertex
10
666.901
20
432.757
30
0.0
42
1.000
0
VERTEX
5
96e
100
AcDbEntity
  8
0-00
6
CONTINUOUS
62
3
100
AcDbVertex
100
AcDb2dVertex
10
667.301
20
432.757
30
0.0
42
1.000
0
SEQEND
5
96f
100
AcDbEntity
  8
0-00
0
POLYLINE
5
970
100
AcDbEntity
  8
0-00
6
CONTINUOUS
62
3
100
AcDb2dPolyline
66
1
10
0
20
0
70
1
40
0.400
41
0.400
0
VERTEX
5
971
100
AcDbEntity
  8
0-00
6
CONTINUOUS
62
3
100
AcDbVertex
100
AcDb2dVertex
10
666.901
20
463.257
30
0.0
42
1.000
0
VERTEX
5
972
100
AcDbEntity
  8
0-00
6
CONTINUOUS
62
3
100
AcDbVertex
100
AcDb2dVertex
10
667.301
20
463.257
30
0.0
42
1.000
0
SEQEND
5
973
100
AcDbEntity
  8
0-00
0
POLYLINE
5
974
100
AcDbEntity
  8
0-00
6
CONTINUOUS
62
3
100
AcDb2dPolyline
66
1
10
0
20
0
70
1
40
0.400
41
0.400
0
VERTEX
5
975
100
AcDbEntity
  8
0-00
6
CONTINUOUS
62
3
100
AcDbVertex
100
AcDb2dVertex
10
142.401
20
507.257
30
0.0
42
1.000
0
VERTEX
5
976
100
AcDbEntity
  8
0-00
6
CONTINUOUS
62
3
100
AcDbVertex
100
AcDb2dVertex
10
142.801
20
507.257
30
0.0
42
1.000
0
SEQEND
5
977
100
AcDbEntity
  8
0-00
0
POLYLINE
5
978
100
AcDbEntity
  8
F-0
6
CONTINUOUS
62
3
100
AcDb2dPolyline
66
1
10
0
20
0
70
1
40
0.400
41
0.400
0
VERTEX
5
979
100
AcDbEntity
  8
F-0
6
CONTINUOUS
62
3
100
AcDbVertex
100
AcDb2dVertex
10
27.179
20
571.820
30
0.0
42
1.000
0
VERTEX
5
97a
100
AcDbEntity
  8
F-0
6
CONTINUOUS
62
3
100
AcDbVertex
100
AcDb2dVertex
10
27.579
20
571.820
30
0.0
42
1.000
0
SEQEND
5
97b
100
AcDbEntity
  8
F-0
0
ENDSEC
 0
SECTION
  2
OBJECTS
 0
DICTIONARY
  5
C
100
AcDbDictionary
  3
ACAD_GROUP
350
D
  3
ACAD_MLINESTYLE
350
E
 0
DICTIONARY
  5
D
102
{ACAD_REACTORS
102
}
100
AcDbDictionary
 0
DICTIONARY
  5
E
102
{ACAD_REACTORS
102
}
100
AcDbDictionary
  3
STANDARD
350
13
0
MLINESTYLE
  5
13
102
{ACAD_REACTORS
102
}
100
AcDbMlineStyle
  2
STANDARD
 70
    0
3

62
256
51
90.0
52
90.0
71
0
0
ACDBPLACEHOLDER
  5
14
102
{ACAD_REACTORS
102
}
0
ENDSEC
0
EOF
