0
SECTION
2
HEADER
9
$ACADVER
1
AC1015
9
$ACADMAINTVER
 70
6
9
$DWGCODEPAGE
3
ANSI_932
9
$EXTMIN
10
0.000
20
0.000
30
0.0
9
$EXTMAX
10
841.000
20
594.000
30
0.0
9
$LIMMIN
10
0.000
20
0.000
9
$LIMMAX
10
841.000
20
594.000
9
$DIMSCALE
40
1.000000
9
$LTSCALE
40
2.000
9
$PDMODE
70
0
9
$PDSIZE
40
40.0
9
$HANDSEED
5
61eb2
9
$UNITMODE
70
0
9
$VISRETAIN
70
0
9
$PLINEGEN
70
0
9
$PSLTSCALE
70
1
9
$TREEDEPTH
70
3020
9
$CMLSTYLE
2
STANDARD
9
$CMLJUST
70
0
9
$CMLSCALE
40
1.0
9
$PROXYGRAPHICS
70
1
9
$MEASUREMENT
70
0
9
$CELWEIGHT
370
-1
9
$ENDCAPS
280
0
9
$JOINSTYLE
280
0
9
$LWDISPLAY
290
0
9
$INSUNITS
70
0
9
$HYPERLINKBASE
1

9
$STYLESHEET
1

9
$XEDIT
290
1
9
$CEPSNTYPE
380
0
9
$PSTYLEMODE
290
1
9
$FINGERPRINTGUID
2
{5F082321-0195-11D3-BDFB-0060B0CD5109}
9
$VERSIONGUID
2
{12943756-294D-11D3-98C2-0060B087942D}
9
$EXTNAMES
290
1
9
$PSVPSCALE
40
0.0
9
$OLESTARTUP
290
0
0
ENDSEC
0
SECTION
  2
CLASSES
0
ENDSEC
0
SECTION
2
TABLES
0
TABLE
2
VPORT
5
190
100
AcDbSymbolTable
70
2
0
VPORT
5
191
100
AcDbSymbolTableRecord
100
AcDbViewportTableRecord
2
*ACTIVE
70
0
10
0.0
20
0.0
11
1.0
21
1.0
12
420.500
22
297.000
13
0.0
23
0.0
14
1.0
24
1.0
15
0.0
25
0.0
16
0.0
26
0.0
36
1.0
17
0.0
27
0.0
37
0.0
40
609.420
41
2.0
42
50.0
43
0.0
44
0.0
50
0.0
51
0.0
71
0
72
1000
73
1
74
1
75
0
76
0
77
0
78
0
0
ENDTAB
0
TABLE
2
LTYPE
5
1f4
100
AcDbSymbolTable
70
9
0
LTYPE
5
1f5
100
AcDbSymbolTableRecord
100
AcDbLinetypeTableRecord
2
BYBLOCK
70
 64
3

72
 65
73
  0
40
0.0
0
LTYPE
5
1f6
100
AcDbSymbolTableRecord
100
AcDbLinetypeTableRecord
2
BYLAYER
70
 64
3

72
 65
73
  0
40
0.0
0
LTYPE
5
1f7
100
AcDbSymbolTableRecord
100
AcDbLinetypeTableRecord
2
CONTINUOUS
70
64
3
SolidLine
72
65
73
0
40
0.0
0
LTYPE
5
1f8
100
AcDbSymbolTableRecord
100
AcDbLinetypeTableRecord
2
DOT
70
64
3
--  --  --  --  --  --  --  --     
72
65
73
2
40
3.000
49
1.000
74
0
49
-2.000
74
0
0
LTYPE
5
1f9
100
AcDbSymbolTableRecord
100
AcDbLinetypeTableRecord
2
DASHED
70
64
3
----    ----    ----    ----    
72
65
73
2
40
5.000
49
2.000
74
0
49
-3.000
74
0
0
LTYPE
5
1fa
100
AcDbSymbolTableRecord
100
AcDbLinetypeTableRecord
2
DASHED2
70
64
3
------  ------  ------  ------ 
72
65
73
2
40
10.000
49
4.000
74
0
49
-6.000
74
0
0
LTYPE
5
1fb
100
AcDbSymbolTableRecord
100
AcDbLinetypeTableRecord
2
CENTER
70
64
3
----- - ----- - ----- - ----- - 
72
65
73
4
40
10.000
49
6.000
74
0
49
-3.000
74
0
49
1.000
74
0
49
-3.000
74
0
0
LTYPE
5
1fc
100
AcDbSymbolTableRecord
100
AcDbLinetypeTableRecord
2
CENTER2
70
64
3
----------  --  ----------  -- 
72
65
73
4
40
17.000
49
12.000
74
0
49
-5.000
74
0
49
2.000
74
0
49
-5.000
74
0
0
LTYPE
5
1fd
100
AcDbSymbolTableRecord
100
AcDbLinetypeTableRecord
2
PHANTOM
70
64
3
--- - - --- - - --- - - --- - -
72
65
73
6
40
13.000
49
5.000
74
0
49
-3.000
74
0
49
1.000
74
0
49
-3.000
74
0
49
1.000
74
0
49
-3.000
74
0
0
LTYPE
5
1fe
100
AcDbSymbolTableRecord
100
AcDbLinetypeTableRecord
2
PHANTOM2
70
64
3
--------  -  -  --------  -  -
72
65
73
6
40
20.000
49
6.000
74
0
49
-5.000
74
0
49
2.000
74
0
49
-5.000
74
0
49
2.000
74
0
49
-5.000
74
0
0
LTYPE
5
1ff
100
AcDbSymbolTableRecord
100
AcDbLinetypeTableRecord
2
HIDDEN
70
64
3
-   -   -   -   -   -   -   -   
72
65
73
2
40
3.000
49
0.500
74
0
49
-2.500
74
0
0
ENDTAB
0
TABLE
2
STYLE
5
200
100
AcDbSymbolTable
70
1
0
STYLE
5
201
100
AcDbSymbolTableRecord
100
AcDbTextStyleTableRecord
2
STANDARD
70
0
40
0.0
41
1.0
50
0.0
71
0
42
0.0
3
txt.shx
4
extfont.shx
0
STYLE
5
202
100
AcDbSymbolTableRecord
100
AcDbTextStyleTableRecord
2
TATEGAKI
70
4
40
0.0
41
1.0
50
0.0
71
0
42
0.0
3
txt.shx
4
extfont.shx
0
STYLE
5
203
100
AcDbSymbolTableRecord
100
AcDbTextStyleTableRecord
2
DIM
70
0
40
0.0
41
0.75
50
0.0
71
0
42
0.0
3
txt.shx
4
extfont.shx
0
STYLE
5
204
100
AcDbSymbolTableRecord
100
AcDbTextStyleTableRecord
2
_Gothic_
70
0
40
1.0
41
1.0
50
0.0
71
0
42
10.0
3

4

1001
ACAD
1000
MS Gothic
1071
32817
0
STYLE
5
205
100
AcDbSymbolTableRecord
100
AcDbTextStyleTableRecord
2
_TateGothic_
70
4
40
0.0
41
1.0
50
0.0
71
0
42
0.0
3
@MS Gothic
4

0
ENDTAB
0
TABLE
2
VIEW
5
206
100
AcDbSymbolTable
70
0
0
ENDTAB
0
TABLE
2
UCS
5
207
100
AcDbSymbolTable
70
0
0
ENDTAB
0
TABLE
2
APPID
5
208
100
AcDbSymbolTable
70
1
0
APPID
5
209
100
AcDbSymbolTableRecord
100
AcDbRegAppTableRecord
2
ACAD
70
0
0
ENDTAB
0
TABLE
2
DIMSTYLE
5
403
330
0
100
AcDbSymbolTable
70
1
100
AcDbDimStyleTable
71
0
0
DIMSTYLE
105
404
330
402
100
AcDbSymbolTableRecord
100
AcDbDimStyleTableRecord
2
JAC_DIM
70
0
41
2.000
42
0.000
44
0.0
73
0
74
0
77
1
78
8
79
2
140
0.000
170
0
171
2
172
0
173
0
174
0
175
0
176
0
177
0
178
0
270
2
271
0
272
0
273
2
274
2
340
201
275
0
280
0
281
0
282
0
283
0
284
0
285
0
286
0
287
3
288
0
0
ENDTAB
0
TABLE
2
BLOCK_RECORD
5
405
100
AcDbSymbolTable
70
0
0
BLOCK_RECORD
5
406
100
AcDbSymbolTableRecord
100
AcDbBlockTableRecord
2
*MODEL_SPACE
0
BLOCK_RECORD
5
407
100
AcDbSymbolTableRecord
100
AcDbBlockTableRecord
2
*PAPER_SPACE
0
BLOCK_RECORD
5
408
100
AcDbSymbolTableRecord
100
AcDbBlockTableRecord
2
_JACCONVERT_
0
ENDTAB
0
TABLE
2
LAYER
5
409
100
AcDbSymbolTable
70
10
0
LAYER
5
40a
100
AcDbSymbolTableRecord
100
AcDbLayerTableRecord
2
0
70
0
62
7
6
CONTINUOUS
370
-3
390
14
0
LAYER
5
40b
100
AcDbSymbolTableRecord
100
AcDbLayerTableRecord
2
0-0
70
0
62
7
6
CONTINUOUS
370
-3
390
14
0
LAYER
5
40c
100
AcDbSymbolTableRecord
100
AcDbLayerTableRecord
2
1-5
70
0
62
7
6
CONTINUOUS
370
-3
390
14
0
LAYER
5
40d
100
AcDbSymbolTableRecord
100
AcDbLayerTableRecord
2
F-E_J_ADD
70
0
62
-7
6
CONTINUOUS
290
0
370
-3
390
14
0
LAYER
5
40e
100
AcDbSymbolTableRecord
100
AcDbLayerTableRecord
2
F-F
70
0
62
7
6
CONTINUOUS
370
-3
390
14
0
ENDTAB
0
ENDSEC
0
SECTION
2
BLOCKS
0
BLOCK
5
40f
100
AcDbEntity
67
1
8
0
100
AcDbBlockBegin
2
*MODEL_SPACE
70
0
10
0.0
20
0.0
30
0.0
3
*MODEL_SPACE
1

0
ENDBLK
5
410
100
AcDbEntity
8
0
100
AcDbBlockEnd
0
BLOCK
5
411
100
AcDbEntity
67
1
8
0
100
AcDbBlockBegin
2
*PAPER_SPACE
70
0
10
0.0
20
0.0
30
0.0
3
*PAPER_SPACE
1

0
ENDBLK
5
412
100
AcDbEntity
67
1
8
0
100
AcDbBlockEnd
0
BLOCK
5
413
100
AcDbEntity
8
0
100
AcDbBlockBegin
2
_JACCONVERT_
70
2
10
0.0
20
0.0
30
0.0
3
_JACCONVERT_
1
_JACCONVERT_
0
ATTDEF
5
414
100
AcDbEntity
8
0
62
0
100
AcDbText
10
0.0
20
0.0
30
0.0
40
1.0
1
User:460950EB0890EC0964308A
100
AcDbAttributeDefinition
3

2
USER
70
8
0
ATTDEF
5
415
100
AcDbEntity
8
0
62
0
100
AcDbText
10
0.0
20
2.0
30
0.0
40
1.0
1
Date:15/06/16 15:18
100
AcDbAttributeDefinition
3

2
REVDATE
70
8
0
ATTDEF
5
416
100
AcDbEntity
8
0
62
0
100
AcDbText
10
0.0
20
4.0
30
0.0
40
1.0
1
File:KR角ﾊｾﾞ500ﾊｾﾞｷｬｯﾌﾟ.dxf
100
AcDbAttributeDefinition
3

2
FNAME
70
8
0
ATTDEF
5
417
100
AcDbEntity
8
0
62
0
100
AcDbText
10
0.0
20
6.0
30
0.0
40
1.0
1
JacConvert Version3.09 copyright (c) 2001-2013 K.Nakahara
100
AcDbAttributeDefinition
3

2
VER
70
8
0
ENDBLK
5
418
100
AcDbEntity
67
1
8
0
100
AcDbBlockEnd
0
ENDSEC
0
SECTION
2
ENTITIES
0
LINE
5
419
100
AcDbEntity
8
F-F
6
CONTINUOUS
62
2
100
AcDbLine
10
27.380000000000
20
11.820000000000
30
0.0
11
27.380000000000
21
571.820000000000
31
0.0
0
LINE
5
41a
100
AcDbEntity
8
F-F
6
CONTINUOUS
62
2
100
AcDbLine
10
642.380000000000
20
41.450000000000
30
0.0
11
642.380000000000
21
11.820000000000
31
0.0
0
LINE
5
41b
100
AcDbEntity
8
F-F
6
CONTINUOUS
62
2
100
AcDbLine
10
607.270000000000
20
41.450000000000
30
0.0
11
607.270000000000
21
11.820000000000
31
0.0
0
LINE
5
41c
100
AcDbEntity
8
F-F
6
CONTINUOUS
62
2
100
AcDbLine
10
403.450000000000
20
41.450000000000
30
0.0
11
403.450000000000
21
11.820000000000
31
0.0
0
LINE
5
41d
100
AcDbEntity
8
F-F
6
CONTINUOUS
62
2
100
AcDbLine
10
504.870000000000
20
41.450000000000
30
0.0
11
504.870000000000
21
11.820000000000
31
0.0
0
LINE
5
41e
100
AcDbEntity
8
F-F
6
CONTINUOUS
62
2
100
AcDbLine
10
403.450000000000
20
31.570000000000
30
0.0
11
184.880000000000
21
31.570000000000
31
0.0
0
LINE
5
41f
100
AcDbEntity
8
F-F
6
CONTINUOUS
62
2
100
AcDbLine
10
403.450000000000
20
21.690000000000
30
0.0
11
184.880000000000
21
21.690000000000
31
0.0
0
LINE
5
420
100
AcDbEntity
8
F-F
6
CONTINUOUS
62
2
100
AcDbLine
10
403.450000000000
20
16.760000000000
30
0.0
11
184.880000000000
21
16.760000000000
31
0.0
0
LINE
5
421
100
AcDbEntity
8
F-F
6
CONTINUOUS
62
2
100
AcDbLine
10
403.450000000000
20
36.510000000000
30
0.0
11
184.880000000000
21
36.510000000000
31
0.0
0
LINE
5
422
100
AcDbEntity
8
F-F
6
CONTINUOUS
62
2
100
AcDbLine
10
211.210000000000
20
41.450000000000
30
0.0
11
211.210000000000
21
11.820000000000
31
0.0
0
LINE
5
423
100
AcDbEntity
8
F-F
6
CONTINUOUS
62
2
100
AcDbLine
10
184.880000000000
20
41.450000000000
30
0.0
11
184.880000000000
21
11.820000000000
31
0.0
0
LINE
5
424
100
AcDbEntity
8
F-F
6
CONTINUOUS
62
2
100
AcDbLine
10
815.820000000000
20
11.820000000000
30
0.0
11
815.820000000000
21
571.820000000000
31
0.0
0
LINE
5
425
100
AcDbEntity
8
F-F
6
CONTINUOUS
62
2
100
AcDbLine
10
27.380000000000
20
571.820000000000
30
0.0
11
815.820000000000
21
571.820000000000
31
0.0
0
LINE
5
426
100
AcDbEntity
8
F-F
6
CONTINUOUS
62
2
100
AcDbLine
10
27.380000000000
20
11.820000000000
30
0.0
11
815.820000000000
21
11.820000000000
31
0.0
0
LINE
5
427
100
AcDbEntity
8
F-F
6
CONTINUOUS
62
2
100
AcDbLine
10
815.820000000000
20
41.450000000000
30
0.0
11
27.380000000000
21
41.450000000000
31
0.0
0
LINE
5
428
100
AcDbEntity
8
F-F
6
CONTINUOUS
62
2
100
AcDbLine
10
184.880000000000
20
26.630000000000
30
0.0
11
815.820000000000
21
26.630000000000
31
0.0
0
POLYLINE
5
429
100
AcDbEntity
8
F-F
6
CONTINUOUS
62
  3
100
AcDb2dPolyline
66
1
10
0.0
20
0.0
30
0.0
70
0
0
VERTEX
5
42a
100
AcDbEntity
8
F-F
6
CONTINUOUS
62
  3
100
AcDbVertex
100
AcDb2dVertex
10
40.420000000000
20
29.050000000000
30
0.0
0
VERTEX
5
42b
100
AcDbEntity
8
F-F
6
CONTINUOUS
62
  3
100
AcDbVertex
100
AcDb2dVertex
10
40.420000000000
20
37.050000000000
30
0.0
0
VERTEX
5
42c
100
AcDbEntity
8
F-F
6
CONTINUOUS
62
  3
100
AcDbVertex
100
AcDb2dVertex
10
48.420000000000
20
37.050000000000
30
0.0
0
VERTEX
5
42d
100
AcDbEntity
8
F-F
6
CONTINUOUS
62
  3
100
AcDbVertex
100
AcDb2dVertex
10
48.420000000000
20
29.050000000000
30
0.0
0
VERTEX
5
42e
100
AcDbEntity
8
F-F
6
CONTINUOUS
62
  3
100
AcDbVertex
100
AcDb2dVertex
10
40.420000000000
20
29.050000000000
30
0.0
0
SEQEND
5
42f
100
AcDbEntity
8
F-F
0
LINE
5
430
100
AcDbEntity
8
F-F
6
CONTINUOUS
62
3
100
AcDbLine
10
41.220000000000
20
30.130000000000
30
0.0
11
41.220000000000
21
36.250000000000
31
0.0
0
LINE
5
431
100
AcDbEntity
8
F-F
6
CONTINUOUS
62
3
100
AcDbLine
10
47.620000000000
20
29.850000000000
30
0.0
11
41.500000000000
21
29.850000000000
31
0.0
0
POLYLINE
5
432
100
AcDbEntity
8
F-F
6
CONTINUOUS
62
  3
100
AcDb2dPolyline
66
1
10
0.0
20
0.0
30
0.0
70
0
0
VERTEX
5
433
100
AcDbEntity
8
F-F
6
CONTINUOUS
62
  3
100
AcDbVertex
100
AcDb2dVertex
10
41.220000000000
20
36.250000000000
30
0.0
0
VERTEX
5
434
100
AcDbEntity
8
F-F
6
CONTINUOUS
62
  3
100
AcDbVertex
100
AcDb2dVertex
10
47.340000000000
20
36.250000000000
30
0.0
0
VERTEX
5
435
100
AcDbEntity
8
F-F
6
CONTINUOUS
62
  3
100
AcDbVertex
100
AcDb2dVertex
10
41.220000000000
20
30.130000000000
30
0.0
0
SEQEND
5
436
100
AcDbEntity
8
F-F
0
LINE
5
437
100
AcDbEntity
8
F-F
6
CONTINUOUS
62
3
100
AcDbLine
10
47.620000000000
20
35.960000000000
30
0.0
11
41.500000000000
21
29.850000000000
31
0.0
0
LINE
5
438
100
AcDbEntity
8
F-F
6
CONTINUOUS
62
3
100
AcDbLine
10
47.620000000000
20
35.960000000000
30
0.0
11
47.620000000000
21
29.850000000000
31
0.0
0
LINE
5
439
100
AcDbEntity
8
F-F
6
CONTINUOUS
62
4
100
AcDbLine
10
40.420000000000
20
36.970000000000
30
0.0
11
48.420000000000
21
36.970000000000
31
0.0
0
LINE
5
43a
100
AcDbEntity
8
F-F
6
CONTINUOUS
62
4
100
AcDbLine
10
40.420000000000
20
36.810000000000
30
0.0
11
48.420000000000
21
36.810000000000
31
0.0
0
LINE
5
43b
100
AcDbEntity
8
F-F
6
CONTINUOUS
62
4
100
AcDbLine
10
40.420000000000
20
36.650000000000
30
0.0
11
48.420000000000
21
36.650000000000
31
0.0
0
LINE
5
43c
100
AcDbEntity
8
F-F
6
CONTINUOUS
62
4
100
AcDbLine
10
40.420000000000
20
36.490000000000
30
0.0
11
48.420000000000
21
36.490000000000
31
0.0
0
LINE
5
43d
100
AcDbEntity
8
F-F
6
CONTINUOUS
62
4
100
AcDbLine
10
40.420000000000
20
36.330000000000
30
0.0
11
48.420000000000
21
36.330000000000
31
0.0
0
LINE
5
43e
100
AcDbEntity
8
F-F
6
CONTINUOUS
62
4
100
AcDbLine
10
40.420000000000
20
29.770000000000
30
0.0
11
48.420000000000
21
29.770000000000
31
0.0
0
LINE
5
43f
100
AcDbEntity
8
F-F
6
CONTINUOUS
62
4
100
AcDbLine
10
40.420000000000
20
29.610000000000
30
0.0
11
48.420000000000
21
29.610000000000
31
0.0
0
LINE
5
440
100
AcDbEntity
8
F-F
6
CONTINUOUS
62
4
100
AcDbLine
10
40.420000000000
20
29.450000000000
30
0.0
11
48.420000000000
21
29.450000000000
31
0.0
0
LINE
5
441
100
AcDbEntity
8
F-F
6
CONTINUOUS
62
4
100
AcDbLine
10
40.420000000000
20
29.290000000000
30
0.0
11
48.420000000000
21
29.290000000000
31
0.0
0
LINE
5
442
100
AcDbEntity
8
F-F
6
CONTINUOUS
62
4
100
AcDbLine
10
40.420000000000
20
29.130000000000
30
0.0
11
48.420000000000
21
29.130000000000
31
0.0
0
LINE
5
443
100
AcDbEntity
8
F-F
6
CONTINUOUS
62
4
100
AcDbLine
10
40.420000000000
20
30.250000000000
30
0.0
11
41.220000000000
21
30.250000000000
31
0.0
0
LINE
5
444
100
AcDbEntity
8
F-F
6
CONTINUOUS
62
4
100
AcDbLine
10
40.420000000000
20
30.410000000000
30
0.0
11
41.220000000000
21
30.410000000000
31
0.0
0
LINE
5
445
100
AcDbEntity
8
F-F
6
CONTINUOUS
62
4
100
AcDbLine
10
40.420000000000
20
30.570000000000
30
0.0
11
41.220000000000
21
30.570000000000
31
0.0
0
LINE
5
446
100
AcDbEntity
8
F-F
6
CONTINUOUS
62
4
100
AcDbLine
10
40.420000000000
20
30.730000000000
30
0.0
11
41.220000000000
21
30.730000000000
31
0.0
0
LINE
5
447
100
AcDbEntity
8
F-F
6
CONTINUOUS
62
4
100
AcDbLine
10
40.420000000000
20
30.890000000000
30
0.0
11
41.220000000000
21
30.890000000000
31
0.0
0
LINE
5
448
100
AcDbEntity
8
F-F
6
CONTINUOUS
62
4
100
AcDbLine
10
40.420000000000
20
31.050000000000
30
0.0
11
41.220000000000
21
31.050000000000
31
0.0
0
LINE
5
449
100
AcDbEntity
8
F-F
6
CONTINUOUS
62
4
100
AcDbLine
10
40.420000000000
20
31.210000000000
30
0.0
11
41.220000000000
21
31.210000000000
31
0.0
0
LINE
5
44a
100
AcDbEntity
8
F-F
6
CONTINUOUS
62
4
100
AcDbLine
10
40.420000000000
20
31.370000000000
30
0.0
11
41.220000000000
21
31.370000000000
31
0.0
0
LINE
5
44b
100
AcDbEntity
8
F-F
6
CONTINUOUS
62
4
100
AcDbLine
10
40.420000000000
20
31.530000000000
30
0.0
11
41.220000000000
21
31.530000000000
31
0.0
0
LINE
5
44c
100
AcDbEntity
8
F-F
6
CONTINUOUS
62
4
100
AcDbLine
10
40.420000000000
20
31.690000000000
30
0.0
11
41.220000000000
21
31.690000000000
31
0.0
0
LINE
5
44d
100
AcDbEntity
8
F-F
6
CONTINUOUS
62
4
100
AcDbLine
10
40.420000000000
20
31.850000000000
30
0.0
11
41.220000000000
21
31.850000000000
31
0.0
0
LINE
5
44e
100
AcDbEntity
8
F-F
6
CONTINUOUS
62
4
100
AcDbLine
10
40.420000000000
20
32.010000000000
30
0.0
11
41.220000000000
21
32.010000000000
31
0.0
0
LINE
5
44f
100
AcDbEntity
8
F-F
6
CONTINUOUS
62
4
100
AcDbLine
10
40.420000000000
20
32.170000000000
30
0.0
11
41.220000000000
21
32.170000000000
31
0.0
0
LINE
5
450
100
AcDbEntity
8
F-F
6
CONTINUOUS
62
4
100
AcDbLine
10
40.420000000000
20
32.330000000000
30
0.0
11
41.220000000000
21
32.330000000000
31
0.0
0
LINE
5
451
100
AcDbEntity
8
F-F
6
CONTINUOUS
62
4
100
AcDbLine
10
40.420000000000
20
32.490000000000
30
0.0
11
41.220000000000
21
32.490000000000
31
0.0
0
LINE
5
452
100
AcDbEntity
8
F-F
6
CONTINUOUS
62
4
100
AcDbLine
10
40.420000000000
20
32.650000000000
30
0.0
11
41.220000000000
21
32.650000000000
31
0.0
0
LINE
5
453
100
AcDbEntity
8
F-F
6
CONTINUOUS
62
4
100
AcDbLine
10
40.420000000000
20
32.810000000000
30
0.0
11
41.220000000000
21
32.810000000000
31
0.0
0
LINE
5
454
100
AcDbEntity
8
F-F
6
CONTINUOUS
62
4
100
AcDbLine
10
40.420000000000
20
32.970000000000
30
0.0
11
41.220000000000
21
32.970000000000
31
0.0
0
LINE
5
455
100
AcDbEntity
8
F-F
6
CONTINUOUS
62
4
100
AcDbLine
10
40.420000000000
20
33.130000000000
30
0.0
11
41.220000000000
21
33.130000000000
31
0.0
0
LINE
5
456
100
AcDbEntity
8
F-F
6
CONTINUOUS
62
4
100
AcDbLine
10
40.420000000000
20
33.290000000000
30
0.0
11
41.220000000000
21
33.290000000000
31
0.0
0
LINE
5
457
100
AcDbEntity
8
F-F
6
CONTINUOUS
62
4
100
AcDbLine
10
40.420000000000
20
33.450000000000
30
0.0
11
41.220000000000
21
33.450000000000
31
0.0
0
LINE
5
458
100
AcDbEntity
8
F-F
6
CONTINUOUS
62
4
100
AcDbLine
10
40.420000000000
20
33.610000000000
30
0.0
11
41.220000000000
21
33.610000000000
31
0.0
0
LINE
5
459
100
AcDbEntity
8
F-F
6
CONTINUOUS
62
4
100
AcDbLine
10
40.420000000000
20
33.770000000000
30
0.0
11
41.220000000000
21
33.770000000000
31
0.0
0
LINE
5
45a
100
AcDbEntity
8
F-F
6
CONTINUOUS
62
4
100
AcDbLine
10
40.420000000000
20
33.930000000000
30
0.0
11
41.220000000000
21
33.930000000000
31
0.0
0
LINE
5
45b
100
AcDbEntity
8
F-F
6
CONTINUOUS
62
4
100
AcDbLine
10
40.420000000000
20
34.410000000000
30
0.0
11
41.220000000000
21
34.410000000000
31
0.0
0
LINE
5
45c
100
AcDbEntity
8
F-F
6
CONTINUOUS
62
4
100
AcDbLine
10
40.420000000000
20
34.890000000000
30
0.0
11
41.220000000000
21
34.890000000000
31
0.0
0
LINE
5
45d
100
AcDbEntity
8
F-F
6
CONTINUOUS
62
4
100
AcDbLine
10
40.420000000000
20
35.050000000000
30
0.0
11
41.220000000000
21
35.050000000000
31
0.0
0
LINE
5
45e
100
AcDbEntity
8
F-F
6
CONTINUOUS
62
4
100
AcDbLine
10
40.420000000000
20
35.210000000000
30
0.0
11
41.220000000000
21
35.210000000000
31
0.0
0
LINE
5
45f
100
AcDbEntity
8
F-F
6
CONTINUOUS
62
4
100
AcDbLine
10
40.420000000000
20
35.370000000000
30
0.0
11
41.220000000000
21
35.370000000000
31
0.0
0
LINE
5
460
100
AcDbEntity
8
F-F
6
CONTINUOUS
62
4
100
AcDbLine
10
40.420000000000
20
36.170000000000
30
0.0
11
41.220000000000
21
36.170000000000
31
0.0
0
LINE
5
461
100
AcDbEntity
8
F-F
6
CONTINUOUS
62
4
100
AcDbLine
10
40.420000000000
20
36.010000000000
30
0.0
11
41.220000000000
21
36.010000000000
31
0.0
0
LINE
5
462
100
AcDbEntity
8
F-F
6
CONTINUOUS
62
4
100
AcDbLine
10
40.420000000000
20
35.850000000000
30
0.0
11
41.220000000000
21
35.850000000000
31
0.0
0
LINE
5
463
100
AcDbEntity
8
F-F
6
CONTINUOUS
62
4
100
AcDbLine
10
40.420000000000
20
35.690000000000
30
0.0
11
41.220000000000
21
35.690000000000
31
0.0
0
LINE
5
464
100
AcDbEntity
8
F-F
6
CONTINUOUS
62
4
100
AcDbLine
10
40.420000000000
20
35.530000000000
30
0.0
11
41.220000000000
21
35.530000000000
31
0.0
0
LINE
5
465
100
AcDbEntity
8
F-F
6
CONTINUOUS
62
4
100
AcDbLine
10
40.420000000000
20
34.570000000000
30
0.0
11
41.220000000000
21
34.570000000000
31
0.0
0
LINE
5
466
100
AcDbEntity
8
F-F
6
CONTINUOUS
62
4
100
AcDbLine
10
40.420000000000
20
34.730000000000
30
0.0
11
41.220000000000
21
34.730000000000
31
0.0
0
LINE
5
467
100
AcDbEntity
8
F-F
6
CONTINUOUS
62
4
100
AcDbLine
10
40.420000000000
20
34.250000000000
30
0.0
11
41.220000000000
21
34.250000000000
31
0.0
0
LINE
5
468
100
AcDbEntity
8
F-F
6
CONTINUOUS
62
4
100
AcDbLine
10
40.420000000000
20
34.090000000000
30
0.0
11
41.220000000000
21
34.090000000000
31
0.0
0
LINE
5
469
100
AcDbEntity
8
F-F
6
CONTINUOUS
62
4
100
AcDbLine
10
41.500000000000
20
30.410000000000
30
0.0
11
42.060000000000
21
30.410000000000
31
0.0
0
LINE
5
46a
100
AcDbEntity
8
F-F
6
CONTINUOUS
62
4
100
AcDbLine
10
41.340000000000
20
30.250000000000
30
0.0
11
41.900000000000
21
30.250000000000
31
0.0
0
LINE
5
46b
100
AcDbEntity
8
F-F
6
CONTINUOUS
62
4
100
AcDbLine
10
40.420000000000
20
30.090000000000
30
0.0
11
41.740000000000
21
30.090000000000
31
0.0
0
LINE
5
46c
100
AcDbEntity
8
F-F
6
CONTINUOUS
62
4
100
AcDbLine
10
40.420000000000
20
29.930000000000
30
0.0
11
41.580000000000
21
29.930000000000
31
0.0
0
LINE
5
46d
100
AcDbEntity
8
F-F
6
CONTINUOUS
62
4
100
AcDbLine
10
42.460000000000
20
31.370000000000
30
0.0
11
43.020000000000
21
31.370000000000
31
0.0
0
LINE
5
46e
100
AcDbEntity
8
F-F
6
CONTINUOUS
62
4
100
AcDbLine
10
42.300000000000
20
31.210000000000
30
0.0
11
42.860000000000
21
31.210000000000
31
0.0
0
LINE
5
46f
100
AcDbEntity
8
F-F
6
CONTINUOUS
62
4
100
AcDbLine
10
42.140000000000
20
31.050000000000
30
0.0
11
42.700000000000
21
31.050000000000
31
0.0
0
LINE
5
470
100
AcDbEntity
8
F-F
6
CONTINUOUS
62
4
100
AcDbLine
10
41.980000000000
20
30.890000000000
30
0.0
11
42.540000000000
21
30.890000000000
31
0.0
0
LINE
5
471
100
AcDbEntity
8
F-F
6
CONTINUOUS
62
4
100
AcDbLine
10
41.820000000000
20
30.730000000000
30
0.0
11
42.380000000000
21
30.730000000000
31
0.0
0
LINE
5
472
100
AcDbEntity
8
F-F
6
CONTINUOUS
62
4
100
AcDbLine
10
41.660000000000
20
30.570000000000
30
0.0
11
42.220000000000
21
30.570000000000
31
0.0
0
LINE
5
473
100
AcDbEntity
8
F-F
6
CONTINUOUS
62
4
100
AcDbLine
10
41.220000000000
20
36.250000000000
30
0.0
11
41.220000000000
21
36.410000000000
31
0.0
0
LINE
5
474
100
AcDbEntity
8
F-F
6
CONTINUOUS
62
4
100
AcDbLine
10
47.620000000000
20
30.250000000000
30
0.0
11
48.420000000000
21
30.250000000000
31
0.0
0
LINE
5
475
100
AcDbEntity
8
F-F
6
CONTINUOUS
62
4
100
AcDbLine
10
47.620000000000
20
30.410000000000
30
0.0
11
48.420000000000
21
30.410000000000
31
0.0
0
LINE
5
476
100
AcDbEntity
8
F-F
6
CONTINUOUS
62
4
100
AcDbLine
10
47.620000000000
20
30.570000000000
30
0.0
11
48.420000000000
21
30.570000000000
31
0.0
0
LINE
5
477
100
AcDbEntity
8
F-F
6
CONTINUOUS
62
4
100
AcDbLine
10
47.620000000000
20
30.730000000000
30
0.0
11
48.420000000000
21
30.730000000000
31
0.0
0
LINE
5
478
100
AcDbEntity
8
F-F
6
CONTINUOUS
62
4
100
AcDbLine
10
47.620000000000
20
30.890000000000
30
0.0
11
48.420000000000
21
30.890000000000
31
0.0
0
LINE
5
479
100
AcDbEntity
8
F-F
6
CONTINUOUS
62
4
100
AcDbLine
10
47.620000000000
20
31.050000000000
30
0.0
11
48.420000000000
21
31.050000000000
31
0.0
0
LINE
5
47a
100
AcDbEntity
8
F-F
6
CONTINUOUS
62
4
100
AcDbLine
10
47.620000000000
20
31.210000000000
30
0.0
11
48.420000000000
21
31.210000000000
31
0.0
0
LINE
5
47b
100
AcDbEntity
8
F-F
6
CONTINUOUS
62
4
100
AcDbLine
10
47.620000000000
20
31.370000000000
30
0.0
11
48.420000000000
21
31.370000000000
31
0.0
0
LINE
5
47c
100
AcDbEntity
8
F-F
6
CONTINUOUS
62
4
100
AcDbLine
10
47.620000000000
20
31.530000000000
30
0.0
11
48.420000000000
21
31.530000000000
31
0.0
0
LINE
5
47d
100
AcDbEntity
8
F-F
6
CONTINUOUS
62
4
100
AcDbLine
10
47.620000000000
20
31.690000000000
30
0.0
11
48.420000000000
21
31.690000000000
31
0.0
0
LINE
5
47e
100
AcDbEntity
8
F-F
6
CONTINUOUS
62
4
100
AcDbLine
10
47.620000000000
20
31.850000000000
30
0.0
11
48.420000000000
21
31.850000000000
31
0.0
0
LINE
5
47f
100
AcDbEntity
8
F-F
6
CONTINUOUS
62
4
100
AcDbLine
10
47.620000000000
20
32.010000000000
30
0.0
11
48.420000000000
21
32.010000000000
31
0.0
0
LINE
5
480
100
AcDbEntity
8
F-F
6
CONTINUOUS
62
4
100
AcDbLine
10
47.620000000000
20
32.170000000000
30
0.0
11
48.420000000000
21
32.170000000000
31
0.0
0
LINE
5
481
100
AcDbEntity
8
F-F
6
CONTINUOUS
62
4
100
AcDbLine
10
47.620000000000
20
32.490000000000
30
0.0
11
48.420000000000
21
32.490000000000
31
0.0
0
LINE
5
482
100
AcDbEntity
8
F-F
6
CONTINUOUS
62
4
100
AcDbLine
10
47.620000000000
20
32.650000000000
30
0.0
11
48.420000000000
21
32.650000000000
31
0.0
0
LINE
5
483
100
AcDbEntity
8
F-F
6
CONTINUOUS
62
4
100
AcDbLine
10
47.620000000000
20
32.810000000000
30
0.0
11
48.420000000000
21
32.810000000000
31
0.0
0
LINE
5
484
100
AcDbEntity
8
F-F
6
CONTINUOUS
62
4
100
AcDbLine
10
47.620000000000
20
32.970000000000
30
0.0
11
48.420000000000
21
32.970000000000
31
0.0
0
LINE
5
485
100
AcDbEntity
8
F-F
6
CONTINUOUS
62
4
100
AcDbLine
10
47.620000000000
20
33.130000000000
30
0.0
11
48.420000000000
21
33.130000000000
31
0.0
0
LINE
5
486
100
AcDbEntity
8
F-F
6
CONTINUOUS
62
4
100
AcDbLine
10
47.620000000000
20
33.290000000000
30
0.0
11
48.420000000000
21
33.290000000000
31
0.0
0
LINE
5
487
100
AcDbEntity
8
F-F
6
CONTINUOUS
62
4
100
AcDbLine
10
47.620000000000
20
33.450000000000
30
0.0
11
48.420000000000
21
33.450000000000
31
0.0
0
LINE
5
488
100
AcDbEntity
8
F-F
6
CONTINUOUS
62
4
100
AcDbLine
10
47.620000000000
20
33.610000000000
30
0.0
11
48.420000000000
21
33.610000000000
31
0.0
0
LINE
5
489
100
AcDbEntity
8
F-F
6
CONTINUOUS
62
4
100
AcDbLine
10
47.620000000000
20
33.770000000000
30
0.0
11
48.420000000000
21
33.770000000000
31
0.0
0
LINE
5
48a
100
AcDbEntity
8
F-F
6
CONTINUOUS
62
4
100
AcDbLine
10
47.620000000000
20
33.930000000000
30
0.0
11
48.420000000000
21
33.930000000000
31
0.0
0
LINE
5
48b
100
AcDbEntity
8
F-F
6
CONTINUOUS
62
4
100
AcDbLine
10
47.620000000000
20
34.410000000000
30
0.0
11
48.420000000000
21
34.410000000000
31
0.0
0
LINE
5
48c
100
AcDbEntity
8
F-F
6
CONTINUOUS
62
4
100
AcDbLine
10
47.620000000000
20
34.890000000000
30
0.0
11
48.420000000000
21
34.890000000000
31
0.0
0
LINE
5
48d
100
AcDbEntity
8
F-F
6
CONTINUOUS
62
4
100
AcDbLine
10
47.620000000000
20
35.050000000000
30
0.0
11
48.420000000000
21
35.050000000000
31
0.0
0
LINE
5
48e
100
AcDbEntity
8
F-F
6
CONTINUOUS
62
4
100
AcDbLine
10
47.620000000000
20
35.210000000000
30
0.0
11
48.420000000000
21
35.210000000000
31
0.0
0
LINE
5
48f
100
AcDbEntity
8
F-F
6
CONTINUOUS
62
4
100
AcDbLine
10
47.620000000000
20
35.370000000000
30
0.0
11
48.420000000000
21
35.370000000000
31
0.0
0
LINE
5
490
100
AcDbEntity
8
F-F
6
CONTINUOUS
62
4
100
AcDbLine
10
47.620000000000
20
35.850000000000
30
0.0
11
48.420000000000
21
35.850000000000
31
0.0
0
LINE
5
491
100
AcDbEntity
8
F-F
6
CONTINUOUS
62
4
100
AcDbLine
10
47.620000000000
20
35.690000000000
30
0.0
11
48.420000000000
21
35.690000000000
31
0.0
0
LINE
5
492
100
AcDbEntity
8
F-F
6
CONTINUOUS
62
4
100
AcDbLine
10
47.620000000000
20
35.530000000000
30
0.0
11
48.420000000000
21
35.530000000000
31
0.0
0
LINE
5
493
100
AcDbEntity
8
F-F
6
CONTINUOUS
62
4
100
AcDbLine
10
47.620000000000
20
34.570000000000
30
0.0
11
48.420000000000
21
34.570000000000
31
0.0
0
LINE
5
494
100
AcDbEntity
8
F-F
6
CONTINUOUS
62
4
100
AcDbLine
10
47.620000000000
20
34.730000000000
30
0.0
11
48.420000000000
21
34.730000000000
31
0.0
0
LINE
5
495
100
AcDbEntity
8
F-F
6
CONTINUOUS
62
4
100
AcDbLine
10
47.620000000000
20
34.250000000000
30
0.0
11
48.420000000000
21
34.250000000000
31
0.0
0
LINE
5
496
100
AcDbEntity
8
F-F
6
CONTINUOUS
62
4
100
AcDbLine
10
47.620000000000
20
34.090000000000
30
0.0
11
48.420000000000
21
34.090000000000
31
0.0
0
LINE
5
497
100
AcDbEntity
8
F-F
6
CONTINUOUS
62
4
100
AcDbLine
10
47.620000000000
20
29.930000000000
30
0.0
11
48.420000000000
21
29.930000000000
31
0.0
0
LINE
5
498
100
AcDbEntity
8
F-F
6
CONTINUOUS
62
4
100
AcDbLine
10
47.620000000000
20
30.090000000000
30
0.0
11
48.420000000000
21
30.090000000000
31
0.0
0
LINE
5
499
100
AcDbEntity
8
F-F
6
CONTINUOUS
62
4
100
AcDbLine
10
47.260000000000
20
36.170000000000
30
0.0
11
48.420000000000
21
36.170000000000
31
0.0
0
LINE
5
49a
100
AcDbEntity
8
F-F
6
CONTINUOUS
62
4
100
AcDbLine
10
47.100000000000
20
36.010000000000
30
0.0
11
48.420000000000
21
36.010000000000
31
0.0
0
LINE
5
49b
100
AcDbEntity
8
F-F
6
CONTINUOUS
62
4
100
AcDbLine
10
43.100000000000
20
32.010000000000
30
0.0
11
43.660000000000
21
32.010000000000
31
0.0
0
LINE
5
49c
100
AcDbEntity
8
F-F
6
CONTINUOUS
62
4
100
AcDbLine
10
42.940000000000
20
31.850000000000
30
0.0
11
43.500000000000
21
31.850000000000
31
0.0
0
LINE
5
49d
100
AcDbEntity
8
F-F
6
CONTINUOUS
62
4
100
AcDbLine
10
42.780000000000
20
31.690000000000
30
0.0
11
43.340000000000
21
31.690000000000
31
0.0
0
LINE
5
49e
100
AcDbEntity
8
F-F
6
CONTINUOUS
62
4
100
AcDbLine
10
42.620000000000
20
31.530000000000
30
0.0
11
43.180000000000
21
31.530000000000
31
0.0
0
LINE
5
49f
100
AcDbEntity
8
F-F
6
CONTINUOUS
62
4
100
AcDbLine
10
43.740000000000
20
32.650000000000
30
0.0
11
44.300000000000
21
32.650000000000
31
0.0
0
LINE
5
4a0
100
AcDbEntity
8
F-F
6
CONTINUOUS
62
4
100
AcDbLine
10
43.580000000000
20
32.490000000000
30
0.0
11
44.140000000000
21
32.490000000000
31
0.0
0
LINE
5
4a1
100
AcDbEntity
8
F-F
6
CONTINUOUS
62
4
100
AcDbLine
10
43.420000000000
20
32.330000000000
30
0.0
11
43.980000000000
21
32.330000000000
31
0.0
0
LINE
5
4a2
100
AcDbEntity
8
F-F
6
CONTINUOUS
62
4
100
AcDbLine
10
43.260000000000
20
32.170000000000
30
0.0
11
43.820000000000
21
32.170000000000
31
0.0
0
LINE
5
4a3
100
AcDbEntity
8
F-F
6
CONTINUOUS
62
4
100
AcDbLine
10
44.380000000000
20
33.290000000000
30
0.0
11
44.940000000000
21
33.290000000000
31
0.0
0
LINE
5
4a4
100
AcDbEntity
8
F-F
6
CONTINUOUS
62
4
100
AcDbLine
10
44.220000000000
20
33.130000000000
30
0.0
11
44.780000000000
21
33.130000000000
31
0.0
0
LINE
5
4a5
100
AcDbEntity
8
F-F
6
CONTINUOUS
62
4
100
AcDbLine
10
44.060000000000
20
32.970000000000
30
0.0
11
44.620000000000
21
32.970000000000
31
0.0
0
LINE
5
4a6
100
AcDbEntity
8
F-F
6
CONTINUOUS
62
4
100
AcDbLine
10
43.900000000000
20
32.810000000000
30
0.0
11
44.460000000000
21
32.810000000000
31
0.0
0
LINE
5
4a7
100
AcDbEntity
8
F-F
6
CONTINUOUS
62
4
100
AcDbLine
10
45.020000000000
20
33.930000000000
30
0.0
11
45.580000000000
21
33.930000000000
31
0.0
0
LINE
5
4a8
100
AcDbEntity
8
F-F
6
CONTINUOUS
62
4
100
AcDbLine
10
44.860000000000
20
33.770000000000
30
0.0
11
45.420000000000
21
33.770000000000
31
0.0
0
LINE
5
4a9
100
AcDbEntity
8
F-F
6
CONTINUOUS
62
4
100
AcDbLine
10
44.700000000000
20
33.610000000000
30
0.0
11
45.260000000000
21
33.610000000000
31
0.0
0
LINE
5
4aa
100
AcDbEntity
8
F-F
6
CONTINUOUS
62
4
100
AcDbLine
10
44.540000000000
20
33.450000000000
30
0.0
11
45.100000000000
21
33.450000000000
31
0.0
0
LINE
5
4ab
100
AcDbEntity
8
F-F
6
CONTINUOUS
62
4
100
AcDbLine
10
45.660000000000
20
34.570000000000
30
0.0
11
46.220000000000
21
34.570000000000
31
0.0
0
LINE
5
4ac
100
AcDbEntity
8
F-F
6
CONTINUOUS
62
4
100
AcDbLine
10
45.500000000000
20
34.410000000000
30
0.0
11
46.060000000000
21
34.410000000000
31
0.0
0
LINE
5
4ad
100
AcDbEntity
8
F-F
6
CONTINUOUS
62
4
100
AcDbLine
10
45.340000000000
20
34.250000000000
30
0.0
11
45.900000000000
21
34.250000000000
31
0.0
0
LINE
5
4ae
100
AcDbEntity
8
F-F
6
CONTINUOUS
62
4
100
AcDbLine
10
45.180000000000
20
34.090000000000
30
0.0
11
45.740000000000
21
34.090000000000
31
0.0
0
LINE
5
4af
100
AcDbEntity
8
F-F
6
CONTINUOUS
62
4
100
AcDbLine
10
46.300000000000
20
35.210000000000
30
0.0
11
46.860000000000
21
35.210000000000
31
0.0
0
LINE
5
4b0
100
AcDbEntity
8
F-F
6
CONTINUOUS
62
4
100
AcDbLine
10
46.140000000000
20
35.050000000000
30
0.0
11
46.700000000000
21
35.050000000000
31
0.0
0
LINE
5
4b1
100
AcDbEntity
8
F-F
6
CONTINUOUS
62
4
100
AcDbLine
10
45.980000000000
20
34.890000000000
30
0.0
11
46.540000000000
21
34.890000000000
31
0.0
0
LINE
5
4b2
100
AcDbEntity
8
F-F
6
CONTINUOUS
62
4
100
AcDbLine
10
45.820000000000
20
34.730000000000
30
0.0
11
46.380000000000
21
34.730000000000
31
0.0
0
LINE
5
4b3
100
AcDbEntity
8
F-F
6
CONTINUOUS
62
4
100
AcDbLine
10
46.940000000000
20
35.850000000000
30
0.0
11
47.500000000000
21
35.850000000000
31
0.0
0
LINE
5
4b4
100
AcDbEntity
8
F-F
6
CONTINUOUS
62
4
100
AcDbLine
10
46.780000000000
20
35.690000000000
30
0.0
11
47.340000000000
21
35.690000000000
31
0.0
0
LINE
5
4b5
100
AcDbEntity
8
F-F
6
CONTINUOUS
62
4
100
AcDbLine
10
46.620000000000
20
35.530000000000
30
0.0
11
47.180000000000
21
35.530000000000
31
0.0
0
LINE
5
4b6
100
AcDbEntity
8
F-F
6
CONTINUOUS
62
4
100
AcDbLine
10
46.460000000000
20
35.370000000000
30
0.0
11
47.020000000000
21
35.370000000000
31
0.0
0
LINE
5
4b7
100
AcDbEntity
8
F-F
6
CONTINUOUS
62
4
100
AcDbLine
10
47.620000000000
20
32.330000000000
30
0.0
11
48.420000000000
21
32.330000000000
31
0.0
0
LINE
5
4b8
100
AcDbEntity
8
F-F
6
CONTINUOUS
62
2
100
AcDbLine
10
768.560000000000
20
11.820000000000
30
0.0
11
768.560000000000
21
41.450000000000
31
0.0
0
LINE
5
4b9
100
AcDbEntity
8
0-0
6
CONTINUOUS
62
3
100
AcDbLine
10
597.670000000000
20
435.530000000000
30
0.0
11
610.780000000000
21
422.270000000000
31
0.0
0
LINE
5
4ba
100
AcDbEntity
8
0-0
6
CONTINUOUS
62
3
100
AcDbLine
10
597.430000000000
20
434.920000000000
30
0.0
11
610.360000000000
21
421.840000000000
31
0.0
0
LINE
5
4bb
100
AcDbEntity
8
0-0
6
CONTINUOUS
62
3
100
AcDbLine
10
614.620000000000
20
404.580000000000
30
0.0
11
609.720000000000
21
413.060000000000
31
0.0
0
LINE
5
4bc
100
AcDbEntity
8
0-0
6
CONTINUOUS
62
3
100
AcDbLine
10
614.080000000000
20
404.310000000000
30
0.0
11
609.200000000000
21
412.760000000000
31
0.0
0
LINE
5
4bd
100
AcDbEntity
8
0-0
6
CONTINUOUS
62
3
100
AcDbLine
10
614.080000000000
20
404.310000000000
30
0.0
11
616.640000000000
21
398.370000000000
31
0.0
0
LINE
5
4be
100
AcDbEntity
8
0-0
6
CONTINUOUS
62
3
100
AcDbLine
10
617.190000000000
20
398.610000000000
30
0.0
11
614.620000000000
21
404.580000000000
31
0.0
0
LINE
5
4bf
100
AcDbEntity
8
0-0
6
CONTINUOUS
62
3
100
AcDbLine
10
582.980000000000
20
437.270000000000
30
0.0
11
597.760000000000
21
435.490000000000
31
0.0
0
LINE
5
4c0
100
AcDbEntity
8
0-0
6
CONTINUOUS
62
3
100
AcDbLine
10
582.560000000000
20
436.710000000000
30
0.0
11
597.430000000000
21
434.920000000000
31
0.0
0
LINE
5
4c1
100
AcDbEntity
8
0-0
6
CONTINUOUS
62
3
100
AcDbLine
10
500.600000000000
20
435.530000000000
30
0.0
11
487.490000000000
21
422.270000000000
31
0.0
0
LINE
5
4c2
100
AcDbEntity
8
0-0
6
CONTINUOUS
62
3
100
AcDbLine
10
500.840000000000
20
434.920000000000
30
0.0
11
487.920000000000
21
421.840000000000
31
0.0
0
LINE
5
4c3
100
AcDbEntity
8
0-0
6
CONTINUOUS
62
3
100
AcDbLine
10
483.650000000000
20
404.580000000000
30
0.0
11
488.550000000000
21
413.060000000000
31
0.0
0
LINE
5
4c4
100
AcDbEntity
8
0-0
6
CONTINUOUS
62
3
100
AcDbLine
10
484.190000000000
20
404.310000000000
30
0.0
11
489.070000000000
21
412.760000000000
31
0.0
0
LINE
5
4c5
100
AcDbEntity
8
0-0
6
CONTINUOUS
62
3
100
AcDbLine
10
484.190000000000
20
404.310000000000
30
0.0
11
481.640000000000
21
398.370000000000
31
0.0
0
LINE
5
4c6
100
AcDbEntity
8
0-0
6
CONTINUOUS
62
3
100
AcDbLine
10
481.080000000000
20
398.610000000000
30
0.0
11
483.650000000000
21
404.580000000000
31
0.0
0
LINE
5
4c7
100
AcDbEntity
8
0-0
6
CONTINUOUS
62
3
100
AcDbLine
10
515.290000000000
20
437.270000000000
30
0.0
11
500.510000000000
21
435.490000000000
31
0.0
0
LINE
5
4c8
100
AcDbEntity
8
0-0
6
CONTINUOUS
62
3
100
AcDbLine
10
515.710000000000
20
436.710000000000
30
0.0
11
500.840000000000
21
434.920000000000
31
0.0
0
LINE
5
4c9
100
AcDbEntity
8
0-0
6
CONTINUOUS
62
3
100
AcDbLine
10
528.640000000000
20
463.510000000000
30
0.0
11
569.640000000000
21
463.510000000000
31
0.0
0
LINE
5
4ca
100
AcDbEntity
8
0-0
6
CONTINUOUS
62
3
100
AcDbLine
10
570.030000000000
20
464.110000000000
30
0.0
11
528.240000000000
21
464.110000000000
31
0.0
0
LINE
5
4cb
100
AcDbEntity
8
0-0
6
CONTINUOUS
62
3
100
AcDbLine
10
582.560000000000
20
436.710000000000
30
0.0
11
569.640000000000
21
463.510000000000
31
0.0
0
LINE
5
4cc
100
AcDbEntity
8
0-0
6
CONTINUOUS
62
3
100
AcDbLine
10
570.030000000000
20
464.110000000000
30
0.0
11
582.980000000000
21
437.270000000000
31
0.0
0
LINE
5
4cd
100
AcDbEntity
8
0-0
6
CONTINUOUS
62
3
100
AcDbLine
10
528.640000000000
20
463.510000000000
30
0.0
11
515.710000000000
21
436.710000000000
31
0.0
0
LINE
5
4ce
100
AcDbEntity
8
0-0
6
CONTINUOUS
62
3
100
AcDbLine
10
528.240000000000
20
464.110000000000
30
0.0
11
515.290000000000
21
437.270000000000
31
0.0
0
LINE
5
4cf
100
AcDbEntity
8
0-0
6
CONTINUOUS
62
7
100
AcDbLine
10
528.640000000000
20
449.630000000000
30
0.0
11
531.530000000000
21
448.860000000000
31
0.0
0
LINE
5
4d0
100
AcDbEntity
8
0-0
6
CONTINUOUS
62
7
100
AcDbLine
10
528.640000000000
20
449.630000000000
30
0.0
11
531.530000000000
21
450.410000000000
31
0.0
0
LINE
5
4d1
100
AcDbEntity
8
0-0
6
CONTINUOUS
62
7
100
AcDbLine
10
528.640000000000
20
449.630000000000
30
0.0
11
531.640000000000
21
449.630000000000
31
0.0
0
LINE
5
4d2
100
AcDbEntity
8
0-0
6
CONTINUOUS
62
7
100
AcDbLine
10
569.640000000000
20
449.630000000000
30
0.0
11
566.740000000000
21
450.410000000000
31
0.0
0
LINE
5
4d3
100
AcDbEntity
8
0-0
6
CONTINUOUS
62
7
100
AcDbLine
10
569.640000000000
20
449.630000000000
30
0.0
11
566.740000000000
21
448.860000000000
31
0.0
0
LINE
5
4d4
100
AcDbEntity
8
0-0
6
CONTINUOUS
62
7
100
AcDbLine
10
569.640000000000
20
449.630000000000
30
0.0
11
566.640000000000
21
449.630000000000
31
0.0
0
LINE
5
4d5
100
AcDbEntity
8
0-0
6
CONTINUOUS
62
7
100
AcDbLine
10
515.710000000000
20
428.880000000000
30
0.0
11
518.610000000000
21
428.110000000000
31
0.0
0
LINE
5
4d6
100
AcDbEntity
8
0-0
6
CONTINUOUS
62
7
100
AcDbLine
10
515.710000000000
20
428.880000000000
30
0.0
11
518.610000000000
21
429.660000000000
31
0.0
0
LINE
5
4d7
100
AcDbEntity
8
0-0
6
CONTINUOUS
62
7
100
AcDbLine
10
515.710000000000
20
428.880000000000
30
0.0
11
518.710000000000
21
428.880000000000
31
0.0
0
LINE
5
4d8
100
AcDbEntity
8
0-0
6
CONTINUOUS
62
7
100
AcDbLine
10
582.560000000000
20
428.880000000000
30
0.0
11
579.670000000000
21
429.660000000000
31
0.0
0
LINE
5
4d9
100
AcDbEntity
8
0-0
6
CONTINUOUS
62
7
100
AcDbLine
10
582.560000000000
20
428.880000000000
30
0.0
11
579.670000000000
21
428.110000000000
31
0.0
0
LINE
5
4da
100
AcDbEntity
8
0-0
6
CONTINUOUS
62
7
100
AcDbLine
10
582.560000000000
20
428.880000000000
30
0.0
11
579.560000000000
21
428.880000000000
31
0.0
0
LINE
5
4db
100
AcDbEntity
8
0-0
6
CONTINUOUS
62
7
100
AcDbLine
10
492.140000000000
20
407.120000000000
30
0.0
11
495.030000000000
21
406.350000000000
31
0.0
0
LINE
5
4dc
100
AcDbEntity
8
0-0
6
CONTINUOUS
62
7
100
AcDbLine
10
492.140000000000
20
407.120000000000
30
0.0
11
495.030000000000
21
407.900000000000
31
0.0
0
LINE
5
4dd
100
AcDbEntity
8
0-0
6
CONTINUOUS
62
7
100
AcDbLine
10
492.140000000000
20
407.120000000000
30
0.0
11
495.140000000000
21
407.120000000000
31
0.0
0
LINE
5
4de
100
AcDbEntity
8
0-0
6
CONTINUOUS
62
7
100
AcDbLine
10
606.140000000000
20
407.120000000000
30
0.0
11
603.240000000000
21
407.900000000000
31
0.0
0
LINE
5
4df
100
AcDbEntity
8
0-0
6
CONTINUOUS
62
7
100
AcDbLine
10
606.140000000000
20
407.120000000000
30
0.0
11
603.240000000000
21
406.350000000000
31
0.0
0
LINE
5
4e0
100
AcDbEntity
8
0-0
6
CONTINUOUS
62
7
100
AcDbLine
10
606.140000000000
20
407.120000000000
30
0.0
11
603.140000000000
21
407.120000000000
31
0.0
0
LINE
5
4e1
100
AcDbEntity
8
0-0
6
CONTINUOUS
62
7
100
AcDbLine
10
481.640000000000
20
390.810000000000
30
0.0
11
484.530000000000
21
390.040000000000
31
0.0
0
LINE
5
4e2
100
AcDbEntity
8
0-0
6
CONTINUOUS
62
7
100
AcDbLine
10
481.640000000000
20
390.810000000000
30
0.0
11
484.530000000000
21
391.590000000000
31
0.0
0
LINE
5
4e3
100
AcDbEntity
8
0-0
6
CONTINUOUS
62
7
100
AcDbLine
10
481.640000000000
20
390.810000000000
30
0.0
11
484.640000000000
21
390.810000000000
31
0.0
0
LINE
5
4e4
100
AcDbEntity
8
0-0
6
CONTINUOUS
62
7
100
AcDbLine
10
616.640000000000
20
390.810000000000
30
0.0
11
613.740000000000
21
391.590000000000
31
0.0
0
LINE
5
4e5
100
AcDbEntity
8
0-0
6
CONTINUOUS
62
7
100
AcDbLine
10
616.640000000000
20
390.810000000000
30
0.0
11
613.740000000000
21
390.040000000000
31
0.0
0
LINE
5
4e6
100
AcDbEntity
8
0-0
6
CONTINUOUS
62
7
100
AcDbLine
10
616.640000000000
20
390.810000000000
30
0.0
11
613.640000000000
21
390.810000000000
31
0.0
0
LINE
5
4e7
100
AcDbEntity
8
0-0
6
CONTINUOUS
62
7
100
AcDbLine
10
639.660000000000
20
398.370000000000
30
0.0
11
640.430000000000
21
401.270000000000
31
0.0
0
LINE
5
4e8
100
AcDbEntity
8
0-0
6
CONTINUOUS
62
7
100
AcDbLine
10
639.660000000000
20
398.370000000000
30
0.0
11
638.880000000000
21
401.270000000000
31
0.0
0
LINE
5
4e9
100
AcDbEntity
8
0-0
6
CONTINUOUS
62
7
100
AcDbLine
10
639.660000000000
20
398.370000000000
30
0.0
11
639.660000000000
21
401.370000000000
31
0.0
0
LINE
5
4ea
100
AcDbEntity
8
0-0
6
CONTINUOUS
62
7
100
AcDbLine
10
639.660000000000
20
464.110000000000
30
0.0
11
638.880000000000
21
461.210000000000
31
0.0
0
LINE
5
4eb
100
AcDbEntity
8
0-0
6
CONTINUOUS
62
7
100
AcDbLine
10
639.660000000000
20
464.110000000000
30
0.0
11
640.430000000000
21
461.210000000000
31
0.0
0
LINE
5
4ec
100
AcDbEntity
8
0-0
6
CONTINUOUS
62
7
100
AcDbLine
10
639.660000000000
20
464.110000000000
30
0.0
11
639.660000000000
21
461.110000000000
31
0.0
0
LINE
5
4ed
100
AcDbEntity
8
0-0
6
CONTINUOUS
62
7
100
AcDbLine
10
487.030000000000
20
475.080000000000
30
0.0
11
489.930000000000
21
474.300000000000
31
0.0
0
LINE
5
4ee
100
AcDbEntity
8
0-0
6
CONTINUOUS
62
7
100
AcDbLine
10
487.030000000000
20
475.080000000000
30
0.0
11
489.930000000000
21
475.860000000000
31
0.0
0
LINE
5
4ef
100
AcDbEntity
8
0-0
6
CONTINUOUS
62
7
100
AcDbLine
10
487.030000000000
20
475.080000000000
30
0.0
11
490.030000000000
21
475.080000000000
31
0.0
0
LINE
5
4f0
100
AcDbEntity
8
0-0
6
CONTINUOUS
62
7
100
AcDbLine
10
611.240000000000
20
475.080000000000
30
0.0
11
608.350000000000
21
475.860000000000
31
0.0
0
LINE
5
4f1
100
AcDbEntity
8
0-0
6
CONTINUOUS
62
7
100
AcDbLine
10
611.240000000000
20
475.080000000000
30
0.0
11
608.350000000000
21
474.300000000000
31
0.0
0
LINE
5
4f2
100
AcDbEntity
8
0-0
6
CONTINUOUS
62
7
100
AcDbLine
10
611.240000000000
20
475.080000000000
30
0.0
11
608.240000000000
21
475.080000000000
31
0.0
0
LINE
5
4f3
100
AcDbEntity
8
0-0
6
CONTINUOUS
62
3
100
AcDbLine
10
616.640000000000
20
398.370000000000
30
0.0
11
617.190000000000
21
398.610000000000
31
0.0
0
LINE
5
4f4
100
AcDbEntity
8
0-0
6
CONTINUOUS
62
3
100
AcDbLine
10
481.080000000000
20
398.610000000000
30
0.0
11
481.640000000000
21
398.370000000000
31
0.0
0
LINE
5
4f5
100
AcDbEntity
8
0-0
6
CONTINUOUS
62
7
100
AcDbLine
10
611.240000000000
20
450.080000000000
30
0.0
11
611.240000000000
21
475.080000000000
31
0.0
0
LINE
5
4f6
100
AcDbEntity
8
0-0
6
CONTINUOUS
62
7
100
AcDbLine
10
487.030000000000
20
475.080000000000
30
0.0
11
611.240000000000
21
475.080000000000
31
0.0
0
LINE
5
4f7
100
AcDbEntity
8
0-0
6
CONTINUOUS
62
7
100
AcDbLine
10
487.030000000000
20
450.080000000000
30
0.0
11
487.030000000000
21
475.080000000000
31
0.0
0
POLYLINE
5
4f8
100
AcDbEntity
8
0-0
6
CONTINUOUS
62
  7
100
AcDb2dPolyline
66
1
10
0.0
20
0.0
30
0.0
70
0
0
VERTEX
5
4f9
100
AcDbEntity
8
0-0
6
CONTINUOUS
62
  7
100
AcDbVertex
100
AcDb2dVertex
10
528.640000000000
20
454.630000000000
30
0.0
0
VERTEX
5
4fa
100
AcDbEntity
8
0-0
6
CONTINUOUS
62
  7
100
AcDbVertex
100
AcDb2dVertex
10
528.640000000000
20
449.630000000000
30
0.0
0
VERTEX
5
4fb
100
AcDbEntity
8
0-0
6
CONTINUOUS
62
  7
100
AcDbVertex
100
AcDb2dVertex
10
569.640000000000
20
449.630000000000
30
0.0
0
SEQEND
5
4fc
100
AcDbEntity
8
0-0
0
LINE
5
4fd
100
AcDbEntity
8
0-0
6
CONTINUOUS
62
7
100
AcDbLine
10
569.640000000000
20
454.630000000000
30
0.0
11
569.640000000000
21
449.630000000000
31
0.0
0
POLYLINE
5
4fe
100
AcDbEntity
8
0-0
6
CONTINUOUS
62
  7
100
AcDb2dPolyline
66
1
10
0.0
20
0.0
30
0.0
70
0
0
VERTEX
5
4ff
100
AcDbEntity
8
0-0
6
CONTINUOUS
62
  7
100
AcDbVertex
100
AcDb2dVertex
10
515.710000000000
20
433.880000000000
30
0.0
0
VERTEX
5
500
100
AcDbEntity
8
0-0
6
CONTINUOUS
62
  7
100
AcDbVertex
100
AcDb2dVertex
10
515.710000000000
20
428.880000000000
30
0.0
0
VERTEX
5
501
100
AcDbEntity
8
0-0
6
CONTINUOUS
62
  7
100
AcDbVertex
100
AcDb2dVertex
10
582.560000000000
20
428.880000000000
30
0.0
0
SEQEND
5
502
100
AcDbEntity
8
0-0
0
LINE
5
503
100
AcDbEntity
8
0-0
6
CONTINUOUS
62
7
100
AcDbLine
10
582.560000000000
20
433.880000000000
30
0.0
11
582.560000000000
21
428.880000000000
31
0.0
0
POLYLINE
5
504
100
AcDbEntity
8
0-0
6
CONTINUOUS
62
  7
100
AcDb2dPolyline
66
1
10
0.0
20
0.0
30
0.0
70
0
0
VERTEX
5
505
100
AcDbEntity
8
0-0
6
CONTINUOUS
62
  7
100
AcDbVertex
100
AcDb2dVertex
10
492.140000000000
20
412.120000000000
30
0.0
0
VERTEX
5
506
100
AcDbEntity
8
0-0
6
CONTINUOUS
62
  7
100
AcDbVertex
100
AcDb2dVertex
10
492.140000000000
20
407.120000000000
30
0.0
0
VERTEX
5
507
100
AcDbEntity
8
0-0
6
CONTINUOUS
62
  7
100
AcDbVertex
100
AcDb2dVertex
10
606.140000000000
20
407.120000000000
30
0.0
0
SEQEND
5
508
100
AcDbEntity
8
0-0
0
LINE
5
509
100
AcDbEntity
8
0-0
6
CONTINUOUS
62
7
100
AcDbLine
10
606.140000000000
20
412.120000000000
30
0.0
11
606.140000000000
21
407.120000000000
31
0.0
0
POLYLINE
5
50a
100
AcDbEntity
8
0-0
6
CONTINUOUS
62
  7
100
AcDb2dPolyline
66
1
10
0.0
20
0.0
30
0.0
70
0
0
VERTEX
5
50b
100
AcDbEntity
8
0-0
6
CONTINUOUS
62
  7
100
AcDbVertex
100
AcDb2dVertex
10
481.640000000000
20
395.810000000000
30
0.0
0
VERTEX
5
50c
100
AcDbEntity
8
0-0
6
CONTINUOUS
62
  7
100
AcDbVertex
100
AcDb2dVertex
10
481.640000000000
20
390.810000000000
30
0.0
0
VERTEX
5
50d
100
AcDbEntity
8
0-0
6
CONTINUOUS
62
  7
100
AcDbVertex
100
AcDb2dVertex
10
616.640000000000
20
390.810000000000
30
0.0
0
SEQEND
5
50e
100
AcDbEntity
8
0-0
0
LINE
5
50f
100
AcDbEntity
8
0-0
6
CONTINUOUS
62
7
100
AcDbLine
10
616.640000000000
20
395.810000000000
30
0.0
11
616.640000000000
21
390.810000000000
31
0.0
0
LINE
5
510
100
AcDbEntity
8
0-0
6
CONTINUOUS
62
7
100
AcDbLine
10
619.660000000000
20
464.110000000000
30
0.0
11
639.660000000000
21
464.110000000000
31
0.0
0
LINE
5
511
100
AcDbEntity
8
0-0
6
CONTINUOUS
62
7
100
AcDbLine
10
639.660000000000
20
398.370000000000
30
0.0
11
639.660000000000
21
464.110000000000
31
0.0
0
LINE
5
512
100
AcDbEntity
8
0-0
6
CONTINUOUS
62
7
100
AcDbLine
10
619.660000000000
20
398.370000000000
30
0.0
11
639.660000000000
21
398.370000000000
31
0.0
0
LINE
5
513
100
AcDbEntity
8
0-0
6
CONTINUOUS
62
3
100
AcDbLine
10
274.830000000000
20
440.980000000000
30
0.0
11
274.830000000000
21
424.600000000000
31
0.0
0
LINE
5
514
100
AcDbEntity
8
0-0
6
CONTINUOUS
62
3
100
AcDbLine
10
257.260000000000
20
440.980000000000
30
0.0
11
257.260000000000
21
422.470000000000
31
0.0
0
LINE
5
515
100
AcDbEntity
8
0-0
6
CONTINUOUS
62
3
100
AcDbLine
10
272.830000000000
20
445.280000000000
30
0.0
11
259.260000000000
21
445.280000000000
31
0.0
0
LINE
5
516
100
AcDbEntity
8
0-0
6
CONTINUOUS
62
3
100
AcDbLine
10
211.910000000000
20
405.110000000000
30
0.0
11
223.930000000000
21
419.200000000000
31
0.0
0
LINE
5
517
100
AcDbEntity
8
0-0
6
CONTINUOUS
62
3
100
AcDbLine
10
259.260000000000
20
442.980000000000
30
0.0
11
272.830000000000
21
442.980000000000
31
0.0
0
LINE
5
518
100
AcDbEntity
8
0-0
6
CONTINUOUS
62
3
100
AcDbLine
10
277.130000000000
20
440.980000000000
30
0.0
11
277.130000000000
21
424.600000000000
31
0.0
0
LINE
5
519
100
AcDbEntity
8
0-0
6
CONTINUOUS
62
3
100
AcDbLine
10
319.380000000000
20
419.080000000000
30
0.0
11
330.950000000000
21
406.460000000000
31
0.0
0
LINE
5
51a
100
AcDbEntity
8
0-0
6
CONTINUOUS
62
3
100
AcDbLine
10
253.660000000000
20
418.210000000000
30
0.0
11
225.030000000000
21
416.950000000000
31
0.0
0
LINE
5
51b
100
AcDbEntity
8
0-0
6
CONTINUOUS
62
3
100
AcDbLine
10
213.660000000000
20
403.620000000000
30
0.0
11
225.030000000000
21
416.950000000000
31
0.0
0
LINE
5
51c
100
AcDbEntity
8
0-0
6
CONTINUOUS
62
3
100
AcDbLine
10
211.910000000000
20
405.110000000000
30
0.0
11
213.660000000000
21
403.620000000000
31
0.0
0
LINE
5
51d
100
AcDbEntity
8
0-0
6
CONTINUOUS
62
3
100
AcDbLine
10
332.650000000000
20
408.010000000000
30
0.0
11
330.950000000000
21
406.460000000000
31
0.0
0
LINE
5
51e
100
AcDbEntity
8
0-0
6
CONTINUOUS
62
7
100
AcDbLine
10
223.730000000000
20
458.300000000000
30
0.0
11
226.630000000000
21
457.520000000000
31
0.0
0
LINE
5
51f
100
AcDbEntity
8
0-0
6
CONTINUOUS
62
7
100
AcDbLine
10
223.730000000000
20
458.300000000000
30
0.0
11
226.630000000000
21
459.070000000000
31
0.0
0
LINE
5
520
100
AcDbEntity
8
0-0
6
CONTINUOUS
62
7
100
AcDbLine
10
223.730000000000
20
458.300000000000
30
0.0
11
226.730000000000
21
458.300000000000
31
0.0
0
LINE
5
521
100
AcDbEntity
8
0-0
6
CONTINUOUS
62
7
100
AcDbLine
10
254.960000000000
20
458.300000000000
30
0.0
11
252.060000000000
21
459.070000000000
31
0.0
0
LINE
5
522
100
AcDbEntity
8
0-0
6
CONTINUOUS
62
7
100
AcDbLine
10
254.960000000000
20
458.300000000000
30
0.0
11
252.060000000000
21
457.520000000000
31
0.0
0
LINE
5
523
100
AcDbEntity
8
0-0
6
CONTINUOUS
62
7
100
AcDbLine
10
254.960000000000
20
458.300000000000
30
0.0
11
251.960000000000
21
458.300000000000
31
0.0
0
LINE
5
524
100
AcDbEntity
8
0-0
6
CONTINUOUS
62
7
100
AcDbLine
10
254.960000000000
20
458.300000000000
30
0.0
11
277.130000000000
21
458.300000000000
31
0.0
0
LINE
5
525
100
AcDbEntity
8
0-0
6
CONTINUOUS
62
7
100
AcDbLine
10
254.960000000000
20
458.300000000000
30
0.0
11
257.860000000000
21
457.520000000000
31
0.0
0
LINE
5
526
100
AcDbEntity
8
0-0
6
CONTINUOUS
62
7
100
AcDbLine
10
254.960000000000
20
458.300000000000
30
0.0
11
257.860000000000
21
459.070000000000
31
0.0
0
LINE
5
527
100
AcDbEntity
8
0-0
6
CONTINUOUS
62
7
100
AcDbLine
10
254.960000000000
20
458.300000000000
30
0.0
11
257.960000000000
21
458.300000000000
31
0.0
0
LINE
5
528
100
AcDbEntity
8
0-0
6
CONTINUOUS
62
7
100
AcDbLine
10
277.130000000000
20
458.300000000000
30
0.0
11
274.230000000000
21
459.070000000000
31
0.0
0
LINE
5
529
100
AcDbEntity
8
0-0
6
CONTINUOUS
62
7
100
AcDbLine
10
277.130000000000
20
458.300000000000
30
0.0
11
274.230000000000
21
457.520000000000
31
0.0
0
LINE
5
52a
100
AcDbEntity
8
0-0
6
CONTINUOUS
62
7
100
AcDbLine
10
277.130000000000
20
458.300000000000
30
0.0
11
274.130000000000
21
458.300000000000
31
0.0
0
LINE
5
52b
100
AcDbEntity
8
0-0
6
CONTINUOUS
62
7
100
AcDbLine
10
277.130000000000
20
458.300000000000
30
0.0
11
280.030000000000
21
457.520000000000
31
0.0
0
LINE
5
52c
100
AcDbEntity
8
0-0
6
CONTINUOUS
62
7
100
AcDbLine
10
277.130000000000
20
458.300000000000
30
0.0
11
280.030000000000
21
459.070000000000
31
0.0
0
LINE
5
52d
100
AcDbEntity
8
0-0
6
CONTINUOUS
62
7
100
AcDbLine
10
277.130000000000
20
458.300000000000
30
0.0
11
280.130000000000
21
458.300000000000
31
0.0
0
LINE
5
52e
100
AcDbEntity
8
0-0
6
CONTINUOUS
62
7
100
AcDbLine
10
320.440000000000
20
458.290000000000
30
0.0
11
317.540000000000
21
459.070000000000
31
0.0
0
LINE
5
52f
100
AcDbEntity
8
0-0
6
CONTINUOUS
62
7
100
AcDbLine
10
320.440000000000
20
458.290000000000
30
0.0
11
317.540000000000
21
457.510000000000
31
0.0
0
LINE
5
530
100
AcDbEntity
8
0-0
6
CONTINUOUS
62
7
100
AcDbLine
10
320.440000000000
20
458.290000000000
30
0.0
11
317.440000000000
21
458.290000000000
31
0.0
0
LINE
5
531
100
AcDbEntity
8
0-0
6
CONTINUOUS
62
7
100
AcDbLine
10
213.660000000000
20
472.800000000000
30
0.0
11
216.560000000000
21
472.020000000000
31
0.0
0
LINE
5
532
100
AcDbEntity
8
0-0
6
CONTINUOUS
62
7
100
AcDbLine
10
213.660000000000
20
472.800000000000
30
0.0
11
216.560000000000
21
473.580000000000
31
0.0
0
LINE
5
533
100
AcDbEntity
8
0-0
6
CONTINUOUS
62
7
100
AcDbLine
10
330.950000000000
20
472.800000000000
30
0.0
11
328.060000000000
21
473.580000000000
31
0.0
0
LINE
5
534
100
AcDbEntity
8
0-0
6
CONTINUOUS
62
7
100
AcDbLine
10
330.950000000000
20
472.800000000000
30
0.0
11
328.060000000000
21
472.020000000000
31
0.0
0
LINE
5
535
100
AcDbEntity
8
0-0
6
CONTINUOUS
62
7
100
AcDbLine
10
363.600000000000
20
406.460000000000
30
0.0
11
364.370000000000
21
409.360000000000
31
0.0
0
LINE
5
536
100
AcDbEntity
8
0-0
6
CONTINUOUS
62
7
100
AcDbLine
10
363.600000000000
20
406.460000000000
30
0.0
11
362.820000000000
21
409.360000000000
31
0.0
0
LINE
5
537
100
AcDbEntity
8
0-0
6
CONTINUOUS
62
7
100
AcDbLine
10
363.600000000000
20
407.070000000000
30
0.0
11
363.600000000000
21
410.070000000000
31
0.0
0
LINE
5
538
100
AcDbEntity
8
0-0
6
CONTINUOUS
62
7
100
AcDbLine
10
363.600000000000
20
445.280000000000
30
0.0
11
362.820000000000
21
442.380000000000
31
0.0
0
LINE
5
539
100
AcDbEntity
8
0-0
6
CONTINUOUS
62
7
100
AcDbLine
10
363.600000000000
20
445.280000000000
30
0.0
11
364.370000000000
21
442.380000000000
31
0.0
0
LINE
5
53a
100
AcDbEntity
8
0-0
6
CONTINUOUS
62
7
100
AcDbLine
10
363.600000000000
20
445.280000000000
30
0.0
11
363.600000000000
21
442.280000000000
31
0.0
0
LINE
5
53b
100
AcDbEntity
8
0-0
6
CONTINUOUS
62
7
100
AcDbLine
10
268.360000000000
20
442.980000000000
30
0.0
11
268.360000000000
21
445.280000000000
31
0.0
0
POLYLINE
5
53c
100
AcDbEntity
8
0-0
6
CONTINUOUS
62
  7
100
AcDb2dPolyline
66
1
10
0.0
20
0.0
30
0.0
70
0
0
VERTEX
5
53d
100
AcDbEntity
8
0-0
6
CONTINUOUS
62
  7
100
AcDbVertex
100
AcDb2dVertex
10
268.360000000000
20
431.080000000000
30
0.0
0
VERTEX
5
53e
100
AcDbEntity
8
0-0
6
CONTINUOUS
62
  7
100
AcDbVertex
100
AcDb2dVertex
10
268.360000000000
20
442.980000000000
30
0.0
0
VERTEX
5
53f
100
AcDbEntity
8
0-0
6
CONTINUOUS
62
  7
100
AcDbVertex
100
AcDb2dVertex
10
267.580000000000
20
440.080000000000
30
0.0
0
SEQEND
5
540
100
AcDbEntity
8
0-0
0
LINE
5
541
100
AcDbEntity
8
0-0
6
CONTINUOUS
62
7
100
AcDbLine
10
268.360000000000
20
442.980000000000
30
0.0
11
269.130000000000
21
440.080000000000
31
0.0
0
LINE
5
542
100
AcDbEntity
8
0-0
6
CONTINUOUS
62
7
100
AcDbLine
10
268.360000000000
20
442.980000000000
30
0.0
11
268.360000000000
21
439.980000000000
31
0.0
0
POLYLINE
5
543
100
AcDbEntity
8
0-0
6
CONTINUOUS
62
  7
100
AcDb2dPolyline
66
1
10
0.0
20
0.0
30
0.0
70
0
0
VERTEX
5
544
100
AcDbEntity
8
0-0
6
CONTINUOUS
62
  7
100
AcDbVertex
100
AcDb2dVertex
10
268.360000000000
20
450.280000000000
30
0.0
0
VERTEX
5
545
100
AcDbEntity
8
0-0
6
CONTINUOUS
62
  7
100
AcDbVertex
100
AcDb2dVertex
10
268.360000000000
20
445.280000000000
30
0.0
0
VERTEX
5
546
100
AcDbEntity
8
0-0
6
CONTINUOUS
62
  7
100
AcDbVertex
100
AcDb2dVertex
10
269.130000000000
20
448.180000000000
30
0.0
0
SEQEND
5
547
100
AcDbEntity
8
0-0
0
LINE
5
548
100
AcDbEntity
8
0-0
6
CONTINUOUS
62
7
100
AcDbLine
10
268.360000000000
20
445.280000000000
30
0.0
11
267.580000000000
21
448.180000000000
31
0.0
0
LINE
5
549
100
AcDbEntity
8
0-0
6
CONTINUOUS
62
7
100
AcDbLine
10
268.360000000000
20
445.280000000000
30
0.0
11
268.360000000000
21
448.280000000000
31
0.0
0
LINE
5
54a
100
AcDbEntity
8
0-0
6
CONTINUOUS
62
7
100
AcDbLine
10
186.160000000000
20
403.620000000000
30
0.0
11
186.940000000000
21
406.520000000000
31
0.0
0
LINE
5
54b
100
AcDbEntity
8
0-0
6
CONTINUOUS
62
7
100
AcDbLine
10
186.160000000000
20
403.620000000000
30
0.0
11
185.380000000000
21
406.520000000000
31
0.0
0
LINE
5
54c
100
AcDbEntity
8
0-0
6
CONTINUOUS
62
7
100
AcDbLine
10
186.160000000000
20
403.620000000000
30
0.0
11
186.160000000000
21
406.620000000000
31
0.0
0
LINE
5
54d
100
AcDbEntity
8
0-0
6
CONTINUOUS
62
7
100
AcDbLine
10
186.160000000000
20
445.280000000000
30
0.0
11
185.380000000000
21
442.380000000000
31
0.0
0
LINE
5
54e
100
AcDbEntity
8
0-0
6
CONTINUOUS
62
7
100
AcDbLine
10
186.160000000000
20
445.280000000000
30
0.0
11
186.940000000000
21
442.380000000000
31
0.0
0
LINE
5
54f
100
AcDbEntity
8
0-0
6
CONTINUOUS
62
7
100
AcDbLine
10
186.160000000000
20
445.280000000000
30
0.0
11
186.160000000000
21
442.280000000000
31
0.0
0
LINE
5
550
100
AcDbEntity
8
0-0
6
CONTINUOUS
62
3
100
AcDbLine
10
253.550000000000
20
420.510000000000
30
0.0
11
223.930000000000
21
419.200000000000
31
0.0
0
LINE
5
551
100
AcDbEntity
8
0-0
6
CONTINUOUS
62
3
100
AcDbLine
10
254.960000000000
20
440.980000000000
30
0.0
11
254.960000000000
21
422.470000000000
31
0.0
0
LINE
5
552
100
AcDbEntity
8
0-0
6
CONTINUOUS
62
3
100
AcDbLine
10
320.420000000000
20
421.350000000000
30
0.0
11
332.650000000000
21
408.010000000000
31
0.0
0
LINE
5
553
100
AcDbEntity
8
0-0
6
CONTINUOUS
62
3
100
AcDbLine
10
278.860000000000
20
422.610000000000
30
0.0
11
320.420000000000
21
421.350000000000
31
0.0
0
LINE
5
554
100
AcDbEntity
8
0-0
6
CONTINUOUS
62
3
100
AcDbLine
10
319.380000000000
20
419.080000000000
30
0.0
11
278.540000000000
21
420.340000000000
31
0.0
0
LINE
5
555
100
AcDbEntity
8
0-0
6
CONTINUOUS
62
7
100
AcDbLine
10
206.160000000000
20
445.280000000000
30
0.0
11
186.160000000000
21
445.280000000000
31
0.0
0
LINE
5
556
100
AcDbEntity
8
0-0
6
CONTINUOUS
62
7
100
AcDbLine
10
186.160000000000
20
403.620000000000
30
0.0
11
186.160000000000
21
445.280000000000
31
0.0
0
LINE
5
557
100
AcDbEntity
8
0-0
6
CONTINUOUS
62
7
100
AcDbLine
10
206.160000000000
20
403.620000000000
30
0.0
11
186.160000000000
21
403.620000000000
31
0.0
0
POLYLINE
5
558
100
AcDbEntity
8
0-0
6
CONTINUOUS
62
  7
100
AcDb2dPolyline
66
1
10
0.0
20
0.0
30
0.0
70
0
0
VERTEX
5
559
100
AcDbEntity
8
0-0
6
CONTINUOUS
62
  7
100
AcDbVertex
100
AcDb2dVertex
10
213.660000000000
20
447.800000000000
30
0.0
0
VERTEX
5
55a
100
AcDbEntity
8
0-0
6
CONTINUOUS
62
  7
100
AcDbVertex
100
AcDb2dVertex
10
213.660000000000
20
472.800000000000
30
0.0
0
VERTEX
5
55b
100
AcDbEntity
8
0-0
6
CONTINUOUS
62
  7
100
AcDbVertex
100
AcDb2dVertex
10
330.950000000000
20
472.800000000000
30
0.0
0
SEQEND
5
55c
100
AcDbEntity
8
0-0
0
LINE
5
55d
100
AcDbEntity
8
0-0
6
CONTINUOUS
62
7
100
AcDbLine
10
330.950000000000
20
447.800000000000
30
0.0
11
330.950000000000
21
472.800000000000
31
0.0
0
LINE
5
55e
100
AcDbEntity
8
0-0
6
CONTINUOUS
62
7
100
AcDbLine
10
277.130000000000
20
458.300000000000
30
0.0
11
320.440000000000
21
458.300000000000
31
0.0
0
LINE
5
55f
100
AcDbEntity
8
0-0
6
CONTINUOUS
62
7
100
AcDbLine
10
320.440000000000
20
447.800000000000
30
0.0
11
320.440000000000
21
458.300000000000
31
0.0
0
LINE
5
560
100
AcDbEntity
8
0-0
6
CONTINUOUS
62
7
100
AcDbLine
10
223.730000000000
20
458.300000000000
30
0.0
11
254.960000000000
21
458.300000000000
31
0.0
0
LINE
5
561
100
AcDbEntity
8
0-0
6
CONTINUOUS
62
7
100
AcDbLine
10
223.730000000000
20
447.800000000000
30
0.0
11
223.730000000000
21
458.300000000000
31
0.0
0
LINE
5
562
100
AcDbEntity
8
0-0
6
CONTINUOUS
62
7
100
AcDbLine
10
343.600000000000
20
445.280000000000
30
0.0
11
363.600000000000
21
445.280000000000
31
0.0
0
LINE
5
563
100
AcDbEntity
8
0-0
6
CONTINUOUS
62
7
100
AcDbLine
10
363.600000000000
20
406.460000000000
30
0.0
11
363.600000000000
21
445.280000000000
31
0.0
0
LINE
5
564
100
AcDbEntity
8
0-0
6
CONTINUOUS
62
7
100
AcDbLine
10
343.600000000000
20
406.460000000000
30
0.0
11
363.600000000000
21
406.460000000000
31
0.0
0
LINE
5
565
100
AcDbEntity
8
0-0
6
CONTINUOUS
62
7
100
AcDbLine
10
254.960000000000
20
451.280000000000
30
0.0
11
254.960000000000
21
458.300000000000
31
0.0
0
LINE
5
566
100
AcDbEntity
8
0-0
6
CONTINUOUS
62
7
100
AcDbLine
10
277.130000000000
20
451.280000000000
30
0.0
11
277.130000000000
21
458.300000000000
31
0.0
0
LINE
5
567
100
AcDbEntity
8
F-F
6
CONTINUOUS
62
2
100
AcDbLine
10
27.380000000000
20
306.630000000000
30
0.0
11
815.820000000000
21
306.630000000000
31
0.0
0
LINE
5
568
100
AcDbEntity
8
1-5
6
CONTINUOUS
62
3
100
AcDbLine
10
234.740000000000
20
110.960000000000
30
0.0
11
584.740000000000
21
110.960000000000
31
0.0
0
LINE
5
569
100
AcDbEntity
8
1-5
6
CONTINUOUS
62
7
100
AcDbLine
10
234.740000000000
20
240.950000000000
30
0.0
11
284.740000000000
21
240.950000000000
31
0.0
0
LINE
5
56a
100
AcDbEntity
8
1-5
6
CONTINUOUS
62
7
100
AcDbLine
10
234.740000000000
20
240.950000000000
30
0.0
11
239.570000000000
21
242.240000000000
31
0.0
0
LINE
5
56b
100
AcDbEntity
8
1-5
6
CONTINUOUS
62
7
100
AcDbLine
10
234.740000000000
20
240.950000000000
30
0.0
11
239.570000000000
21
239.650000000000
31
0.0
0
LINE
5
56c
100
AcDbEntity
8
1-5
6
CONTINUOUS
62
7
100
AcDbLine
10
284.740000000000
20
240.950000000000
30
0.0
11
534.740000000000
21
240.950000000000
31
0.0
0
LINE
5
56d
100
AcDbEntity
8
1-5
6
CONTINUOUS
62
7
100
AcDbLine
10
584.740000000000
20
240.950000000000
30
0.0
11
534.740000000000
21
240.950000000000
31
0.0
0
LINE
5
56e
100
AcDbEntity
8
1-5
6
CONTINUOUS
62
7
100
AcDbLine
10
584.740000000000
20
240.950000000000
30
0.0
11
579.910000000000
21
242.240000000000
31
0.0
0
LINE
5
56f
100
AcDbEntity
8
1-5
6
CONTINUOUS
62
7
100
AcDbLine
10
584.740000000000
20
240.950000000000
30
0.0
11
579.910000000000
21
239.650000000000
31
0.0
0
LINE
5
570
100
AcDbEntity
8
1-5
6
CENTER2
62
7
100
AcDbLine
10
284.740000000000
20
240.950000000000
30
0.0
11
284.740000000000
21
202.950000000000
31
0.0
0
LINE
5
571
100
AcDbEntity
8
1-5
6
CENTER2
62
7
100
AcDbLine
10
534.740000000000
20
240.950000000000
30
0.0
11
534.740000000000
21
202.950000000000
31
0.0
0
LINE
5
572
100
AcDbEntity
8
1-5
6
CONTINUOUS
62
7
100
AcDbLine
10
289.170000000000
20
203.120000000000
30
0.0
11
290.240000000000
21
207.120000000000
31
0.0
0
LINE
5
573
100
AcDbEntity
8
1-5
6
CONTINUOUS
62
7
100
AcDbLine
10
289.170000000000
20
203.120000000000
30
0.0
11
292.090000000000
21
206.040000000000
31
0.0
0
LINE
5
574
100
AcDbEntity
8
1-5
6
CONTINUOUS
62
7
100
AcDbLine
10
320.940000000000
20
170.840000000000
30
0.0
11
323.080000000000
21
178.840000000000
31
0.0
0
LINE
5
575
100
AcDbEntity
8
1-5
6
CONTINUOUS
62
7
100
AcDbLine
10
320.940000000000
20
170.840000000000
30
0.0
11
326.790000000000
21
176.690000000000
31
0.0
0
LINE
5
576
100
AcDbEntity
8
1-5
6
CONTINUOUS
62
7
100
AcDbLine
10
277.090000000000
20
208.760000000000
30
0.0
11
277.760000000000
21
208.090000000000
31
0.0
0
POLYLINE
5
577
100
AcDbEntity
8
1-5
6
CONTINUOUS
62
  7
100
AcDb2dPolyline
66
1
10
0.0
20
0.0
30
0.0
70
0
0
VERTEX
5
578
100
AcDbEntity
8
1-5
6
CONTINUOUS
62
  7
100
AcDbVertex
100
AcDb2dVertex
10
276.740000000000
20
208.400000000000
30
0.0
0
VERTEX
5
579
100
AcDbEntity
8
1-5
6
CONTINUOUS
62
  7
100
AcDbVertex
100
AcDb2dVertex
10
277.410000000000
20
207.730000000000
30
0.0
0
VERTEX
5
57a
100
AcDbEntity
8
1-5
6
CONTINUOUS
62
  7
100
AcDbVertex
100
AcDb2dVertex
10
277.760000000000
20
208.090000000000
30
0.0
0
SEQEND
5
57b
100
AcDbEntity
8
1-5
0
LINE
5
57c
100
AcDbEntity
8
1-5
6
CONTINUOUS
62
7
100
AcDbLine
10
280.070000000000
20
208.610000000000
30
0.0
11
278.190000000000
21
208.610000000000
31
0.0
0
POLYLINE
5
57d
100
AcDbEntity
8
1-5
6
CONTINUOUS
62
  7
100
AcDb2dPolyline
66
1
10
0.0
20
0.0
30
0.0
70
0
0
VERTEX
5
57e
100
AcDbEntity
8
1-5
6
CONTINUOUS
62
  7
100
AcDbVertex
100
AcDb2dVertex
10
280.070000000000
20
208.610000000000
30
0.0
0
VERTEX
5
57f
100
AcDbEntity
8
1-5
6
CONTINUOUS
62
  7
100
AcDbVertex
100
AcDb2dVertex
10
280.070000000000
20
208.110000000000
30
0.0
0
VERTEX
5
580
100
AcDbEntity
8
1-5
6
CONTINUOUS
62
  7
100
AcDbVertex
100
AcDb2dVertex
10
278.190000000000
20
208.110000000000
30
0.0
0
SEQEND
5
581
100
AcDbEntity
8
1-5
0
LINE
5
582
100
AcDbEntity
8
1-5
6
CONTINUOUS
62
7
100
AcDbLine
10
283.990000000000
20
210.110000000000
30
0.0
11
277.440000000000
21
210.110000000000
31
0.0
0
LINE
5
583
100
AcDbEntity
8
1-5
6
CONTINUOUS
62
7
100
AcDbLine
10
283.990000000000
20
209.610000000000
30
0.0
11
277.440000000000
21
209.610000000000
31
0.0
0
LINE
5
584
100
AcDbEntity
8
1-5
6
CONTINUOUS
62
7
100
AcDbLine
10
283.260000000000
20
202.460000000000
30
0.0
11
283.100000000000
21
202.150000000000
31
0.0
0
LINE
5
585
100
AcDbEntity
8
1-5
6
CONTINUOUS
62
7
100
AcDbLine
10
282.820000000000
20
202.690000000000
30
0.0
11
282.640000000000
21
202.340000000000
31
0.0
0
LINE
5
586
100
AcDbEntity
8
1-5
6
CONTINUOUS
62
7
100
AcDbLine
10
283.100000000000
20
202.150000000000
30
0.0
11
282.640000000000
21
202.340000000000
31
0.0
0
LINE
5
587
100
AcDbEntity
8
1-5
6
CONTINUOUS
62
7
100
AcDbLine
10
283.240000000000
20
208.860000000000
30
0.0
11
278.190000000000
21
208.860000000000
31
0.0
0
LINE
5
588
100
AcDbEntity
8
1-5
6
CONTINUOUS
62
7
100
AcDbLine
10
284.740000000000
20
210.460000000000
30
0.0
11
277.440000000000
21
210.460000000000
31
0.0
0
LINE
5
589
100
AcDbEntity
8
1-5
6
CONTINUOUS
62
7
100
AcDbLine
10
283.240000000000
20
209.360000000000
30
0.0
11
278.190000000000
21
209.360000000000
31
0.0
0
LINE
5
58a
100
AcDbEntity
8
1-5
6
CONTINUOUS
62
7
100
AcDbLine
10
284.740000000000
20
210.960000000000
30
0.0
11
277.440000000000
21
210.960000000000
31
0.0
0
LINE
5
58b
100
AcDbEntity
8
1-5
6
CONTINUOUS
62
7
100
AcDbLine
10
282.410000000000
20
205.160000000000
30
0.0
11
276.830000000000
21
207.910000000000
31
0.0
0
LINE
5
58c
100
AcDbEntity
8
1-5
6
CONTINUOUS
62
7
100
AcDbLine
10
282.190000000000
20
204.710000000000
30
0.0
11
276.610000000000
21
207.460000000000
31
0.0
0
LINE
5
58d
100
AcDbEntity
8
1-5
6
CONTINUOUS
62
7
100
AcDbLine
10
285.740000000000
20
200.460000000000
30
0.0
11
285.740000000000
21
209.960000000000
31
0.0
0
LINE
5
58e
100
AcDbEntity
8
1-5
6
CONTINUOUS
62
7
100
AcDbLine
10
286.240000000000
20
199.960000000000
30
0.0
11
301.460000000000
21
199.960000000000
31
0.0
0
LINE
5
58f
100
AcDbEntity
8
1-5
6
CONTINUOUS
62
7
100
AcDbLine
10
301.460000000000
20
199.460000000000
30
0.0
11
286.240000000000
21
199.460000000000
31
0.0
0
LINE
5
590
100
AcDbEntity
8
1-5
6
CONTINUOUS
62
7
100
AcDbLine
10
283.740000000000
20
200.460000000000
30
0.0
11
283.740000000000
21
208.360000000000
31
0.0
0
LINE
5
591
100
AcDbEntity
8
1-5
6
CONTINUOUS
62
7
100
AcDbLine
10
284.240000000000
20
208.360000000000
30
0.0
11
284.240000000000
21
200.460000000000
31
0.0
0
LINE
5
592
100
AcDbEntity
8
1-5
6
CONTINUOUS
62
7
100
AcDbLine
10
353.860000000000
20
120.190000000000
30
0.0
11
302.300000000000
21
199.500000000000
31
0.0
0
LINE
5
593
100
AcDbEntity
8
1-5
6
CONTINUOUS
62
7
100
AcDbLine
10
301.880000000000
20
199.230000000000
30
0.0
11
353.440000000000
21
119.910000000000
31
0.0
0
LINE
5
594
100
AcDbEntity
8
1-5
6
CONTINUOUS
62
7
100
AcDbLine
10
283.240000000000
20
199.960000000000
30
0.0
11
264.530000000000
21
199.960000000000
31
0.0
0
LINE
5
595
100
AcDbEntity
8
1-5
6
CONTINUOUS
62
7
100
AcDbLine
10
283.240000000000
20
199.460000000000
30
0.0
11
264.530000000000
21
199.460000000000
31
0.0
0
LINE
5
596
100
AcDbEntity
8
1-5
6
CONTINUOUS
62
7
100
AcDbLine
10
379.530000000000
20
119.960000000000
30
0.0
11
354.280000000000
21
119.960000000000
31
0.0
0
LINE
5
597
100
AcDbEntity
8
1-5
6
CONTINUOUS
62
7
100
AcDbLine
10
379.880000000000
20
120.110000000000
30
0.0
11
380.940000000000
21
121.170000000000
31
0.0
0
LINE
5
598
100
AcDbEntity
8
1-5
6
CONTINUOUS
62
7
100
AcDbLine
10
381.300000000000
20
120.810000000000
30
0.0
11
380.240000000000
21
119.750000000000
31
0.0
0
LINE
5
599
100
AcDbEntity
8
1-5
6
CONTINUOUS
62
7
100
AcDbLine
10
354.280000000000
20
119.460000000000
30
0.0
11
379.530000000000
21
119.460000000000
31
0.0
0
LINE
5
59a
100
AcDbEntity
8
1-5
6
CONTINUOUS
62
7
100
AcDbLine
10
411.240000000000
20
121.460000000000
30
0.0
11
381.650000000000
21
121.460000000000
31
0.0
0
LINE
5
59b
100
AcDbEntity
8
1-5
6
CONTINUOUS
62
7
100
AcDbLine
10
381.650000000000
20
120.960000000000
30
0.0
11
411.240000000000
21
120.960000000000
31
0.0
0
LINE
5
59c
100
AcDbEntity
8
1-5
6
CONTINUOUS
62
7
100
AcDbLine
10
289.910000000000
20
194.370000000000
30
0.0
11
298.440000000000
21
194.370000000000
31
0.0
0
POLYLINE
5
59d
100
AcDbEntity
8
1-5
6
CONTINUOUS
62
  7
100
AcDb2dPolyline
66
1
10
0.0
20
0.0
30
0.0
70
0
0
VERTEX
5
59e
100
AcDbEntity
8
1-5
6
CONTINUOUS
62
  7
100
AcDbVertex
100
AcDb2dVertex
10
288.760000000000
20
194.060000000000
30
0.0
0
VERTEX
5
59f
100
AcDbEntity
8
1-5
6
CONTINUOUS
62
  7
100
AcDbVertex
100
AcDb2dVertex
10
291.050000000000
20
194.060000000000
30
0.0
0
VERTEX
5
5a0
100
AcDbEntity
8
1-5
6
CONTINUOUS
62
  7
100
AcDbVertex
100
AcDb2dVertex
10
297.300000000000
20
194.060000000000
30
0.0
0
VERTEX
5
5a1
100
AcDbEntity
8
1-5
6
CONTINUOUS
62
  7
100
AcDbVertex
100
AcDb2dVertex
10
299.590000000000
20
194.060000000000
30
0.0
0
VERTEX
5
5a2
100
AcDbEntity
8
1-5
6
CONTINUOUS
62
  7
100
AcDbVertex
100
AcDb2dVertex
10
299.590000000000
20
190.470000000000
30
0.0
0
VERTEX
5
5a3
100
AcDbEntity
8
1-5
6
CONTINUOUS
62
  7
100
AcDbVertex
100
AcDb2dVertex
10
294.180000000000
20
190.470000000000
30
0.0
0
VERTEX
5
5a4
100
AcDbEntity
8
1-5
6
CONTINUOUS
62
  7
100
AcDbVertex
100
AcDb2dVertex
10
288.760000000000
20
190.470000000000
30
0.0
0
VERTEX
5
5a5
100
AcDbEntity
8
1-5
6
CONTINUOUS
62
  7
100
AcDbVertex
100
AcDb2dVertex
10
288.760000000000
20
194.060000000000
30
0.0
0
SEQEND
5
5a6
100
AcDbEntity
8
1-5
0
POLYLINE
5
5a7
100
AcDbEntity
8
1-5
6
CONTINUOUS
62
  7
100
AcDb2dPolyline
66
1
10
0.0
20
0.0
30
0.0
70
0
0
VERTEX
5
5a8
100
AcDbEntity
8
1-5
6
CONTINUOUS
62
  7
100
AcDbVertex
100
AcDb2dVertex
10
291.050000000000
20
194.370000000000
30
0.0
0
VERTEX
5
5a9
100
AcDbEntity
8
1-5
6
CONTINUOUS
62
  7
100
AcDbVertex
100
AcDb2dVertex
10
291.050000000000
20
195.960000000000
30
0.0
0
VERTEX
5
5aa
100
AcDbEntity
8
1-5
6
CONTINUOUS
62
  7
100
AcDbVertex
100
AcDb2dVertex
10
291.960000000000
20
196.870000000000
30
0.0
0
VERTEX
5
5ab
100
AcDbEntity
8
1-5
6
CONTINUOUS
62
  7
100
AcDbVertex
100
AcDb2dVertex
10
296.390000000000
20
196.870000000000
30
0.0
0
VERTEX
5
5ac
100
AcDbEntity
8
1-5
6
CONTINUOUS
62
  7
100
AcDbVertex
100
AcDb2dVertex
10
297.300000000000
20
195.960000000000
30
0.0
0
VERTEX
5
5ad
100
AcDbEntity
8
1-5
6
CONTINUOUS
62
  7
100
AcDbVertex
100
AcDb2dVertex
10
297.300000000000
20
194.370000000000
30
0.0
0
SEQEND
5
5ae
100
AcDbEntity
8
1-5
0
LINE
5
5af
100
AcDbEntity
8
1-5
6
CONTINUOUS
62
7
100
AcDbLine
10
297.300000000000
20
194.060000000000
30
0.0
11
297.300000000000
21
190.470000000000
31
0.0
0
LINE
5
5b0
100
AcDbEntity
8
1-5
6
CONTINUOUS
62
7
100
AcDbLine
10
291.050000000000
20
190.470000000000
30
0.0
11
291.050000000000
21
194.060000000000
31
0.0
0
LINE
5
5b1
100
AcDbEntity
8
1-5
6
CONTINUOUS
62
7
100
AcDbLine
10
305.230000000000
20
188.580000000000
30
0.0
11
304.860000000000
21
189.150000000000
31
0.0
0
LINE
5
5b2
100
AcDbEntity
8
1-5
6
CONTINUOUS
62
3
100
AcDbLine
10
303.130000000000
20
189.720000000000
30
0.0
11
284.240000000000
21
189.720000000000
31
0.0
0
LINE
5
5b3
100
AcDbEntity
8
1-5
6
CONTINUOUS
62
7
100
AcDbLine
10
284.990000000000
20
190.840000000000
30
0.0
11
284.990000000000
21
209.110000000000
31
0.0
0
LINE
5
5b4
100
AcDbEntity
8
1-5
6
CONTINUOUS
62
7
100
AcDbLine
10
285.490000000000
20
190.340000000000
30
0.0
11
303.130000000000
21
190.340000000000
31
0.0
0
LINE
5
5b5
100
AcDbEntity
8
1-5
6
CONTINUOUS
62
7
100
AcDbLine
10
303.130000000000
20
189.840000000000
30
0.0
11
285.490000000000
21
189.840000000000
31
0.0
0
LINE
5
5b6
100
AcDbEntity
8
1-5
6
CONTINUOUS
62
7
100
AcDbLine
10
284.490000000000
20
209.110000000000
30
0.0
11
284.490000000000
21
190.840000000000
31
0.0
0
LINE
5
5b7
100
AcDbEntity
8
1-5
6
CONTINUOUS
62
3
100
AcDbLine
10
284.240000000000
20
188.470000000000
30
0.0
11
303.130000000000
21
188.470000000000
31
0.0
0
LINE
5
5b8
100
AcDbEntity
8
1-5
6
CONTINUOUS
62
3
100
AcDbLine
10
284.240000000000
20
198.080000000000
30
0.0
11
284.240000000000
21
189.720000000000
31
0.0
0
LINE
5
5b9
100
AcDbEntity
8
1-5
6
CONTINUOUS
62
3
100
AcDbLine
10
282.990000000000
20
189.720000000000
30
0.0
11
282.990000000000
21
198.080000000000
31
0.0
0
LINE
5
5ba
100
AcDbEntity
8
1-5
6
CONTINUOUS
62
7
100
AcDbLine
10
307.010000000000
20
186.760000000000
30
0.0
11
306.590000000000
21
186.490000000000
31
0.0
0
LINE
5
5bb
100
AcDbEntity
8
1-5
6
CONTINUOUS
62
3
100
AcDbLine
10
265.270000000000
20
199.330000000000
30
0.0
11
282.990000000000
21
199.330000000000
31
0.0
0
LINE
5
5bc
100
AcDbEntity
8
1-5
6
CONTINUOUS
62
3
100
AcDbLine
10
282.990000000000
20
198.080000000000
30
0.0
11
265.270000000000
21
198.080000000000
31
0.0
0
LINE
5
5bd
100
AcDbEntity
8
1-5
6
CONTINUOUS
62
7
100
AcDbLine
10
354.280000000000
20
116.960000000000
30
0.0
11
379.530000000000
21
116.960000000000
31
0.0
0
LINE
5
5be
100
AcDbEntity
8
1-5
6
CONTINUOUS
62
7
100
AcDbLine
10
382.480000000000
20
118.460000000000
30
0.0
11
411.240000000000
21
118.460000000000
31
0.0
0
LINE
5
5bf
100
AcDbEntity
8
1-5
6
CONTINUOUS
62
7
100
AcDbLine
10
382.480000000000
20
118.460000000000
30
0.0
11
382.000000000000
21
117.980000000000
31
0.0
0
LINE
5
5c0
100
AcDbEntity
8
1-5
6
CONTINUOUS
62
7
100
AcDbLine
10
300.380000000000
20
196.960000000000
30
0.0
11
286.240000000000
21
196.960000000000
31
0.0
0
LINE
5
5c1
100
AcDbEntity
8
1-5
6
CONTINUOUS
62
7
100
AcDbLine
10
300.380000000000
20
196.960000000000
30
0.0
11
351.340000000000
21
118.550000000000
31
0.0
0
LINE
5
5c2
100
AcDbEntity
8
1-5
6
CONTINUOUS
62
7
100
AcDbLine
10
527.090000000000
20
208.760000000000
30
0.0
11
527.760000000000
21
208.090000000000
31
0.0
0
POLYLINE
5
5c3
100
AcDbEntity
8
1-5
6
CONTINUOUS
62
  7
100
AcDb2dPolyline
66
1
10
0.0
20
0.0
30
0.0
70
0
0
VERTEX
5
5c4
100
AcDbEntity
8
1-5
6
CONTINUOUS
62
  7
100
AcDbVertex
100
AcDb2dVertex
10
526.740000000000
20
208.400000000000
30
0.0
0
VERTEX
5
5c5
100
AcDbEntity
8
1-5
6
CONTINUOUS
62
  7
100
AcDbVertex
100
AcDb2dVertex
10
527.410000000000
20
207.730000000000
30
0.0
0
VERTEX
5
5c6
100
AcDbEntity
8
1-5
6
CONTINUOUS
62
  7
100
AcDbVertex
100
AcDb2dVertex
10
527.760000000000
20
208.090000000000
30
0.0
0
SEQEND
5
5c7
100
AcDbEntity
8
1-5
0
LINE
5
5c8
100
AcDbEntity
8
1-5
6
CONTINUOUS
62
7
100
AcDbLine
10
530.070000000000
20
208.610000000000
30
0.0
11
528.190000000000
21
208.610000000000
31
0.0
0
POLYLINE
5
5c9
100
AcDbEntity
8
1-5
6
CONTINUOUS
62
  7
100
AcDb2dPolyline
66
1
10
0.0
20
0.0
30
0.0
70
0
0
VERTEX
5
5ca
100
AcDbEntity
8
1-5
6
CONTINUOUS
62
  7
100
AcDbVertex
100
AcDb2dVertex
10
530.070000000000
20
208.610000000000
30
0.0
0
VERTEX
5
5cb
100
AcDbEntity
8
1-5
6
CONTINUOUS
62
  7
100
AcDbVertex
100
AcDb2dVertex
10
530.070000000000
20
208.110000000000
30
0.0
0
VERTEX
5
5cc
100
AcDbEntity
8
1-5
6
CONTINUOUS
62
  7
100
AcDbVertex
100
AcDb2dVertex
10
528.190000000000
20
208.110000000000
30
0.0
0
SEQEND
5
5cd
100
AcDbEntity
8
1-5
0
LINE
5
5ce
100
AcDbEntity
8
1-5
6
CONTINUOUS
62
7
100
AcDbLine
10
533.990000000000
20
210.110000000000
30
0.0
11
527.440000000000
21
210.110000000000
31
0.0
0
LINE
5
5cf
100
AcDbEntity
8
1-5
6
CONTINUOUS
62
7
100
AcDbLine
10
533.990000000000
20
209.610000000000
30
0.0
11
527.440000000000
21
209.610000000000
31
0.0
0
LINE
5
5d0
100
AcDbEntity
8
1-5
6
CONTINUOUS
62
7
100
AcDbLine
10
533.260000000000
20
202.460000000000
30
0.0
11
533.100000000000
21
202.150000000000
31
0.0
0
LINE
5
5d1
100
AcDbEntity
8
1-5
6
CONTINUOUS
62
7
100
AcDbLine
10
532.820000000000
20
202.690000000000
30
0.0
11
532.640000000000
21
202.340000000000
31
0.0
0
LINE
5
5d2
100
AcDbEntity
8
1-5
6
CONTINUOUS
62
7
100
AcDbLine
10
533.100000000000
20
202.150000000000
30
0.0
11
532.640000000000
21
202.340000000000
31
0.0
0
LINE
5
5d3
100
AcDbEntity
8
1-5
6
CONTINUOUS
62
7
100
AcDbLine
10
533.240000000000
20
208.860000000000
30
0.0
11
528.190000000000
21
208.860000000000
31
0.0
0
LINE
5
5d4
100
AcDbEntity
8
1-5
6
CONTINUOUS
62
7
100
AcDbLine
10
534.740000000000
20
210.460000000000
30
0.0
11
527.440000000000
21
210.460000000000
31
0.0
0
LINE
5
5d5
100
AcDbEntity
8
1-5
6
CONTINUOUS
62
7
100
AcDbLine
10
533.240000000000
20
209.360000000000
30
0.0
11
528.190000000000
21
209.360000000000
31
0.0
0
LINE
5
5d6
100
AcDbEntity
8
1-5
6
CONTINUOUS
62
7
100
AcDbLine
10
534.740000000000
20
210.960000000000
30
0.0
11
527.440000000000
21
210.960000000000
31
0.0
0
LINE
5
5d7
100
AcDbEntity
8
1-5
6
CONTINUOUS
62
7
100
AcDbLine
10
532.410000000000
20
205.160000000000
30
0.0
11
526.830000000000
21
207.910000000000
31
0.0
0
LINE
5
5d8
100
AcDbEntity
8
1-5
6
CONTINUOUS
62
7
100
AcDbLine
10
532.190000000000
20
204.710000000000
30
0.0
11
526.610000000000
21
207.460000000000
31
0.0
0
LINE
5
5d9
100
AcDbEntity
8
1-5
6
CONTINUOUS
62
7
100
AcDbLine
10
535.740000000000
20
200.460000000000
30
0.0
11
535.740000000000
21
209.960000000000
31
0.0
0
LINE
5
5da
100
AcDbEntity
8
1-5
6
CONTINUOUS
62
7
100
AcDbLine
10
536.240000000000
20
199.960000000000
30
0.0
11
551.460000000000
21
199.960000000000
31
0.0
0
LINE
5
5db
100
AcDbEntity
8
1-5
6
CONTINUOUS
62
7
100
AcDbLine
10
551.460000000000
20
199.460000000000
30
0.0
11
536.240000000000
21
199.460000000000
31
0.0
0
LINE
5
5dc
100
AcDbEntity
8
1-5
6
CONTINUOUS
62
7
100
AcDbLine
10
535.240000000000
20
209.960000000000
30
0.0
11
535.240000000000
21
200.460000000000
31
0.0
0
LINE
5
5dd
100
AcDbEntity
8
1-5
6
CONTINUOUS
62
7
100
AcDbLine
10
533.740000000000
20
200.460000000000
30
0.0
11
533.740000000000
21
208.360000000000
31
0.0
0
LINE
5
5de
100
AcDbEntity
8
1-5
6
CONTINUOUS
62
7
100
AcDbLine
10
534.240000000000
20
208.360000000000
30
0.0
11
534.240000000000
21
200.460000000000
31
0.0
0
LINE
5
5df
100
AcDbEntity
8
1-5
6
CONTINUOUS
62
7
100
AcDbLine
10
514.090000000000
20
199.210000000000
30
0.0
11
469.020000000000
21
119.970000000000
31
0.0
0
LINE
5
5e0
100
AcDbEntity
8
1-5
6
CONTINUOUS
62
7
100
AcDbLine
10
533.240000000000
20
199.960000000000
30
0.0
11
514.530000000000
21
199.960000000000
31
0.0
0
LINE
5
5e1
100
AcDbEntity
8
1-5
6
CONTINUOUS
62
7
100
AcDbLine
10
533.240000000000
20
199.460000000000
30
0.0
11
514.530000000000
21
199.460000000000
31
0.0
0
LINE
5
5e2
100
AcDbEntity
8
1-5
6
CONTINUOUS
62
7
100
AcDbLine
10
555.230000000000
20
188.580000000000
30
0.0
11
554.860000000000
21
189.150000000000
31
0.0
0
LINE
5
5e3
100
AcDbEntity
8
1-5
6
CONTINUOUS
62
3
100
AcDbLine
10
553.130000000000
20
189.720000000000
30
0.0
11
534.240000000000
21
189.720000000000
31
0.0
0
LINE
5
5e4
100
AcDbEntity
8
1-5
6
CONTINUOUS
62
7
100
AcDbLine
10
534.990000000000
20
190.840000000000
30
0.0
11
534.990000000000
21
209.110000000000
31
0.0
0
LINE
5
5e5
100
AcDbEntity
8
1-5
6
CONTINUOUS
62
7
100
AcDbLine
10
535.490000000000
20
190.340000000000
30
0.0
11
553.130000000000
21
190.340000000000
31
0.0
0
LINE
5
5e6
100
AcDbEntity
8
1-5
6
CONTINUOUS
62
7
100
AcDbLine
10
553.130000000000
20
189.840000000000
30
0.0
11
535.490000000000
21
189.840000000000
31
0.0
0
LINE
5
5e7
100
AcDbEntity
8
1-5
6
CONTINUOUS
62
7
100
AcDbLine
10
534.490000000000
20
209.110000000000
30
0.0
11
534.490000000000
21
190.840000000000
31
0.0
0
LINE
5
5e8
100
AcDbEntity
8
1-5
6
CONTINUOUS
62
3
100
AcDbLine
10
534.240000000000
20
188.470000000000
30
0.0
11
553.130000000000
21
188.470000000000
31
0.0
0
LINE
5
5e9
100
AcDbEntity
8
1-5
6
CONTINUOUS
62
3
100
AcDbLine
10
534.240000000000
20
198.080000000000
30
0.0
11
534.240000000000
21
189.720000000000
31
0.0
0
LINE
5
5ea
100
AcDbEntity
8
1-5
6
CONTINUOUS
62
3
100
AcDbLine
10
532.990000000000
20
189.720000000000
30
0.0
11
532.990000000000
21
198.080000000000
31
0.0
0
LINE
5
5eb
100
AcDbEntity
8
1-5
6
CONTINUOUS
62
7
100
AcDbLine
10
557.010000000000
20
186.760000000000
30
0.0
11
556.590000000000
21
186.490000000000
31
0.0
0
LINE
5
5ec
100
AcDbEntity
8
1-5
6
CONTINUOUS
62
3
100
AcDbLine
10
515.270000000000
20
199.330000000000
30
0.0
11
532.990000000000
21
199.330000000000
31
0.0
0
LINE
5
5ed
100
AcDbEntity
8
1-5
6
CONTINUOUS
62
3
100
AcDbLine
10
532.990000000000
20
198.080000000000
30
0.0
11
515.270000000000
21
198.080000000000
31
0.0
0
LINE
5
5ee
100
AcDbEntity
8
1-5
6
CONTINUOUS
62
7
100
AcDbLine
10
442.580000000000
20
120.110000000000
30
0.0
11
441.520000000000
21
121.170000000000
31
0.0
0
LINE
5
5ef
100
AcDbEntity
8
1-5
6
CONTINUOUS
62
7
100
AcDbLine
10
441.170000000000
20
120.810000000000
30
0.0
11
442.230000000000
21
119.750000000000
31
0.0
0
LINE
5
5f0
100
AcDbEntity
8
1-5
6
CONTINUOUS
62
7
100
AcDbLine
10
468.180000000000
20
119.460000000000
30
0.0
11
442.930000000000
21
119.460000000000
31
0.0
0
LINE
5
5f1
100
AcDbEntity
8
1-5
6
CONTINUOUS
62
7
100
AcDbLine
10
468.180000000000
20
116.960000000000
30
0.0
11
442.930000000000
21
116.960000000000
31
0.0
0
LINE
5
5f2
100
AcDbEntity
8
1-5
6
CONTINUOUS
62
7
100
AcDbLine
10
411.240000000000
20
121.460000000000
30
0.0
11
440.810000000000
21
121.460000000000
31
0.0
0
LINE
5
5f3
100
AcDbEntity
8
1-5
6
CONTINUOUS
62
7
100
AcDbLine
10
440.810000000000
20
120.960000000000
30
0.0
11
411.240000000000
21
120.960000000000
31
0.0
0
LINE
5
5f4
100
AcDbEntity
8
1-5
6
CONTINUOUS
62
7
100
AcDbLine
10
439.980000000000
20
118.460000000000
30
0.0
11
411.240000000000
21
118.460000000000
31
0.0
0
LINE
5
5f5
100
AcDbEntity
8
1-5
6
CONTINUOUS
62
7
100
AcDbLine
10
439.980000000000
20
118.460000000000
30
0.0
11
440.460000000000
21
117.980000000000
31
0.0
0
LINE
5
5f6
100
AcDbEntity
8
1-5
6
CONTINUOUS
62
7
100
AcDbLine
10
550.380000000000
20
196.960000000000
30
0.0
11
536.240000000000
21
196.960000000000
31
0.0
0
LINE
5
5f7
100
AcDbEntity
8
1-5
6
CONTINUOUS
62
7
100
AcDbLine
10
584.740000000000
20
149.610000000000
30
0.0
11
552.300000000000
21
199.500000000000
31
0.0
0
LINE
5
5f8
100
AcDbEntity
8
1-5
6
CONTINUOUS
62
7
100
AcDbLine
10
551.880000000000
20
199.230000000000
30
0.0
11
584.740000000000
21
148.690000000000
31
0.0
0
LINE
5
5f9
100
AcDbEntity
8
1-5
6
CONTINUOUS
62
7
100
AcDbLine
10
550.380000000000
20
196.960000000000
30
0.0
11
584.740000000000
21
144.100000000000
31
0.0
0
LINE
5
5fa
100
AcDbEntity
8
1-5
6
CONTINUOUS
62
3
100
AcDbLine
10
555.230000000000
20
188.580000000000
30
0.0
11
584.740000000000
21
143.190000000000
31
0.0
0
LINE
5
5fb
100
AcDbEntity
8
1-5
6
CONTINUOUS
62
3
100
AcDbLine
10
584.740000000000
20
140.890000000000
30
0.0
11
554.180000000000
21
187.900000000000
31
0.0
0
LINE
5
5fc
100
AcDbEntity
8
1-5
6
CONTINUOUS
62
3
100
AcDbLine
10
234.740000000000
20
141.280000000000
30
0.0
11
265.270000000000
21
198.080000000000
31
0.0
0
LINE
5
5fd
100
AcDbEntity
8
1-5
6
CONTINUOUS
62
3
100
AcDbLine
10
264.170000000000
20
198.680000000000
30
0.0
11
234.740000000000
21
143.920000000000
31
0.0
0
LINE
5
5fe
100
AcDbEntity
8
1-5
6
CONTINUOUS
62
7
100
AcDbLine
10
264.090000000000
20
199.210000000000
30
0.0
11
234.740000000000
21
147.590000000000
31
0.0
0
LINE
5
5ff
100
AcDbEntity
8
1-5
6
CONTINUOUS
62
7
100
AcDbLine
10
234.740000000000
20
148.600000000000
30
0.0
11
263.660000000000
21
199.450000000000
31
0.0
0
LINE
5
600
100
AcDbEntity
8
1-5
6
CONTINUOUS
62
7
100
AcDbLine
10
331.460000000000
20
119.960000000000
30
0.0
11
343.680000000000
21
119.960000000000
31
0.0
0
LINE
5
601
100
AcDbEntity
8
1-5
6
CONTINUOUS
62
7
100
AcDbLine
10
285.240000000000
20
209.960000000000
30
0.0
11
285.240000000000
21
200.460000000000
31
0.0
0
POLYLINE
5
602
100
AcDbEntity
8
1-5
6
CONTINUOUS
62
  7
100
AcDb2dPolyline
66
1
10
0.0
20
0.0
30
0.0
70
0
0
VERTEX
5
603
100
AcDbEntity
8
1-5
6
CONTINUOUS
62
  7
100
AcDbVertex
100
AcDb2dVertex
10
499.740000000000
20
200.010000000000
30
0.0
0
VERTEX
5
604
100
AcDbEntity
8
1-5
6
CONTINUOUS
62
  7
100
AcDbVertex
100
AcDb2dVertex
10
451.570000000000
20
200.010000000000
30
0.0
0
VERTEX
5
605
100
AcDbEntity
8
1-5
6
CONTINUOUS
62
  7
100
AcDbVertex
100
AcDb2dVertex
10
451.570000000000
20
120.010000000000
30
0.0
0
SEQEND
5
606
100
AcDbEntity
8
1-5
0
LINE
5
607
100
AcDbEntity
8
1-5
6
CONTINUOUS
62
7
100
AcDbLine
10
468.150000000000
20
119.960000000000
30
0.0
11
442.930000000000
21
119.960000000000
31
0.0
0
LINE
5
608
100
AcDbEntity
8
1-5
6
CONTINUOUS
62
7
100
AcDbLine
10
468.590000000000
20
120.210000000000
30
0.0
11
513.660000000000
21
199.450000000000
31
0.0
0
LINE
5
609
100
AcDbEntity
8
1-5
6
CONTINUOUS
62
4
100
AcDbLine
10
467.580000000000
20
116.960000000000
30
0.0
11
473.340000000000
21
122.720000000000
31
0.0
0
LINE
5
60a
100
AcDbEntity
8
1-5
6
CONTINUOUS
62
4
100
AcDbLine
10
464.050000000000
20
116.960000000000
30
0.0
11
466.550000000000
21
119.460000000000
31
0.0
0
LINE
5
60b
100
AcDbEntity
8
1-5
6
CONTINUOUS
62
4
100
AcDbLine
10
471.620000000000
20
124.530000000000
30
0.0
11
477.450000000000
21
130.360000000000
31
0.0
0
LINE
5
60c
100
AcDbEntity
8
1-5
6
CONTINUOUS
62
4
100
AcDbLine
10
460.510000000000
20
116.960000000000
30
0.0
11
463.010000000000
21
119.460000000000
31
0.0
0
LINE
5
60d
100
AcDbEntity
8
1-5
6
CONTINUOUS
62
4
100
AcDbLine
10
476.280000000000
20
132.730000000000
30
0.0
11
481.560000000000
21
138.010000000000
31
0.0
0
LINE
5
60e
100
AcDbEntity
8
1-5
6
CONTINUOUS
62
4
100
AcDbLine
10
456.980000000000
20
116.960000000000
30
0.0
11
459.480000000000
21
119.460000000000
31
0.0
0
LINE
5
60f
100
AcDbEntity
8
1-5
6
CONTINUOUS
62
4
100
AcDbLine
10
480.950000000000
20
140.930000000000
30
0.0
11
485.670000000000
21
145.650000000000
31
0.0
0
LINE
5
610
100
AcDbEntity
8
1-5
6
CONTINUOUS
62
4
100
AcDbLine
10
453.440000000000
20
116.960000000000
30
0.0
11
455.940000000000
21
119.460000000000
31
0.0
0
LINE
5
611
100
AcDbEntity
8
1-5
6
CONTINUOUS
62
4
100
AcDbLine
10
485.610000000000
20
149.130000000000
30
0.0
11
489.780000000000
21
153.300000000000
31
0.0
0
LINE
5
612
100
AcDbEntity
8
1-5
6
CONTINUOUS
62
4
100
AcDbLine
10
449.910000000000
20
116.960000000000
30
0.0
11
452.410000000000
21
119.460000000000
31
0.0
0
LINE
5
613
100
AcDbEntity
8
1-5
6
CONTINUOUS
62
4
100
AcDbLine
10
490.270000000000
20
157.330000000000
30
0.0
11
493.890000000000
21
160.940000000000
31
0.0
0
LINE
5
614
100
AcDbEntity
8
1-5
6
CONTINUOUS
62
4
100
AcDbLine
10
446.370000000000
20
116.960000000000
30
0.0
11
448.870000000000
21
119.460000000000
31
0.0
0
LINE
5
615
100
AcDbEntity
8
1-5
6
CONTINUOUS
62
4
100
AcDbLine
10
494.930000000000
20
165.520000000000
30
0.0
11
498.000000000000
21
168.590000000000
31
0.0
0
LINE
5
616
100
AcDbEntity
8
1-5
6
CONTINUOUS
62
4
100
AcDbLine
10
442.840000000000
20
116.960000000000
30
0.0
11
445.330000000000
21
119.460000000000
31
0.0
0
LINE
5
617
100
AcDbEntity
8
1-5
6
CONTINUOUS
62
4
100
AcDbLine
10
499.600000000000
20
173.720000000000
30
0.0
11
502.110000000000
21
176.230000000000
31
0.0
0
LINE
5
618
100
AcDbEntity
8
1-5
6
CONTINUOUS
62
4
100
AcDbLine
10
440.390000000000
20
118.050000000000
30
0.0
11
442.160000000000
21
119.820000000000
31
0.0
0
LINE
5
619
100
AcDbEntity
8
1-5
6
CONTINUOUS
62
4
100
AcDbLine
10
504.260000000000
20
181.920000000000
30
0.0
11
506.220000000000
21
183.880000000000
31
0.0
0
LINE
5
61a
100
AcDbEntity
8
1-5
6
CONTINUOUS
62
4
100
AcDbLine
10
437.260000000000
20
118.460000000000
30
0.0
11
439.760000000000
21
120.960000000000
31
0.0
0
LINE
5
61b
100
AcDbEntity
8
1-5
6
CONTINUOUS
62
4
100
AcDbLine
10
508.920000000000
20
190.120000000000
30
0.0
11
510.330000000000
21
191.520000000000
31
0.0
0
LINE
5
61c
100
AcDbEntity
8
1-5
6
CONTINUOUS
62
4
100
AcDbLine
10
433.730000000000
20
118.460000000000
30
0.0
11
436.230000000000
21
120.960000000000
31
0.0
0
LINE
5
61d
100
AcDbEntity
8
1-5
6
CONTINUOUS
62
4
100
AcDbLine
10
513.590000000000
20
198.320000000000
30
0.0
11
514.730000000000
21
199.460000000000
31
0.0
0
LINE
5
61e
100
AcDbEntity
8
1-5
6
CONTINUOUS
62
4
100
AcDbLine
10
430.190000000000
20
118.460000000000
30
0.0
11
432.690000000000
21
120.960000000000
31
0.0
0
LINE
5
61f
100
AcDbEntity
8
1-5
6
CONTINUOUS
62
4
100
AcDbLine
10
426.660000000000
20
118.460000000000
30
0.0
11
429.160000000000
21
120.960000000000
31
0.0
0
LINE
5
620
100
AcDbEntity
8
1-5
6
CONTINUOUS
62
4
100
AcDbLine
10
423.120000000000
20
118.460000000000
30
0.0
11
425.620000000000
21
120.960000000000
31
0.0
0
LINE
5
621
100
AcDbEntity
8
1-5
6
CONTINUOUS
62
4
100
AcDbLine
10
419.590000000000
20
118.460000000000
30
0.0
11
422.090000000000
21
120.960000000000
31
0.0
0
LINE
5
622
100
AcDbEntity
8
1-5
6
CONTINUOUS
62
4
100
AcDbLine
10
416.050000000000
20
118.460000000000
30
0.0
11
418.550000000000
21
120.960000000000
31
0.0
0
LINE
5
623
100
AcDbEntity
8
1-5
6
CONTINUOUS
62
4
100
AcDbLine
10
412.520000000000
20
118.460000000000
30
0.0
11
415.020000000000
21
120.960000000000
31
0.0
0
LINE
5
624
100
AcDbEntity
8
1-5
6
CONTINUOUS
62
4
100
AcDbLine
10
408.980000000000
20
118.460000000000
30
0.0
11
411.480000000000
21
120.960000000000
31
0.0
0
LINE
5
625
100
AcDbEntity
8
1-5
6
CONTINUOUS
62
4
100
AcDbLine
10
405.440000000000
20
118.460000000000
30
0.0
11
407.940000000000
21
120.960000000000
31
0.0
0
LINE
5
626
100
AcDbEntity
8
1-5
6
CONTINUOUS
62
4
100
AcDbLine
10
401.910000000000
20
118.460000000000
30
0.0
11
404.410000000000
21
120.960000000000
31
0.0
0
LINE
5
627
100
AcDbEntity
8
1-5
6
CONTINUOUS
62
4
100
AcDbLine
10
398.370000000000
20
118.460000000000
30
0.0
11
400.870000000000
21
120.960000000000
31
0.0
0
LINE
5
628
100
AcDbEntity
8
1-5
6
CONTINUOUS
62
4
100
AcDbLine
10
394.840000000000
20
118.460000000000
30
0.0
11
397.340000000000
21
120.960000000000
31
0.0
0
LINE
5
629
100
AcDbEntity
8
1-5
6
CONTINUOUS
62
4
100
AcDbLine
10
391.300000000000
20
118.460000000000
30
0.0
11
393.800000000000
21
120.960000000000
31
0.0
0
LINE
5
62a
100
AcDbEntity
8
1-5
6
CONTINUOUS
62
4
100
AcDbLine
10
387.770000000000
20
118.460000000000
30
0.0
11
390.270000000000
21
120.960000000000
31
0.0
0
LINE
5
62b
100
AcDbEntity
8
1-5
6
CONTINUOUS
62
4
100
AcDbLine
10
384.230000000000
20
118.460000000000
30
0.0
11
386.730000000000
21
120.960000000000
31
0.0
0
LINE
5
62c
100
AcDbEntity
8
1-5
6
CONTINUOUS
62
4
100
AcDbLine
10
379.200000000000
20
116.960000000000
30
0.0
11
383.200000000000
21
120.960000000000
31
0.0
0
LINE
5
62d
100
AcDbEntity
8
1-5
6
CONTINUOUS
62
4
100
AcDbLine
10
375.660000000000
20
116.960000000000
30
0.0
11
378.160000000000
21
119.460000000000
31
0.0
0
LINE
5
62e
100
AcDbEntity
8
1-5
6
CONTINUOUS
62
4
100
AcDbLine
10
372.120000000000
20
116.960000000000
30
0.0
11
374.620000000000
21
119.460000000000
31
0.0
0
LINE
5
62f
100
AcDbEntity
8
1-5
6
CONTINUOUS
62
4
100
AcDbLine
10
368.590000000000
20
116.960000000000
30
0.0
11
371.090000000000
21
119.460000000000
31
0.0
0
LINE
5
630
100
AcDbEntity
8
1-5
6
CONTINUOUS
62
4
100
AcDbLine
10
365.050000000000
20
116.960000000000
30
0.0
11
367.550000000000
21
119.460000000000
31
0.0
0
LINE
5
631
100
AcDbEntity
8
1-5
6
CONTINUOUS
62
4
100
AcDbLine
10
361.520000000000
20
116.960000000000
30
0.0
11
364.020000000000
21
119.460000000000
31
0.0
0
LINE
5
632
100
AcDbEntity
8
1-5
6
CONTINUOUS
62
4
100
AcDbLine
10
357.980000000000
20
116.960000000000
30
0.0
11
360.480000000000
21
119.460000000000
31
0.0
0
LINE
5
633
100
AcDbEntity
8
1-5
6
CONTINUOUS
62
4
100
AcDbLine
10
354.450000000000
20
116.960000000000
30
0.0
11
356.950000000000
21
119.460000000000
31
0.0
0
LINE
5
634
100
AcDbEntity
8
1-5
6
CONTINUOUS
62
4
100
AcDbLine
10
351.870000000000
20
117.920000000000
30
0.0
11
353.640000000000
21
119.690000000000
31
0.0
0
LINE
5
635
100
AcDbEntity
8
1-5
6
CONTINUOUS
62
4
100
AcDbLine
10
350.410000000000
20
119.990000000000
30
0.0
11
352.220000000000
21
121.800000000000
31
0.0
0
LINE
5
636
100
AcDbEntity
8
1-5
6
CONTINUOUS
62
4
100
AcDbLine
10
349.020000000000
20
122.130000000000
30
0.0
11
350.820000000000
21
123.940000000000
31
0.0
0
LINE
5
637
100
AcDbEntity
8
1-5
6
CONTINUOUS
62
4
100
AcDbLine
10
347.620000000000
20
124.280000000000
30
0.0
11
349.430000000000
21
126.080000000000
31
0.0
0
LINE
5
638
100
AcDbEntity
8
1-5
6
CONTINUOUS
62
4
100
AcDbLine
10
346.230000000000
20
126.420000000000
30
0.0
11
348.040000000000
21
128.230000000000
31
0.0
0
LINE
5
639
100
AcDbEntity
8
1-5
6
CONTINUOUS
62
4
100
AcDbLine
10
344.840000000000
20
128.560000000000
30
0.0
11
346.640000000000
21
130.370000000000
31
0.0
0
LINE
5
63a
100
AcDbEntity
8
1-5
6
CONTINUOUS
62
4
100
AcDbLine
10
343.440000000000
20
130.710000000000
30
0.0
11
345.250000000000
21
132.510000000000
31
0.0
0
LINE
5
63b
100
AcDbEntity
8
1-5
6
CONTINUOUS
62
4
100
AcDbLine
10
342.050000000000
20
132.850000000000
30
0.0
11
343.860000000000
21
134.660000000000
31
0.0
0
LINE
5
63c
100
AcDbEntity
8
1-5
6
CONTINUOUS
62
4
100
AcDbLine
10
340.660000000000
20
134.990000000000
30
0.0
11
342.470000000000
21
136.800000000000
31
0.0
0
LINE
5
63d
100
AcDbEntity
8
1-5
6
CONTINUOUS
62
4
100
AcDbLine
10
339.270000000000
20
137.130000000000
30
0.0
11
341.070000000000
21
138.940000000000
31
0.0
0
LINE
5
63e
100
AcDbEntity
8
1-5
6
CONTINUOUS
62
4
100
AcDbLine
10
337.870000000000
20
139.280000000000
30
0.0
11
339.680000000000
21
141.080000000000
31
0.0
0
LINE
5
63f
100
AcDbEntity
8
1-5
6
CONTINUOUS
62
4
100
AcDbLine
10
336.480000000000
20
141.420000000000
30
0.0
11
338.290000000000
21
143.230000000000
31
0.0
0
LINE
5
640
100
AcDbEntity
8
1-5
6
CONTINUOUS
62
4
100
AcDbLine
10
335.090000000000
20
143.560000000000
30
0.0
11
336.890000000000
21
145.370000000000
31
0.0
0
LINE
5
641
100
AcDbEntity
8
1-5
6
CONTINUOUS
62
4
100
AcDbLine
10
333.690000000000
20
145.710000000000
30
0.0
11
335.500000000000
21
147.510000000000
31
0.0
0
LINE
5
642
100
AcDbEntity
8
1-5
6
CONTINUOUS
62
4
100
AcDbLine
10
332.300000000000
20
147.850000000000
30
0.0
11
334.110000000000
21
149.650000000000
31
0.0
0
LINE
5
643
100
AcDbEntity
8
1-5
6
CONTINUOUS
62
4
100
AcDbLine
10
330.910000000000
20
149.990000000000
30
0.0
11
332.720000000000
21
151.800000000000
31
0.0
0
LINE
5
644
100
AcDbEntity
8
1-5
6
CONTINUOUS
62
4
100
AcDbLine
10
329.520000000000
20
152.130000000000
30
0.0
11
331.320000000000
21
153.940000000000
31
0.0
0
LINE
5
645
100
AcDbEntity
8
1-5
6
CONTINUOUS
62
4
100
AcDbLine
10
328.120000000000
20
154.280000000000
30
0.0
11
329.930000000000
21
156.080000000000
31
0.0
0
LINE
5
646
100
AcDbEntity
8
1-5
6
CONTINUOUS
62
4
100
AcDbLine
10
326.730000000000
20
156.420000000000
30
0.0
11
328.540000000000
21
158.230000000000
31
0.0
0
LINE
5
647
100
AcDbEntity
8
1-5
6
CONTINUOUS
62
4
100
AcDbLine
10
325.340000000000
20
158.560000000000
30
0.0
11
327.140000000000
21
160.370000000000
31
0.0
0
LINE
5
648
100
AcDbEntity
8
1-5
6
CONTINUOUS
62
4
100
AcDbLine
10
323.940000000000
20
160.700000000000
30
0.0
11
325.750000000000
21
162.510000000000
31
0.0
0
LINE
5
649
100
AcDbEntity
8
1-5
6
CONTINUOUS
62
4
100
AcDbLine
10
322.550000000000
20
162.850000000000
30
0.0
11
324.360000000000
21
164.650000000000
31
0.0
0
LINE
5
64a
100
AcDbEntity
8
1-5
6
CONTINUOUS
62
4
100
AcDbLine
10
321.160000000000
20
164.990000000000
30
0.0
11
322.970000000000
21
166.800000000000
31
0.0
0
LINE
5
64b
100
AcDbEntity
8
1-5
6
CONTINUOUS
62
4
100
AcDbLine
10
319.770000000000
20
167.130000000000
30
0.0
11
321.570000000000
21
168.940000000000
31
0.0
0
LINE
5
64c
100
AcDbEntity
8
1-5
6
CONTINUOUS
62
4
100
AcDbLine
10
318.370000000000
20
169.280000000000
30
0.0
11
320.180000000000
21
171.080000000000
31
0.0
0
LINE
5
64d
100
AcDbEntity
8
1-5
6
CONTINUOUS
62
4
100
AcDbLine
10
316.980000000000
20
171.420000000000
30
0.0
11
318.790000000000
21
173.230000000000
31
0.0
0
LINE
5
64e
100
AcDbEntity
8
1-5
6
CONTINUOUS
62
4
100
AcDbLine
10
315.590000000000
20
173.560000000000
30
0.0
11
317.400000000000
21
175.370000000000
31
0.0
0
LINE
5
64f
100
AcDbEntity
8
1-5
6
CONTINUOUS
62
4
100
AcDbLine
10
314.200000000000
20
175.700000000000
30
0.0
11
316.000000000000
21
177.510000000000
31
0.0
0
LINE
5
650
100
AcDbEntity
8
1-5
6
CONTINUOUS
62
4
100
AcDbLine
10
312.800000000000
20
177.850000000000
30
0.0
11
314.610000000000
21
179.650000000000
31
0.0
0
LINE
5
651
100
AcDbEntity
8
1-5
6
CONTINUOUS
62
4
100
AcDbLine
10
311.410000000000
20
179.990000000000
30
0.0
11
313.220000000000
21
181.800000000000
31
0.0
0
LINE
5
652
100
AcDbEntity
8
1-5
6
CONTINUOUS
62
4
100
AcDbLine
10
310.020000000000
20
182.130000000000
30
0.0
11
311.820000000000
21
183.940000000000
31
0.0
0
LINE
5
653
100
AcDbEntity
8
1-5
6
CONTINUOUS
62
4
100
AcDbLine
10
308.620000000000
20
184.270000000000
30
0.0
11
310.430000000000
21
186.080000000000
31
0.0
0
LINE
5
654
100
AcDbEntity
8
1-5
6
CONTINUOUS
62
4
100
AcDbLine
10
307.230000000000
20
186.420000000000
30
0.0
11
309.040000000000
21
188.220000000000
31
0.0
0
LINE
5
655
100
AcDbEntity
8
1-5
6
CONTINUOUS
62
4
100
AcDbLine
10
305.840000000000
20
188.560000000000
30
0.0
11
307.650000000000
21
190.370000000000
31
0.0
0
LINE
5
656
100
AcDbEntity
8
1-5
6
CONTINUOUS
62
4
100
AcDbLine
10
304.450000000000
20
190.700000000000
30
0.0
11
306.250000000000
21
192.510000000000
31
0.0
0
LINE
5
657
100
AcDbEntity
8
1-5
6
CONTINUOUS
62
4
100
AcDbLine
10
303.050000000000
20
192.850000000000
30
0.0
11
304.860000000000
21
194.650000000000
31
0.0
0
LINE
5
658
100
AcDbEntity
8
1-5
6
CONTINUOUS
62
4
100
AcDbLine
10
301.660000000000
20
194.990000000000
30
0.0
11
303.470000000000
21
196.800000000000
31
0.0
0
LINE
5
659
100
AcDbEntity
8
1-5
6
CONTINUOUS
62
4
100
AcDbLine
10
300.100000000000
20
196.960000000000
30
0.0
11
302.070000000000
21
198.940000000000
31
0.0
0
LINE
5
65a
100
AcDbEntity
8
1-5
6
CONTINUOUS
62
4
100
AcDbLine
10
296.560000000000
20
196.960000000000
30
0.0
11
299.060000000000
21
199.460000000000
31
0.0
0
LINE
5
65b
100
AcDbEntity
8
1-5
6
CONTINUOUS
62
4
100
AcDbLine
10
293.030000000000
20
196.960000000000
30
0.0
11
295.530000000000
21
199.460000000000
31
0.0
0
LINE
5
65c
100
AcDbEntity
8
1-5
6
CONTINUOUS
62
4
100
AcDbLine
10
289.490000000000
20
196.960000000000
30
0.0
11
291.990000000000
21
199.460000000000
31
0.0
0
LINE
5
65d
100
AcDbEntity
8
1-5
6
CONTINUOUS
62
4
100
AcDbLine
10
285.960000000000
20
196.970000000000
30
0.0
11
288.450000000000
21
199.460000000000
31
0.0
0
LINE
5
65e
100
AcDbEntity
8
1-5
6
CONTINUOUS
62
4
100
AcDbLine
10
284.990000000000
20
199.530000000000
30
0.0
11
285.390000000000
21
199.930000000000
31
0.0
0
LINE
5
65f
100
AcDbEntity
8
1-5
6
CONTINUOUS
62
4
100
AcDbLine
10
345.370000000000
20
127.740000000000
30
0.0
11
356.150000000000
21
116.960000000000
31
0.0
0
LINE
5
660
100
AcDbEntity
8
1-5
6
CONTINUOUS
62
4
100
AcDbLine
10
338.810000000000
20
137.840000000000
30
0.0
11
347.330000000000
21
129.320000000000
31
0.0
0
LINE
5
661
100
AcDbEntity
8
1-5
6
CONTINUOUS
62
4
100
AcDbLine
10
357.190000000000
20
119.460000000000
30
0.0
11
359.690000000000
21
116.960000000000
31
0.0
0
LINE
5
662
100
AcDbEntity
8
1-5
6
CONTINUOUS
62
4
100
AcDbLine
10
332.240000000000
20
147.940000000000
30
0.0
11
340.760000000000
21
139.420000000000
31
0.0
0
LINE
5
663
100
AcDbEntity
8
1-5
6
CONTINUOUS
62
4
100
AcDbLine
10
360.720000000000
20
119.460000000000
30
0.0
11
363.220000000000
21
116.960000000000
31
0.0
0
LINE
5
664
100
AcDbEntity
8
1-5
6
CONTINUOUS
62
4
100
AcDbLine
10
284.990000000000
20
198.730000000000
30
0.0
11
286.760000000000
21
196.960000000000
31
0.0
0
LINE
5
665
100
AcDbEntity
8
1-5
6
CONTINUOUS
62
4
100
AcDbLine
10
325.680000000000
20
158.040000000000
30
0.0
11
334.200000000000
21
149.520000000000
31
0.0
0
LINE
5
666
100
AcDbEntity
8
1-5
6
CONTINUOUS
62
4
100
AcDbLine
10
364.260000000000
20
119.460000000000
30
0.0
11
366.760000000000
21
116.960000000000
31
0.0
0
LINE
5
667
100
AcDbEntity
8
1-5
6
CONTINUOUS
62
4
100
AcDbLine
10
287.790000000000
20
199.460000000000
30
0.0
11
290.290000000000
21
196.960000000000
31
0.0
0
LINE
5
668
100
AcDbEntity
8
1-5
6
CONTINUOUS
62
4
100
AcDbLine
10
319.110000000000
20
168.140000000000
30
0.0
11
327.630000000000
21
159.620000000000
31
0.0
0
LINE
5
669
100
AcDbEntity
8
1-5
6
CONTINUOUS
62
4
100
AcDbLine
10
367.790000000000
20
119.460000000000
30
0.0
11
370.290000000000
21
116.960000000000
31
0.0
0
LINE
5
66a
100
AcDbEntity
8
1-5
6
CONTINUOUS
62
4
100
AcDbLine
10
291.330000000000
20
199.460000000000
30
0.0
11
293.830000000000
21
196.960000000000
31
0.0
0
LINE
5
66b
100
AcDbEntity
8
1-5
6
CONTINUOUS
62
4
100
AcDbLine
10
312.540000000000
20
178.240000000000
30
0.0
11
321.060000000000
21
169.720000000000
31
0.0
0
LINE
5
66c
100
AcDbEntity
8
1-5
6
CONTINUOUS
62
4
100
AcDbLine
10
371.330000000000
20
119.460000000000
30
0.0
11
373.830000000000
21
116.960000000000
31
0.0
0
LINE
5
66d
100
AcDbEntity
8
1-5
6
CONTINUOUS
62
4
100
AcDbLine
10
294.860000000000
20
199.460000000000
30
0.0
11
297.360000000000
21
196.960000000000
31
0.0
0
LINE
5
66e
100
AcDbEntity
8
1-5
6
CONTINUOUS
62
4
100
AcDbLine
10
305.980000000000
20
188.350000000000
30
0.0
11
314.500000000000
21
179.830000000000
31
0.0
0
LINE
5
66f
100
AcDbEntity
8
1-5
6
CONTINUOUS
62
4
100
AcDbLine
10
374.860000000000
20
119.460000000000
30
0.0
11
377.360000000000
21
116.960000000000
31
0.0
0
LINE
5
670
100
AcDbEntity
8
1-5
6
CONTINUOUS
62
4
100
AcDbLine
10
298.400000000000
20
199.460000000000
30
0.0
11
307.930000000000
21
189.930000000000
31
0.0
0
LINE
5
671
100
AcDbEntity
8
1-5
6
CONTINUOUS
62
4
100
AcDbLine
10
378.400000000000
20
119.460000000000
30
0.0
11
380.700000000000
21
117.160000000000
31
0.0
0
LINE
5
672
100
AcDbEntity
8
1-5
6
CONTINUOUS
62
4
100
AcDbLine
10
380.940000000000
20
120.460000000000
30
0.0
11
382.930000000000
21
118.460000000000
31
0.0
0
LINE
5
673
100
AcDbEntity
8
1-5
6
CONTINUOUS
62
4
100
AcDbLine
10
383.970000000000
20
120.960000000000
30
0.0
11
386.470000000000
21
118.460000000000
31
0.0
0
LINE
5
674
100
AcDbEntity
8
1-5
6
CONTINUOUS
62
4
100
AcDbLine
10
387.510000000000
20
120.960000000000
30
0.0
11
390.010000000000
21
118.460000000000
31
0.0
0
LINE
5
675
100
AcDbEntity
8
1-5
6
CONTINUOUS
62
4
100
AcDbLine
10
391.040000000000
20
120.960000000000
30
0.0
11
393.540000000000
21
118.460000000000
31
0.0
0
LINE
5
676
100
AcDbEntity
8
1-5
6
CONTINUOUS
62
4
100
AcDbLine
10
394.580000000000
20
120.960000000000
30
0.0
11
397.080000000000
21
118.460000000000
31
0.0
0
LINE
5
677
100
AcDbEntity
8
1-5
6
CONTINUOUS
62
4
100
AcDbLine
10
398.110000000000
20
120.960000000000
30
0.0
11
400.610000000000
21
118.460000000000
31
0.0
0
LINE
5
678
100
AcDbEntity
8
1-5
6
CONTINUOUS
62
4
100
AcDbLine
10
401.650000000000
20
120.960000000000
30
0.0
11
404.150000000000
21
118.460000000000
31
0.0
0
LINE
5
679
100
AcDbEntity
8
1-5
6
CONTINUOUS
62
4
100
AcDbLine
10
405.180000000000
20
120.960000000000
30
0.0
11
407.680000000000
21
118.460000000000
31
0.0
0
LINE
5
67a
100
AcDbEntity
8
1-5
6
CONTINUOUS
62
4
100
AcDbLine
10
408.720000000000
20
120.960000000000
30
0.0
11
411.220000000000
21
118.460000000000
31
0.0
0
LINE
5
67b
100
AcDbEntity
8
1-5
6
CONTINUOUS
62
4
100
AcDbLine
10
412.250000000000
20
120.960000000000
30
0.0
11
414.750000000000
21
118.460000000000
31
0.0
0
LINE
5
67c
100
AcDbEntity
8
1-5
6
CONTINUOUS
62
4
100
AcDbLine
10
415.790000000000
20
120.960000000000
30
0.0
11
418.290000000000
21
118.460000000000
31
0.0
0
LINE
5
67d
100
AcDbEntity
8
1-5
6
CONTINUOUS
62
4
100
AcDbLine
10
419.330000000000
20
120.960000000000
30
0.0
11
421.830000000000
21
118.460000000000
31
0.0
0
LINE
5
67e
100
AcDbEntity
8
1-5
6
CONTINUOUS
62
4
100
AcDbLine
10
422.860000000000
20
120.960000000000
30
0.0
11
425.360000000000
21
118.460000000000
31
0.0
0
LINE
5
67f
100
AcDbEntity
8
1-5
6
CONTINUOUS
62
4
100
AcDbLine
10
426.400000000000
20
120.960000000000
30
0.0
11
428.900000000000
21
118.460000000000
31
0.0
0
LINE
5
680
100
AcDbEntity
8
1-5
6
CONTINUOUS
62
4
100
AcDbLine
10
429.930000000000
20
120.960000000000
30
0.0
11
432.430000000000
21
118.460000000000
31
0.0
0
LINE
5
681
100
AcDbEntity
8
1-5
6
CONTINUOUS
62
4
100
AcDbLine
10
433.470000000000
20
120.960000000000
30
0.0
11
435.970000000000
21
118.460000000000
31
0.0
0
LINE
5
682
100
AcDbEntity
8
1-5
6
CONTINUOUS
62
4
100
AcDbLine
10
437.000000000000
20
120.960000000000
30
0.0
11
439.500000000000
21
118.460000000000
31
0.0
0
LINE
5
683
100
AcDbEntity
8
1-5
6
CONTINUOUS
62
4
100
AcDbLine
10
440.540000000000
20
120.960000000000
30
0.0
11
444.540000000000
21
116.960000000000
31
0.0
0
LINE
5
684
100
AcDbEntity
8
1-5
6
CONTINUOUS
62
4
100
AcDbLine
10
445.570000000000
20
119.460000000000
30
0.0
11
448.070000000000
21
116.960000000000
31
0.0
0
LINE
5
685
100
AcDbEntity
8
1-5
6
CONTINUOUS
62
4
100
AcDbLine
10
449.110000000000
20
119.460000000000
30
0.0
11
451.610000000000
21
116.960000000000
31
0.0
0
LINE
5
686
100
AcDbEntity
8
1-5
6
CONTINUOUS
62
4
100
AcDbLine
10
452.650000000000
20
119.460000000000
30
0.0
11
455.150000000000
21
116.960000000000
31
0.0
0
LINE
5
687
100
AcDbEntity
8
1-5
6
CONTINUOUS
62
4
100
AcDbLine
10
456.180000000000
20
119.460000000000
30
0.0
11
458.680000000000
21
116.960000000000
31
0.0
0
LINE
5
688
100
AcDbEntity
8
1-5
6
CONTINUOUS
62
4
100
AcDbLine
10
459.720000000000
20
119.460000000000
30
0.0
11
462.220000000000
21
116.960000000000
31
0.0
0
LINE
5
689
100
AcDbEntity
8
1-5
6
CONTINUOUS
62
4
100
AcDbLine
10
463.250000000000
20
119.460000000000
30
0.0
11
465.750000000000
21
116.960000000000
31
0.0
0
LINE
5
68a
100
AcDbEntity
8
1-5
6
CONTINUOUS
62
4
100
AcDbLine
10
466.790000000000
20
119.460000000000
30
0.0
11
469.140000000000
21
117.100000000000
31
0.0
0
LINE
5
68b
100
AcDbEntity
8
1-5
6
CONTINUOUS
62
4
100
AcDbLine
10
469.310000000000
20
120.470000000000
30
0.0
11
471.140000000000
21
118.640000000000
31
0.0
0
LINE
5
68c
100
AcDbEntity
8
1-5
6
CONTINUOUS
62
4
100
AcDbLine
10
470.590000000000
20
122.730000000000
30
0.0
11
472.380000000000
21
120.940000000000
31
0.0
0
LINE
5
68d
100
AcDbEntity
8
1-5
6
CONTINUOUS
62
4
100
AcDbLine
10
471.870000000000
20
124.980000000000
30
0.0
11
473.620000000000
21
123.240000000000
31
0.0
0
LINE
5
68e
100
AcDbEntity
8
1-5
6
CONTINUOUS
62
4
100
AcDbLine
10
473.160000000000
20
127.230000000000
30
0.0
11
474.850000000000
21
125.530000000000
31
0.0
0
LINE
5
68f
100
AcDbEntity
8
1-5
6
CONTINUOUS
62
4
100
AcDbLine
10
474.440000000000
20
129.490000000000
30
0.0
11
476.090000000000
21
127.830000000000
31
0.0
0
LINE
5
690
100
AcDbEntity
8
1-5
6
CONTINUOUS
62
4
100
AcDbLine
10
475.720000000000
20
131.740000000000
30
0.0
11
477.330000000000
21
130.130000000000
31
0.0
0
LINE
5
691
100
AcDbEntity
8
1-5
6
CONTINUOUS
62
4
100
AcDbLine
10
477.000000000000
20
133.990000000000
30
0.0
11
478.560000000000
21
132.430000000000
31
0.0
0
LINE
5
692
100
AcDbEntity
8
1-5
6
CONTINUOUS
62
4
100
AcDbLine
10
478.280000000000
20
136.250000000000
30
0.0
11
479.800000000000
21
134.730000000000
31
0.0
0
LINE
5
693
100
AcDbEntity
8
1-5
6
CONTINUOUS
62
4
100
AcDbLine
10
479.570000000000
20
138.500000000000
30
0.0
11
481.030000000000
21
137.030000000000
31
0.0
0
LINE
5
694
100
AcDbEntity
8
1-5
6
CONTINUOUS
62
4
100
AcDbLine
10
480.850000000000
20
140.750000000000
30
0.0
11
482.270000000000
21
139.330000000000
31
0.0
0
LINE
5
695
100
AcDbEntity
8
1-5
6
CONTINUOUS
62
4
100
AcDbLine
10
482.130000000000
20
143.010000000000
30
0.0
11
483.510000000000
21
141.630000000000
31
0.0
0
LINE
5
696
100
AcDbEntity
8
1-5
6
CONTINUOUS
62
4
100
AcDbLine
10
483.410000000000
20
145.260000000000
30
0.0
11
484.740000000000
21
143.930000000000
31
0.0
0
LINE
5
697
100
AcDbEntity
8
1-5
6
CONTINUOUS
62
4
100
AcDbLine
10
484.690000000000
20
147.520000000000
30
0.0
11
485.980000000000
21
146.230000000000
31
0.0
0
LINE
5
698
100
AcDbEntity
8
1-5
6
CONTINUOUS
62
4
100
AcDbLine
10
485.970000000000
20
149.770000000000
30
0.0
11
487.220000000000
21
148.530000000000
31
0.0
0
LINE
5
699
100
AcDbEntity
8
1-5
6
CONTINUOUS
62
4
100
AcDbLine
10
487.260000000000
20
152.020000000000
30
0.0
11
488.450000000000
21
150.830000000000
31
0.0
0
LINE
5
69a
100
AcDbEntity
8
1-5
6
CONTINUOUS
62
4
100
AcDbLine
10
488.540000000000
20
154.280000000000
30
0.0
11
489.690000000000
21
153.130000000000
31
0.0
0
LINE
5
69b
100
AcDbEntity
8
1-5
6
CONTINUOUS
62
4
100
AcDbLine
10
489.820000000000
20
156.530000000000
30
0.0
11
490.920000000000
21
155.430000000000
31
0.0
0
LINE
5
69c
100
AcDbEntity
8
1-5
6
CONTINUOUS
62
4
100
AcDbLine
10
491.100000000000
20
158.780000000000
30
0.0
11
492.160000000000
21
157.730000000000
31
0.0
0
LINE
5
69d
100
AcDbEntity
8
1-5
6
CONTINUOUS
62
4
100
AcDbLine
10
492.380000000000
20
161.040000000000
30
0.0
11
493.400000000000
21
160.030000000000
31
0.0
0
LINE
5
69e
100
AcDbEntity
8
1-5
6
CONTINUOUS
62
4
100
AcDbLine
10
493.670000000000
20
163.290000000000
30
0.0
11
494.630000000000
21
162.330000000000
31
0.0
0
LINE
5
69f
100
AcDbEntity
8
1-5
6
CONTINUOUS
62
4
100
AcDbLine
10
494.950000000000
20
165.550000000000
30
0.0
11
495.870000000000
21
164.620000000000
31
0.0
0
LINE
5
6a0
100
AcDbEntity
8
1-5
6
CONTINUOUS
62
4
100
AcDbLine
10
496.230000000000
20
167.800000000000
30
0.0
11
497.100000000000
21
166.920000000000
31
0.0
0
LINE
5
6a1
100
AcDbEntity
8
1-5
6
CONTINUOUS
62
4
100
AcDbLine
10
497.510000000000
20
170.050000000000
30
0.0
11
498.340000000000
21
169.220000000000
31
0.0
0
LINE
5
6a2
100
AcDbEntity
8
1-5
6
CONTINUOUS
62
4
100
AcDbLine
10
498.790000000000
20
172.310000000000
30
0.0
11
499.580000000000
21
171.520000000000
31
0.0
0
LINE
5
6a3
100
AcDbEntity
8
1-5
6
CONTINUOUS
62
4
100
AcDbLine
10
500.070000000000
20
174.560000000000
30
0.0
11
500.810000000000
21
173.820000000000
31
0.0
0
LINE
5
6a4
100
AcDbEntity
8
1-5
6
CONTINUOUS
62
4
100
AcDbLine
10
501.360000000000
20
176.810000000000
30
0.0
11
502.050000000000
21
176.120000000000
31
0.0
0
LINE
5
6a5
100
AcDbEntity
8
1-5
6
CONTINUOUS
62
4
100
AcDbLine
10
502.640000000000
20
179.070000000000
30
0.0
11
503.280000000000
21
178.420000000000
31
0.0
0
LINE
5
6a6
100
AcDbEntity
8
1-5
6
CONTINUOUS
62
4
100
AcDbLine
10
503.920000000000
20
181.320000000000
30
0.0
11
504.520000000000
21
180.720000000000
31
0.0
0
LINE
5
6a7
100
AcDbEntity
8
1-5
6
CONTINUOUS
62
4
100
AcDbLine
10
505.200000000000
20
183.580000000000
30
0.0
11
505.760000000000
21
183.020000000000
31
0.0
0
LINE
5
6a8
100
AcDbEntity
8
1-5
6
CONTINUOUS
62
4
100
AcDbLine
10
506.480000000000
20
185.830000000000
30
0.0
11
506.990000000000
21
185.320000000000
31
0.0
0
LINE
5
6a9
100
AcDbEntity
8
1-5
6
CONTINUOUS
62
4
100
AcDbLine
10
507.770000000000
20
188.080000000000
30
0.0
11
508.230000000000
21
187.620000000000
31
0.0
0
LINE
5
6aa
100
AcDbEntity
8
1-5
6
CONTINUOUS
62
4
100
AcDbLine
10
509.050000000000
20
190.340000000000
30
0.0
11
509.460000000000
21
189.920000000000
31
0.0
0
LINE
5
6ab
100
AcDbEntity
8
1-5
6
CONTINUOUS
62
4
100
AcDbLine
10
510.330000000000
20
192.590000000000
30
0.0
11
510.700000000000
21
192.220000000000
31
0.0
0
LINE
5
6ac
100
AcDbEntity
8
1-5
6
CONTINUOUS
62
4
100
AcDbLine
10
511.610000000000
20
194.840000000000
30
0.0
11
511.940000000000
21
194.520000000000
31
0.0
0
LINE
5
6ad
100
AcDbEntity
8
1-5
6
CONTINUOUS
62
4
100
AcDbLine
10
512.890000000000
20
197.100000000000
30
0.0
11
513.170000000000
21
196.820000000000
31
0.0
0
LINE
5
6ae
100
AcDbEntity
8
1-5
6
CONTINUOUS
62
4
100
AcDbLine
10
514.190000000000
20
199.330000000000
30
0.0
11
514.480000000000
21
199.050000000000
31
0.0
0
LINE
5
6af
100
AcDbEntity
8
1-5
6
CONTINUOUS
62
4
100
AcDbLine
10
582.300000000000
20
147.850000000000
30
0.0
11
584.110000000000
21
149.650000000000
31
0.0
0
LINE
5
6b0
100
AcDbEntity
8
1-5
6
CONTINUOUS
62
4
100
AcDbLine
10
580.910000000000
20
149.990000000000
30
0.0
11
582.720000000000
21
151.800000000000
31
0.0
0
LINE
5
6b1
100
AcDbEntity
8
1-5
6
CONTINUOUS
62
4
100
AcDbLine
10
579.520000000000
20
152.130000000000
30
0.0
11
581.320000000000
21
153.940000000000
31
0.0
0
LINE
5
6b2
100
AcDbEntity
8
1-5
6
CONTINUOUS
62
4
100
AcDbLine
10
578.120000000000
20
154.280000000000
30
0.0
11
579.930000000000
21
156.080000000000
31
0.0
0
LINE
5
6b3
100
AcDbEntity
8
1-5
6
CONTINUOUS
62
4
100
AcDbLine
10
576.730000000000
20
156.420000000000
30
0.0
11
578.540000000000
21
158.230000000000
31
0.0
0
LINE
5
6b4
100
AcDbEntity
8
1-5
6
CONTINUOUS
62
4
100
AcDbLine
10
575.340000000000
20
158.560000000000
30
0.0
11
577.140000000000
21
160.370000000000
31
0.0
0
LINE
5
6b5
100
AcDbEntity
8
1-5
6
CONTINUOUS
62
4
100
AcDbLine
10
573.940000000000
20
160.700000000000
30
0.0
11
575.750000000000
21
162.510000000000
31
0.0
0
LINE
5
6b6
100
AcDbEntity
8
1-5
6
CONTINUOUS
62
4
100
AcDbLine
10
572.550000000000
20
162.850000000000
30
0.0
11
574.360000000000
21
164.650000000000
31
0.0
0
LINE
5
6b7
100
AcDbEntity
8
1-5
6
CONTINUOUS
62
4
100
AcDbLine
10
571.160000000000
20
164.990000000000
30
0.0
11
572.970000000000
21
166.800000000000
31
0.0
0
LINE
5
6b8
100
AcDbEntity
8
1-5
6
CONTINUOUS
62
4
100
AcDbLine
10
569.770000000000
20
167.130000000000
30
0.0
11
571.570000000000
21
168.940000000000
31
0.0
0
LINE
5
6b9
100
AcDbEntity
8
1-5
6
CONTINUOUS
62
4
100
AcDbLine
10
568.370000000000
20
169.280000000000
30
0.0
11
570.180000000000
21
171.080000000000
31
0.0
0
LINE
5
6ba
100
AcDbEntity
8
1-5
6
CONTINUOUS
62
4
100
AcDbLine
10
566.980000000000
20
171.420000000000
30
0.0
11
568.790000000000
21
173.230000000000
31
0.0
0
LINE
5
6bb
100
AcDbEntity
8
1-5
6
CONTINUOUS
62
4
100
AcDbLine
10
565.590000000000
20
173.560000000000
30
0.0
11
567.400000000000
21
175.370000000000
31
0.0
0
LINE
5
6bc
100
AcDbEntity
8
1-5
6
CONTINUOUS
62
4
100
AcDbLine
10
564.200000000000
20
175.700000000000
30
0.0
11
566.000000000000
21
177.510000000000
31
0.0
0
LINE
5
6bd
100
AcDbEntity
8
1-5
6
CONTINUOUS
62
4
100
AcDbLine
10
562.800000000000
20
177.850000000000
30
0.0
11
564.610000000000
21
179.650000000000
31
0.0
0
LINE
5
6be
100
AcDbEntity
8
1-5
6
CONTINUOUS
62
4
100
AcDbLine
10
561.410000000000
20
179.990000000000
30
0.0
11
563.220000000000
21
181.800000000000
31
0.0
0
LINE
5
6bf
100
AcDbEntity
8
1-5
6
CONTINUOUS
62
4
100
AcDbLine
10
560.020000000000
20
182.130000000000
30
0.0
11
561.820000000000
21
183.940000000000
31
0.0
0
LINE
5
6c0
100
AcDbEntity
8
1-5
6
CONTINUOUS
62
4
100
AcDbLine
10
558.620000000000
20
184.270000000000
30
0.0
11
560.430000000000
21
186.080000000000
31
0.0
0
LINE
5
6c1
100
AcDbEntity
8
1-5
6
CONTINUOUS
62
4
100
AcDbLine
10
557.230000000000
20
186.420000000000
30
0.0
11
559.040000000000
21
188.220000000000
31
0.0
0
LINE
5
6c2
100
AcDbEntity
8
1-5
6
CONTINUOUS
62
4
100
AcDbLine
10
555.840000000000
20
188.560000000000
30
0.0
11
557.650000000000
21
190.370000000000
31
0.0
0
LINE
5
6c3
100
AcDbEntity
8
1-5
6
CONTINUOUS
62
4
100
AcDbLine
10
554.450000000000
20
190.700000000000
30
0.0
11
556.250000000000
21
192.510000000000
31
0.0
0
LINE
5
6c4
100
AcDbEntity
8
1-5
6
CONTINUOUS
62
4
100
AcDbLine
10
553.050000000000
20
192.850000000000
30
0.0
11
554.860000000000
21
194.650000000000
31
0.0
0
LINE
5
6c5
100
AcDbEntity
8
1-5
6
CONTINUOUS
62
4
100
AcDbLine
10
551.660000000000
20
194.990000000000
30
0.0
11
553.470000000000
21
196.800000000000
31
0.0
0
LINE
5
6c6
100
AcDbEntity
8
1-5
6
CONTINUOUS
62
4
100
AcDbLine
10
550.100000000000
20
196.960000000000
30
0.0
11
552.070000000000
21
198.940000000000
31
0.0
0
LINE
5
6c7
100
AcDbEntity
8
1-5
6
CONTINUOUS
62
4
100
AcDbLine
10
546.560000000000
20
196.960000000000
30
0.0
11
549.060000000000
21
199.460000000000
31
0.0
0
LINE
5
6c8
100
AcDbEntity
8
1-5
6
CONTINUOUS
62
4
100
AcDbLine
10
543.030000000000
20
196.960000000000
30
0.0
11
545.530000000000
21
199.460000000000
31
0.0
0
LINE
5
6c9
100
AcDbEntity
8
1-5
6
CONTINUOUS
62
4
100
AcDbLine
10
539.490000000000
20
196.960000000000
30
0.0
11
541.990000000000
21
199.460000000000
31
0.0
0
LINE
5
6ca
100
AcDbEntity
8
1-5
6
CONTINUOUS
62
4
100
AcDbLine
10
535.960000000000
20
196.970000000000
30
0.0
11
538.450000000000
21
199.460000000000
31
0.0
0
LINE
5
6cb
100
AcDbEntity
8
1-5
6
CONTINUOUS
62
4
100
AcDbLine
10
534.990000000000
20
199.530000000000
30
0.0
11
535.390000000000
21
199.930000000000
31
0.0
0
LINE
5
6cc
100
AcDbEntity
8
1-5
6
CONTINUOUS
62
4
100
AcDbLine
10
534.990000000000
20
198.730000000000
30
0.0
11
536.760000000000
21
196.960000000000
31
0.0
0
LINE
5
6cd
100
AcDbEntity
8
1-5
6
CONTINUOUS
62
4
100
AcDbLine
10
575.680000000000
20
158.040000000000
30
0.0
11
584.200000000000
21
149.520000000000
31
0.0
0
LINE
5
6ce
100
AcDbEntity
8
1-5
6
CONTINUOUS
62
4
100
AcDbLine
10
537.790000000000
20
199.460000000000
30
0.0
11
540.290000000000
21
196.960000000000
31
0.0
0
LINE
5
6cf
100
AcDbEntity
8
1-5
6
CONTINUOUS
62
4
100
AcDbLine
10
569.110000000000
20
168.140000000000
30
0.0
11
577.630000000000
21
159.620000000000
31
0.0
0
LINE
5
6d0
100
AcDbEntity
8
1-5
6
CONTINUOUS
62
4
100
AcDbLine
10
541.330000000000
20
199.460000000000
30
0.0
11
543.830000000000
21
196.960000000000
31
0.0
0
LINE
5
6d1
100
AcDbEntity
8
1-5
6
CONTINUOUS
62
4
100
AcDbLine
10
562.540000000000
20
178.240000000000
30
0.0
11
571.060000000000
21
169.720000000000
31
0.0
0
LINE
5
6d2
100
AcDbEntity
8
1-5
6
CONTINUOUS
62
4
100
AcDbLine
10
544.860000000000
20
199.460000000000
30
0.0
11
547.360000000000
21
196.960000000000
31
0.0
0
LINE
5
6d3
100
AcDbEntity
8
1-5
6
CONTINUOUS
62
4
100
AcDbLine
10
555.980000000000
20
188.350000000000
30
0.0
11
564.500000000000
21
179.830000000000
31
0.0
0
LINE
5
6d4
100
AcDbEntity
8
1-5
6
CONTINUOUS
62
4
100
AcDbLine
10
548.400000000000
20
199.460000000000
30
0.0
11
557.930000000000
21
189.930000000000
31
0.0
0
LINE
5
6d5
100
AcDbEntity
8
1-5
6
CONTINUOUS
62
4
100
AcDbLine
10
582.240000000000
20
147.940000000000
30
0.0
11
584.740000000000
21
145.450000000000
31
0.0
0
LINE
5
6d6
100
AcDbEntity
8
1-5
6
CONTINUOUS
62
4
100
AcDbLine
10
583.690000000000
20
145.710000000000
30
0.0
11
584.740000000000
21
146.750000000000
31
0.0
0
LINE
5
6d7
100
AcDbEntity
8
1-5
6
CONTINUOUS
62
4
100
AcDbLine
10
235.610000000000
20
149.130000000000
30
0.0
11
239.780000000000
21
153.300000000000
31
0.0
0
LINE
5
6d8
100
AcDbEntity
8
1-5
6
CONTINUOUS
62
4
100
AcDbLine
10
240.270000000000
20
157.330000000000
30
0.0
11
243.890000000000
21
160.940000000000
31
0.0
0
LINE
5
6d9
100
AcDbEntity
8
1-5
6
CONTINUOUS
62
4
100
AcDbLine
10
244.930000000000
20
165.520000000000
30
0.0
11
248.000000000000
21
168.590000000000
31
0.0
0
LINE
5
6da
100
AcDbEntity
8
1-5
6
CONTINUOUS
62
4
100
AcDbLine
10
249.600000000000
20
173.720000000000
30
0.0
11
252.110000000000
21
176.230000000000
31
0.0
0
LINE
5
6db
100
AcDbEntity
8
1-5
6
CONTINUOUS
62
4
100
AcDbLine
10
254.260000000000
20
181.920000000000
30
0.0
11
256.220000000000
21
183.880000000000
31
0.0
0
LINE
5
6dc
100
AcDbEntity
8
1-5
6
CONTINUOUS
62
4
100
AcDbLine
10
258.920000000000
20
190.120000000000
30
0.0
11
260.330000000000
21
191.520000000000
31
0.0
0
LINE
5
6dd
100
AcDbEntity
8
1-5
6
CONTINUOUS
62
4
100
AcDbLine
10
263.590000000000
20
198.320000000000
30
0.0
11
264.730000000000
21
199.460000000000
31
0.0
0
LINE
5
6de
100
AcDbEntity
8
1-5
6
CONTINUOUS
62
4
100
AcDbLine
10
234.690000000000
20
147.520000000000
30
0.0
11
235.980000000000
21
146.230000000000
31
0.0
0
LINE
5
6df
100
AcDbEntity
8
1-5
6
CONTINUOUS
62
4
100
AcDbLine
10
235.970000000000
20
149.770000000000
30
0.0
11
237.220000000000
21
148.530000000000
31
0.0
0
LINE
5
6e0
100
AcDbEntity
8
1-5
6
CONTINUOUS
62
4
100
AcDbLine
10
237.260000000000
20
152.020000000000
30
0.0
11
238.450000000000
21
150.830000000000
31
0.0
0
LINE
5
6e1
100
AcDbEntity
8
1-5
6
CONTINUOUS
62
4
100
AcDbLine
10
238.540000000000
20
154.280000000000
30
0.0
11
239.690000000000
21
153.130000000000
31
0.0
0
LINE
5
6e2
100
AcDbEntity
8
1-5
6
CONTINUOUS
62
4
100
AcDbLine
10
239.820000000000
20
156.530000000000
30
0.0
11
240.920000000000
21
155.430000000000
31
0.0
0
LINE
5
6e3
100
AcDbEntity
8
1-5
6
CONTINUOUS
62
4
100
AcDbLine
10
241.100000000000
20
158.780000000000
30
0.0
11
242.160000000000
21
157.730000000000
31
0.0
0
LINE
5
6e4
100
AcDbEntity
8
1-5
6
CONTINUOUS
62
4
100
AcDbLine
10
242.380000000000
20
161.040000000000
30
0.0
11
243.400000000000
21
160.030000000000
31
0.0
0
LINE
5
6e5
100
AcDbEntity
8
1-5
6
CONTINUOUS
62
4
100
AcDbLine
10
243.670000000000
20
163.290000000000
30
0.0
11
244.630000000000
21
162.330000000000
31
0.0
0
LINE
5
6e6
100
AcDbEntity
8
1-5
6
CONTINUOUS
62
4
100
AcDbLine
10
244.950000000000
20
165.550000000000
30
0.0
11
245.870000000000
21
164.620000000000
31
0.0
0
LINE
5
6e7
100
AcDbEntity
8
1-5
6
CONTINUOUS
62
4
100
AcDbLine
10
246.230000000000
20
167.800000000000
30
0.0
11
247.100000000000
21
166.920000000000
31
0.0
0
LINE
5
6e8
100
AcDbEntity
8
1-5
6
CONTINUOUS
62
4
100
AcDbLine
10
247.510000000000
20
170.050000000000
30
0.0
11
248.340000000000
21
169.220000000000
31
0.0
0
LINE
5
6e9
100
AcDbEntity
8
1-5
6
CONTINUOUS
62
4
100
AcDbLine
10
248.790000000000
20
172.310000000000
30
0.0
11
249.580000000000
21
171.520000000000
31
0.0
0
LINE
5
6ea
100
AcDbEntity
8
1-5
6
CONTINUOUS
62
4
100
AcDbLine
10
250.070000000000
20
174.560000000000
30
0.0
11
250.810000000000
21
173.820000000000
31
0.0
0
LINE
5
6eb
100
AcDbEntity
8
1-5
6
CONTINUOUS
62
4
100
AcDbLine
10
251.360000000000
20
176.810000000000
30
0.0
11
252.050000000000
21
176.120000000000
31
0.0
0
LINE
5
6ec
100
AcDbEntity
8
1-5
6
CONTINUOUS
62
4
100
AcDbLine
10
252.640000000000
20
179.070000000000
30
0.0
11
253.280000000000
21
178.420000000000
31
0.0
0
LINE
5
6ed
100
AcDbEntity
8
1-5
6
CONTINUOUS
62
4
100
AcDbLine
10
253.920000000000
20
181.320000000000
30
0.0
11
254.520000000000
21
180.720000000000
31
0.0
0
LINE
5
6ee
100
AcDbEntity
8
1-5
6
CONTINUOUS
62
4
100
AcDbLine
10
255.200000000000
20
183.580000000000
30
0.0
11
255.760000000000
21
183.020000000000
31
0.0
0
LINE
5
6ef
100
AcDbEntity
8
1-5
6
CONTINUOUS
62
4
100
AcDbLine
10
256.480000000000
20
185.830000000000
30
0.0
11
256.990000000000
21
185.320000000000
31
0.0
0
LINE
5
6f0
100
AcDbEntity
8
1-5
6
CONTINUOUS
62
4
100
AcDbLine
10
257.770000000000
20
188.080000000000
30
0.0
11
258.230000000000
21
187.620000000000
31
0.0
0
LINE
5
6f1
100
AcDbEntity
8
1-5
6
CONTINUOUS
62
4
100
AcDbLine
10
259.050000000000
20
190.340000000000
30
0.0
11
259.460000000000
21
189.920000000000
31
0.0
0
LINE
5
6f2
100
AcDbEntity
8
1-5
6
CONTINUOUS
62
4
100
AcDbLine
10
260.330000000000
20
192.590000000000
30
0.0
11
260.700000000000
21
192.220000000000
31
0.0
0
LINE
5
6f3
100
AcDbEntity
8
1-5
6
CONTINUOUS
62
4
100
AcDbLine
10
261.610000000000
20
194.840000000000
30
0.0
11
261.940000000000
21
194.520000000000
31
0.0
0
LINE
5
6f4
100
AcDbEntity
8
1-5
6
CONTINUOUS
62
4
100
AcDbLine
10
262.890000000000
20
197.100000000000
30
0.0
11
263.170000000000
21
196.820000000000
31
0.0
0
LINE
5
6f5
100
AcDbEntity
8
1-5
6
CONTINUOUS
62
4
100
AcDbLine
10
264.190000000000
20
199.330000000000
30
0.0
11
264.480000000000
21
199.050000000000
31
0.0
0
LINE
5
6f6
100
AcDbEntity
8
1-5
6
CONTINUOUS
62
4
100
AcDbLine
10
234.740000000000
20
144.720000000000
30
0.0
11
235.670000000000
21
145.650000000000
31
0.0
0
LINE
5
6f7
100
AcDbEntity
8
1-5
6
CONTINUOUS
62
7
100
AcDbLine
10
323.630000000000
20
157.720000000000
30
0.0
11
322.560000000000
21
153.720000000000
31
0.0
0
LINE
5
6f8
100
AcDbEntity
8
1-5
6
CONTINUOUS
62
7
100
AcDbLine
10
323.630000000000
20
157.720000000000
30
0.0
11
320.710000000000
21
154.790000000000
31
0.0
0
LINE
5
6f9
100
AcDbEntity
8
1-5
6
CONTINUOUS
62
7
100
AcDbLine
10
323.630000000000
20
157.720000000000
30
0.0
11
317.140000000000
21
146.470000000000
31
0.0
0
LINE
5
6fa
100
AcDbEntity
8
1-5
6
CONTINUOUS
62
7
100
AcDbLine
10
320.940000000000
20
170.840000000000
30
0.0
11
340.360000000000
21
204.480000000000
31
0.0
0
LINE
5
6fb
100
AcDbEntity
8
1-5
6
CONTINUOUS
62
3
100
AcDbLine
10
305.230000000000
20
188.580000000000
30
0.0
11
352.270000000000
21
116.210000000000
31
0.0
0
LINE
5
6fc
100
AcDbEntity
8
1-5
6
CONTINUOUS
62
3
100
AcDbLine
10
411.240000000000
20
116.210000000000
30
0.0
11
352.270000000000
21
116.210000000000
31
0.0
0
LINE
5
6fd
100
AcDbEntity
8
1-5
6
CONTINUOUS
62
3
100
AcDbLine
10
411.240000000000
20
116.210000000000
30
0.0
11
469.840000000000
21
116.210000000000
31
0.0
0
LINE
5
6fe
100
AcDbEntity
8
1-5
6
CONTINUOUS
62
3
100
AcDbLine
10
514.170000000000
20
198.680000000000
30
0.0
11
469.840000000000
21
116.210000000000
31
0.0
0
LINE
5
6ff
100
AcDbEntity
8
1-5
6
CONTINUOUS
62
3
100
AcDbLine
10
351.220000000000
20
115.530000000000
30
0.0
11
304.180000000000
21
187.900000000000
31
0.0
0
LINE
5
700
100
AcDbEntity
8
1-5
6
CONTINUOUS
62
3
100
AcDbLine
10
352.270000000000
20
114.960000000000
30
0.0
11
411.240000000000
21
114.960000000000
31
0.0
0
LINE
5
701
100
AcDbEntity
8
1-5
6
CONTINUOUS
62
3
100
AcDbLine
10
469.840000000000
20
114.960000000000
30
0.0
11
411.240000000000
21
114.960000000000
31
0.0
0
LINE
5
702
100
AcDbEntity
8
1-5
6
CONTINUOUS
62
3
100
AcDbLine
10
470.940000000000
20
115.620000000000
30
0.0
11
515.270000000000
21
198.080000000000
31
0.0
0
LINE
5
703
100
AcDbEntity
8
1-5
6
CONTINUOUS
62
3
100
AcDbLine
10
234.740000000000
20
114.960000000000
30
0.0
11
584.740000000000
21
114.960000000000
31
0.0
0
LINE
5
704
100
AcDbEntity
8
1-5
6
CONTINUOUS
62
7
100
AcDbLine
10
331.460000000000
20
119.960000000000
30
0.0
11
331.460000000000
21
114.960000000000
31
0.0
0
LINE
5
705
100
AcDbEntity
8
1-5
6
CONTINUOUS
62
7
100
AcDbLine
10
558.190000000000
20
200.930000000000
30
0.0
11
563.720000000000
21
193.430000000000
31
0.0
0
LINE
5
706
100
AcDbEntity
8
1-5
6
CONTINUOUS
62
7
100
AcDbLine
10
558.030000000000
20
200.650000000000
30
0.0
11
563.480000000000
21
193.250000000000
31
0.0
0
LINE
5
707
100
AcDbEntity
8
1-5
6
CONTINUOUS
62
7
100
AcDbLine
10
564.350000000000
20
184.400000000000
30
0.0
11
562.540000000000
21
188.950000000000
31
0.0
0
LINE
5
708
100
AcDbEntity
8
1-5
6
CONTINUOUS
62
7
100
AcDbLine
10
564.060000000000
20
184.310000000000
30
0.0
11
562.260000000000
21
188.840000000000
31
0.0
0
LINE
5
709
100
AcDbEntity
8
1-5
6
CONTINUOUS
62
7
100
AcDbLine
10
564.060000000000
20
184.310000000000
30
0.0
11
564.900000000000
21
181.180000000000
31
0.0
0
LINE
5
70a
100
AcDbEntity
8
1-5
6
CONTINUOUS
62
7
100
AcDbLine
10
565.190000000000
20
181.260000000000
30
0.0
11
564.350000000000
21
184.400000000000
31
0.0
0
LINE
5
70b
100
AcDbEntity
8
1-5
6
CONTINUOUS
62
7
100
AcDbLine
10
550.800000000000
20
201.820000000000
30
0.0
11
558.190000000000
21
200.930000000000
31
0.0
0
LINE
5
70c
100
AcDbEntity
8
1-5
6
CONTINUOUS
62
7
100
AcDbLine
10
550.600000000000
20
201.550000000000
30
0.0
11
558.030000000000
21
200.650000000000
31
0.0
0
LINE
5
70d
100
AcDbEntity
8
1-5
6
CONTINUOUS
62
7
100
AcDbLine
10
509.570000000000
20
200.930000000000
30
0.0
11
504.040000000000
21
193.430000000000
31
0.0
0
LINE
5
70e
100
AcDbEntity
8
1-5
6
CONTINUOUS
62
7
100
AcDbLine
10
509.740000000000
20
200.650000000000
30
0.0
11
504.280000000000
21
193.250000000000
31
0.0
0
LINE
5
70f
100
AcDbEntity
8
1-5
6
CONTINUOUS
62
7
100
AcDbLine
10
503.420000000000
20
184.400000000000
30
0.0
11
505.230000000000
21
188.950000000000
31
0.0
0
LINE
5
710
100
AcDbEntity
8
1-5
6
CONTINUOUS
62
7
100
AcDbLine
10
503.700000000000
20
184.310000000000
30
0.0
11
505.510000000000
21
188.840000000000
31
0.0
0
LINE
5
711
100
AcDbEntity
8
1-5
6
CONTINUOUS
62
7
100
AcDbLine
10
503.700000000000
20
184.310000000000
30
0.0
11
502.860000000000
21
181.180000000000
31
0.0
0
LINE
5
712
100
AcDbEntity
8
1-5
6
CONTINUOUS
62
7
100
AcDbLine
10
502.570000000000
20
181.260000000000
30
0.0
11
503.420000000000
21
184.400000000000
31
0.0
0
LINE
5
713
100
AcDbEntity
8
1-5
6
CONTINUOUS
62
7
100
AcDbLine
10
516.960000000000
20
201.820000000000
30
0.0
11
509.570000000000
21
200.930000000000
31
0.0
0
LINE
5
714
100
AcDbEntity
8
1-5
6
CONTINUOUS
62
7
100
AcDbLine
10
517.170000000000
20
201.550000000000
30
0.0
11
509.740000000000
21
200.650000000000
31
0.0
0
LINE
5
715
100
AcDbEntity
8
1-5
6
CONTINUOUS
62
7
100
AcDbLine
10
523.630000000000
20
214.950000000000
30
0.0
11
544.130000000000
21
214.950000000000
31
0.0
0
LINE
5
716
100
AcDbEntity
8
1-5
6
CONTINUOUS
62
7
100
AcDbLine
10
544.330000000000
20
215.250000000000
30
0.0
11
523.430000000000
21
215.250000000000
31
0.0
0
LINE
5
717
100
AcDbEntity
8
1-5
6
CONTINUOUS
62
7
100
AcDbLine
10
550.600000000000
20
201.550000000000
30
0.0
11
544.130000000000
21
214.950000000000
31
0.0
0
LINE
5
718
100
AcDbEntity
8
1-5
6
CONTINUOUS
62
7
100
AcDbLine
10
544.330000000000
20
215.250000000000
30
0.0
11
550.800000000000
21
201.820000000000
31
0.0
0
LINE
5
719
100
AcDbEntity
8
1-5
6
CONTINUOUS
62
7
100
AcDbLine
10
523.630000000000
20
214.950000000000
30
0.0
11
517.170000000000
21
201.550000000000
31
0.0
0
LINE
5
71a
100
AcDbEntity
8
1-5
6
CONTINUOUS
62
7
100
AcDbLine
10
523.430000000000
20
215.250000000000
30
0.0
11
516.960000000000
21
201.820000000000
31
0.0
0
LINE
5
71b
100
AcDbEntity
8
1-5
6
CONTINUOUS
62
3
100
AcDbLine
10
535.850000000000
20
212.550000000000
30
0.0
11
535.850000000000
21
204.360000000000
31
0.0
0
LINE
5
71c
100
AcDbEntity
8
1-5
6
CONTINUOUS
62
3
100
AcDbLine
10
525.560000000000
20
212.550000000000
30
0.0
11
525.560000000000
21
203.290000000000
31
0.0
0
LINE
5
71d
100
AcDbEntity
8
1-5
6
CONTINUOUS
62
3
100
AcDbLine
10
504.300000000000
20
193.140000000000
30
0.0
11
509.800000000000
21
200.590000000000
31
0.0
0
LINE
5
71e
100
AcDbEntity
8
1-5
6
CONTINUOUS
62
3
100
AcDbLine
10
557.440000000000
20
199.430000000000
30
0.0
11
562.510000000000
21
192.540000000000
31
0.0
0
LINE
5
71f
100
AcDbEntity
8
1-5
6
CONTINUOUS
62
3
100
AcDbLine
10
505.230000000000
20
192.460000000000
30
0.0
11
510.430000000000
21
199.510000000000
31
0.0
0
LINE
5
720
100
AcDbEntity
8
1-5
6
CONTINUOUS
62
3
100
AcDbLine
10
504.300000000000
20
193.140000000000
30
0.0
11
505.230000000000
21
192.460000000000
31
0.0
0
LINE
5
721
100
AcDbEntity
8
1-5
6
CONTINUOUS
62
3
100
AcDbLine
10
563.440000000000
20
193.220000000000
30
0.0
11
562.510000000000
21
192.540000000000
31
0.0
0
LINE
5
722
100
AcDbEntity
8
1-5
6
CONTINUOUS
62
7
100
AcDbLine
10
502.570000000000
20
181.260000000000
30
0.0
11
502.860000000000
21
181.180000000000
31
0.0
0
LINE
5
723
100
AcDbEntity
8
1-5
6
CONTINUOUS
62
7
100
AcDbLine
10
564.900000000000
20
181.180000000000
30
0.0
11
565.190000000000
21
181.260000000000
31
0.0
0
LINE
5
724
100
AcDbEntity
8
1-5
6
CONTINUOUS
62
3
100
AcDbLine
10
558.070000000000
20
200.500000000000
30
0.0
11
563.440000000000
21
193.220000000000
31
0.0
0
LINE
5
725
100
AcDbEntity
8
1-5
6
CONTINUOUS
62
7
100
AcDbLine
10
308.190000000000
20
200.930000000000
30
0.0
11
313.720000000000
21
193.430000000000
31
0.0
0
LINE
5
726
100
AcDbEntity
8
1-5
6
CONTINUOUS
62
7
100
AcDbLine
10
308.030000000000
20
200.650000000000
30
0.0
11
313.480000000000
21
193.250000000000
31
0.0
0
LINE
5
727
100
AcDbEntity
8
1-5
6
CONTINUOUS
62
7
100
AcDbLine
10
314.350000000000
20
184.400000000000
30
0.0
11
312.540000000000
21
188.950000000000
31
0.0
0
LINE
5
728
100
AcDbEntity
8
1-5
6
CONTINUOUS
62
7
100
AcDbLine
10
314.060000000000
20
184.310000000000
30
0.0
11
312.260000000000
21
188.840000000000
31
0.0
0
LINE
5
729
100
AcDbEntity
8
1-5
6
CONTINUOUS
62
7
100
AcDbLine
10
314.060000000000
20
184.310000000000
30
0.0
11
314.900000000000
21
181.180000000000
31
0.0
0
LINE
5
72a
100
AcDbEntity
8
1-5
6
CONTINUOUS
62
7
100
AcDbLine
10
315.190000000000
20
181.260000000000
30
0.0
11
314.350000000000
21
184.400000000000
31
0.0
0
LINE
5
72b
100
AcDbEntity
8
1-5
6
CONTINUOUS
62
7
100
AcDbLine
10
300.800000000000
20
201.820000000000
30
0.0
11
308.190000000000
21
200.930000000000
31
0.0
0
LINE
5
72c
100
AcDbEntity
8
1-5
6
CONTINUOUS
62
7
100
AcDbLine
10
300.600000000000
20
201.550000000000
30
0.0
11
308.030000000000
21
200.650000000000
31
0.0
0
LINE
5
72d
100
AcDbEntity
8
1-5
6
CONTINUOUS
62
7
100
AcDbLine
10
259.570000000000
20
200.930000000000
30
0.0
11
254.040000000000
21
193.430000000000
31
0.0
0
LINE
5
72e
100
AcDbEntity
8
1-5
6
CONTINUOUS
62
7
100
AcDbLine
10
259.740000000000
20
200.650000000000
30
0.0
11
254.280000000000
21
193.250000000000
31
0.0
0
LINE
5
72f
100
AcDbEntity
8
1-5
6
CONTINUOUS
62
7
100
AcDbLine
10
253.420000000000
20
184.400000000000
30
0.0
11
255.230000000000
21
188.950000000000
31
0.0
0
LINE
5
730
100
AcDbEntity
8
1-5
6
CONTINUOUS
62
7
100
AcDbLine
10
253.700000000000
20
184.310000000000
30
0.0
11
255.510000000000
21
188.840000000000
31
0.0
0
LINE
5
731
100
AcDbEntity
8
1-5
6
CONTINUOUS
62
7
100
AcDbLine
10
253.700000000000
20
184.310000000000
30
0.0
11
252.860000000000
21
181.180000000000
31
0.0
0
LINE
5
732
100
AcDbEntity
8
1-5
6
CONTINUOUS
62
7
100
AcDbLine
10
252.570000000000
20
181.260000000000
30
0.0
11
253.420000000000
21
184.400000000000
31
0.0
0
LINE
5
733
100
AcDbEntity
8
1-5
6
CONTINUOUS
62
7
100
AcDbLine
10
266.960000000000
20
201.820000000000
30
0.0
11
259.570000000000
21
200.930000000000
31
0.0
0
LINE
5
734
100
AcDbEntity
8
1-5
6
CONTINUOUS
62
7
100
AcDbLine
10
267.170000000000
20
201.550000000000
30
0.0
11
259.740000000000
21
200.650000000000
31
0.0
0
LINE
5
735
100
AcDbEntity
8
1-5
6
CONTINUOUS
62
7
100
AcDbLine
10
273.630000000000
20
214.950000000000
30
0.0
11
294.130000000000
21
214.950000000000
31
0.0
0
LINE
5
736
100
AcDbEntity
8
1-5
6
CONTINUOUS
62
7
100
AcDbLine
10
294.330000000000
20
215.250000000000
30
0.0
11
273.430000000000
21
215.250000000000
31
0.0
0
LINE
5
737
100
AcDbEntity
8
1-5
6
CONTINUOUS
62
7
100
AcDbLine
10
300.600000000000
20
201.550000000000
30
0.0
11
294.130000000000
21
214.950000000000
31
0.0
0
LINE
5
738
100
AcDbEntity
8
1-5
6
CONTINUOUS
62
7
100
AcDbLine
10
294.330000000000
20
215.250000000000
30
0.0
11
300.800000000000
21
201.820000000000
31
0.0
0
LINE
5
739
100
AcDbEntity
8
1-5
6
CONTINUOUS
62
7
100
AcDbLine
10
273.630000000000
20
214.950000000000
30
0.0
11
267.170000000000
21
201.550000000000
31
0.0
0
LINE
5
73a
100
AcDbEntity
8
1-5
6
CONTINUOUS
62
7
100
AcDbLine
10
273.430000000000
20
215.250000000000
30
0.0
11
266.960000000000
21
201.820000000000
31
0.0
0
LINE
5
73b
100
AcDbEntity
8
1-5
6
CONTINUOUS
62
3
100
AcDbLine
10
254.300000000000
20
193.140000000000
30
0.0
11
259.800000000000
21
200.590000000000
31
0.0
0
LINE
5
73c
100
AcDbEntity
8
1-5
6
CONTINUOUS
62
3
100
AcDbLine
10
307.430000000000
20
199.430000000000
30
0.0
11
312.510000000000
21
192.540000000000
31
0.0
0
LINE
5
73d
100
AcDbEntity
8
1-5
6
CONTINUOUS
62
3
100
AcDbLine
10
255.230000000000
20
192.460000000000
30
0.0
11
260.430000000000
21
199.510000000000
31
0.0
0
LINE
5
73e
100
AcDbEntity
8
1-5
6
CONTINUOUS
62
3
100
AcDbLine
10
254.300000000000
20
193.140000000000
30
0.0
11
255.230000000000
21
192.460000000000
31
0.0
0
LINE
5
73f
100
AcDbEntity
8
1-5
6
CONTINUOUS
62
3
100
AcDbLine
10
313.440000000000
20
193.220000000000
30
0.0
11
312.510000000000
21
192.540000000000
31
0.0
0
LINE
5
740
100
AcDbEntity
8
1-5
6
CONTINUOUS
62
7
100
AcDbLine
10
252.570000000000
20
181.260000000000
30
0.0
11
252.860000000000
21
181.180000000000
31
0.0
0
LINE
5
741
100
AcDbEntity
8
1-5
6
CONTINUOUS
62
7
100
AcDbLine
10
314.900000000000
20
181.180000000000
30
0.0
11
315.190000000000
21
181.260000000000
31
0.0
0
LINE
5
742
100
AcDbEntity
8
1-5
6
CONTINUOUS
62
3
100
AcDbLine
10
308.070000000000
20
200.500000000000
30
0.0
11
313.440000000000
21
193.220000000000
31
0.0
0
LINE
5
743
100
AcDbEntity
8
1-5
6
CONTINUOUS
62
7
100
AcDbLine
10
539.910000000000
20
194.370000000000
30
0.0
11
548.440000000000
21
194.370000000000
31
0.0
0
POLYLINE
5
744
100
AcDbEntity
8
1-5
6
CONTINUOUS
62
  7
100
AcDb2dPolyline
66
1
10
0.0
20
0.0
30
0.0
70
0
0
VERTEX
5
745
100
AcDbEntity
8
1-5
6
CONTINUOUS
62
  7
100
AcDbVertex
100
AcDb2dVertex
10
538.760000000000
20
194.060000000000
30
0.0
0
VERTEX
5
746
100
AcDbEntity
8
1-5
6
CONTINUOUS
62
  7
100
AcDbVertex
100
AcDb2dVertex
10
541.050000000000
20
194.060000000000
30
0.0
0
VERTEX
5
747
100
AcDbEntity
8
1-5
6
CONTINUOUS
62
  7
100
AcDbVertex
100
AcDb2dVertex
10
547.300000000000
20
194.060000000000
30
0.0
0
VERTEX
5
748
100
AcDbEntity
8
1-5
6
CONTINUOUS
62
  7
100
AcDbVertex
100
AcDb2dVertex
10
549.590000000000
20
194.060000000000
30
0.0
0
VERTEX
5
749
100
AcDbEntity
8
1-5
6
CONTINUOUS
62
  7
100
AcDbVertex
100
AcDb2dVertex
10
549.590000000000
20
190.470000000000
30
0.0
0
VERTEX
5
74a
100
AcDbEntity
8
1-5
6
CONTINUOUS
62
  7
100
AcDbVertex
100
AcDb2dVertex
10
544.180000000000
20
190.470000000000
30
0.0
0
VERTEX
5
74b
100
AcDbEntity
8
1-5
6
CONTINUOUS
62
  7
100
AcDbVertex
100
AcDb2dVertex
10
538.760000000000
20
190.470000000000
30
0.0
0
VERTEX
5
74c
100
AcDbEntity
8
1-5
6
CONTINUOUS
62
  7
100
AcDbVertex
100
AcDb2dVertex
10
538.760000000000
20
194.060000000000
30
0.0
0
SEQEND
5
74d
100
AcDbEntity
8
1-5
0
POLYLINE
5
74e
100
AcDbEntity
8
1-5
6
CONTINUOUS
62
  7
100
AcDb2dPolyline
66
1
10
0.0
20
0.0
30
0.0
70
0
0
VERTEX
5
74f
100
AcDbEntity
8
1-5
6
CONTINUOUS
62
  7
100
AcDbVertex
100
AcDb2dVertex
10
541.050000000000
20
194.370000000000
30
0.0
0
VERTEX
5
750
100
AcDbEntity
8
1-5
6
CONTINUOUS
62
  7
100
AcDbVertex
100
AcDb2dVertex
10
541.050000000000
20
195.960000000000
30
0.0
0
VERTEX
5
751
100
AcDbEntity
8
1-5
6
CONTINUOUS
62
  7
100
AcDbVertex
100
AcDb2dVertex
10
541.960000000000
20
196.870000000000
30
0.0
0
VERTEX
5
752
100
AcDbEntity
8
1-5
6
CONTINUOUS
62
  7
100
AcDbVertex
100
AcDb2dVertex
10
546.390000000000
20
196.870000000000
30
0.0
0
VERTEX
5
753
100
AcDbEntity
8
1-5
6
CONTINUOUS
62
  7
100
AcDbVertex
100
AcDb2dVertex
10
547.300000000000
20
195.960000000000
30
0.0
0
VERTEX
5
754
100
AcDbEntity
8
1-5
6
CONTINUOUS
62
  7
100
AcDbVertex
100
AcDb2dVertex
10
547.300000000000
20
194.370000000000
30
0.0
0
SEQEND
5
755
100
AcDbEntity
8
1-5
0
LINE
5
756
100
AcDbEntity
8
1-5
6
CONTINUOUS
62
7
100
AcDbLine
10
547.300000000000
20
194.060000000000
30
0.0
11
547.300000000000
21
190.470000000000
31
0.0
0
LINE
5
757
100
AcDbEntity
8
1-5
6
CONTINUOUS
62
7
100
AcDbLine
10
541.050000000000
20
190.470000000000
30
0.0
11
541.050000000000
21
194.060000000000
31
0.0
0
LINE
5
758
100
AcDbEntity
8
1-5
6
CONTINUOUS
62
7
100
AcDbLine
10
541.960000000000
20
196.870000000000
30
0.0
11
541.960000000000
21
194.370000000000
31
0.0
0
LINE
5
759
100
AcDbEntity
8
1-5
6
CONTINUOUS
62
7
100
AcDbLine
10
546.390000000000
20
196.870000000000
30
0.0
11
546.390000000000
21
194.370000000000
31
0.0
0
LINE
5
75a
100
AcDbEntity
8
1-5
6
CONTINUOUS
62
7
100
AcDbLine
10
291.960000000000
20
196.870000000000
30
0.0
11
291.960000000000
21
194.370000000000
31
0.0
0
LINE
5
75b
100
AcDbEntity
8
1-5
6
CONTINUOUS
62
7
100
AcDbLine
10
296.390000000000
20
196.870000000000
30
0.0
11
296.390000000000
21
194.370000000000
31
0.0
0
LINE
5
75c
100
AcDbEntity
8
1-5
6
CONTINUOUS
62
3
100
AcDbLine
10
526.560000000000
20
213.550000000000
30
0.0
11
534.850000000000
21
213.550000000000
31
0.0
0
LINE
5
75d
100
AcDbEntity
8
1-5
6
CONTINUOUS
62
3
100
AcDbLine
10
534.850000000000
20
214.700000000000
30
0.0
11
526.560000000000
21
214.700000000000
31
0.0
0
LINE
5
75e
100
AcDbEntity
8
1-5
6
CONTINUOUS
62
3
100
AcDbLine
10
523.390000000000
20
202.170000000000
30
0.0
11
509.800000000000
21
200.590000000000
31
0.0
0
LINE
5
75f
100
AcDbEntity
8
1-5
6
CONTINUOUS
62
3
100
AcDbLine
10
524.410000000000
20
203.310000000000
30
0.0
11
524.410000000000
21
212.550000000000
31
0.0
0
LINE
5
760
100
AcDbEntity
8
1-5
6
CONTINUOUS
62
3
100
AcDbLine
10
523.530000000000
20
201.030000000000
30
0.0
11
510.430000000000
21
199.510000000000
31
0.0
0
LINE
5
761
100
AcDbEntity
8
1-5
6
CONTINUOUS
62
3
100
AcDbLine
10
537.000000000000
20
204.420000000000
30
0.0
11
537.000000000000
21
212.550000000000
31
0.0
0
LINE
5
762
100
AcDbEntity
8
1-5
6
CONTINUOUS
62
3
100
AcDbLine
10
537.830000000000
20
202.140000000000
30
0.0
11
557.440000000000
21
199.430000000000
31
0.0
0
LINE
5
763
100
AcDbEntity
8
1-5
6
CONTINUOUS
62
3
100
AcDbLine
10
537.990000000000
20
203.280000000000
30
0.0
11
558.070000000000
21
200.500000000000
31
0.0
0
LINE
5
764
100
AcDbEntity
8
1-5
6
CONTINUOUS
62
7
100
AcDbLine
10
284.740000000000
20
210.960000000000
30
0.0
11
277.440000000000
21
210.960000000000
31
0.0
0
LINE
5
765
100
AcDbEntity
8
1-5
6
CONTINUOUS
62
3
100
AcDbLine
10
285.850000000000
20
212.550000000000
30
0.0
11
285.850000000000
21
204.360000000000
31
0.0
0
LINE
5
766
100
AcDbEntity
8
1-5
6
CONTINUOUS
62
3
100
AcDbLine
10
275.560000000000
20
212.550000000000
30
0.0
11
275.560000000000
21
203.290000000000
31
0.0
0
LINE
5
767
100
AcDbEntity
8
1-5
6
CONTINUOUS
62
3
100
AcDbLine
10
276.560000000000
20
213.550000000000
30
0.0
11
284.850000000000
21
213.550000000000
31
0.0
0
LINE
5
768
100
AcDbEntity
8
1-5
6
CONTINUOUS
62
3
100
AcDbLine
10
284.850000000000
20
214.700000000000
30
0.0
11
276.560000000000
21
214.700000000000
31
0.0
0
LINE
5
769
100
AcDbEntity
8
1-5
6
CONTINUOUS
62
3
100
AcDbLine
10
274.410000000000
20
203.310000000000
30
0.0
11
274.410000000000
21
212.550000000000
31
0.0
0
LINE
5
76a
100
AcDbEntity
8
1-5
6
CONTINUOUS
62
3
100
AcDbLine
10
287.000000000000
20
204.420000000000
30
0.0
11
287.000000000000
21
212.550000000000
31
0.0
0
LINE
5
76b
100
AcDbEntity
8
1-5
6
CONTINUOUS
62
3
100
AcDbLine
10
259.800000000000
20
200.590000000000
30
0.0
11
273.390000000000
21
202.170000000000
31
0.0
0
LINE
5
76c
100
AcDbEntity
8
1-5
6
CONTINUOUS
62
3
100
AcDbLine
10
273.530000000000
20
201.030000000000
30
0.0
11
260.430000000000
21
199.510000000000
31
0.0
0
LINE
5
76d
100
AcDbEntity
8
1-5
6
CONTINUOUS
62
3
100
AcDbLine
10
308.070000000000
20
200.500000000000
30
0.0
11
287.990000000000
21
203.280000000000
31
0.0
0
LINE
5
76e
100
AcDbEntity
8
1-5
6
CONTINUOUS
62
3
100
AcDbLine
10
287.830000000000
20
202.140000000000
30
0.0
11
307.430000000000
21
199.430000000000
31
0.0
0
LINE
5
76f
100
AcDbEntity
8
1-5
6
CONTINUOUS
62
7
100
AcDbLine
10
310.800000000000
20
221.640000000000
30
0.0
11
299.860000000000
21
221.640000000000
31
0.0
0
LINE
5
770
100
AcDbEntity
8
1-5
6
CONTINUOUS
62
7
100
AcDbLine
10
289.170000000000
20
203.120000000000
30
0.0
11
299.860000000000
21
221.640000000000
31
0.0
0
LINE
5
771
100
AcDbEntity
8
1-5
6
CONTINUOUS
62
7
100
AcDbLine
10
287.930000000000
20
215.250000000000
30
0.0
11
289.000000000000
21
219.250000000000
31
0.0
0
LINE
5
772
100
AcDbEntity
8
1-5
6
CONTINUOUS
62
7
100
AcDbLine
10
287.930000000000
20
215.250000000000
30
0.0
11
290.860000000000
21
218.170000000000
31
0.0
0
LINE
5
773
100
AcDbEntity
8
1-5
6
CONTINUOUS
62
7
100
AcDbLine
10
309.370000000000
20
233.570000000000
30
0.0
11
298.510000000000
21
233.570000000000
31
0.0
0
LINE
5
774
100
AcDbEntity
8
1-5
6
CONTINUOUS
62
7
100
AcDbLine
10
287.930000000000
20
215.250000000000
30
0.0
11
298.510000000000
21
233.570000000000
31
0.0
0
LINE
5
775
100
AcDbEntity
8
1-5
6
CONTINUOUS
62
3
100
AcDbLine
10
271.010000000000
20
208.550000000000
30
0.0
11
271.010000000000
21
204.250000000000
31
0.0
0
POLYLINE
5
776
100
AcDbEntity
8
1-5
6
CONTINUOUS
62
  3
100
AcDb2dPolyline
66
1
10
0.0
20
0.0
30
0.0
70
0
0
VERTEX
5
777
100
AcDbEntity
8
1-5
6
CONTINUOUS
62
  3
100
AcDbVertex
100
AcDb2dVertex
10
271.170000000000
20
203.680000000000
30
0.0
0
VERTEX
5
778
100
AcDbEntity
8
1-5
6
CONTINUOUS
62
  3
100
AcDbVertex
100
AcDb2dVertex
10
272.980000000000
20
203.680000000000
30
0.0
0
VERTEX
5
779
100
AcDbEntity
8
1-5
6
CONTINUOUS
62
  3
100
AcDbVertex
100
AcDb2dVertex
10
272.980000000000
20
206.400000000000
30
0.0
0
VERTEX
5
77a
100
AcDbEntity
8
1-5
6
CONTINUOUS
62
  3
100
AcDbVertex
100
AcDb2dVertex
10
272.980000000000
20
209.130000000000
30
0.0
0
VERTEX
5
77b
100
AcDbEntity
8
1-5
6
CONTINUOUS
62
  3
100
AcDbVertex
100
AcDb2dVertex
10
271.170000000000
20
209.130000000000
30
0.0
0
SEQEND
5
77c
100
AcDbEntity
8
1-5
0
LINE
5
77d
100
AcDbEntity
8
1-5
6
CONTINUOUS
62
3
100
AcDbLine
10
271.170000000000
20
204.830000000000
30
0.0
11
272.980000000000
21
204.830000000000
31
0.0
0
LINE
5
77e
100
AcDbEntity
8
1-5
6
CONTINUOUS
62
3
100
AcDbLine
10
272.980000000000
20
207.970000000000
30
0.0
11
271.170000000000
21
207.970000000000
31
0.0
0
LINE
5
77f
100
AcDbEntity
8
1-5
6
CONTINUOUS
62
3
100
AcDbLine
10
277.980000000000
20
206.400000000000
30
0.0
11
276.480000000000
21
205.150000000000
31
0.0
0
POLYLINE
5
780
100
AcDbEntity
8
1-5
6
CONTINUOUS
62
  3
100
AcDb2dPolyline
66
1
10
0.0
20
0.0
30
0.0
70
0
0
VERTEX
5
781
100
AcDbEntity
8
1-5
6
CONTINUOUS
62
  3
100
AcDbVertex
100
AcDb2dVertex
10
277.980000000000
20
206.400000000000
30
0.0
0
VERTEX
5
782
100
AcDbEntity
8
1-5
6
CONTINUOUS
62
  3
100
AcDbVertex
100
AcDb2dVertex
10
276.480000000000
20
207.650000000000
30
0.0
0
VERTEX
5
783
100
AcDbEntity
8
1-5
6
CONTINUOUS
62
  3
100
AcDbVertex
100
AcDb2dVertex
10
276.480000000000
20
205.150000000000
30
0.0
0
SEQEND
5
784
100
AcDbEntity
8
1-5
0
LINE
5
785
100
AcDbEntity
8
1-5
6
CONTINUOUS
62
3
100
AcDbLine
10
275.560000000000
20
207.650000000000
30
0.0
11
276.480000000000
21
207.650000000000
31
0.0
0
LINE
5
786
100
AcDbEntity
8
1-5
6
CONTINUOUS
62
3
100
AcDbLine
10
275.560000000000
20
207.400000000000
30
0.0
11
276.480000000000
21
207.400000000000
31
0.0
0
LINE
5
787
100
AcDbEntity
8
1-5
6
CONTINUOUS
62
3
100
AcDbLine
10
275.560000000000
20
205.400000000000
30
0.0
11
276.480000000000
21
205.400000000000
31
0.0
0
LINE
5
788
100
AcDbEntity
8
1-5
6
CONTINUOUS
62
3
100
AcDbLine
10
275.560000000000
20
205.150000000000
30
0.0
11
276.480000000000
21
205.150000000000
31
0.0
0
LINE
5
789
100
AcDbEntity
8
1-5
6
CONTINUOUS
62
3
100
AcDbLine
10
272.980000000000
20
207.650000000000
30
0.0
11
274.410000000000
21
207.650000000000
31
0.0
0
LINE
5
78a
100
AcDbEntity
8
1-5
6
CONTINUOUS
62
3
100
AcDbLine
10
272.980000000000
20
207.400000000000
30
0.0
11
274.410000000000
21
207.400000000000
31
0.0
0
LINE
5
78b
100
AcDbEntity
8
1-5
6
CONTINUOUS
62
3
100
AcDbLine
10
272.980000000000
20
205.400000000000
30
0.0
11
274.410000000000
21
205.400000000000
31
0.0
0
LINE
5
78c
100
AcDbEntity
8
1-5
6
CONTINUOUS
62
3
100
AcDbLine
10
272.980000000000
20
205.150000000000
30
0.0
11
274.410000000000
21
205.150000000000
31
0.0
0
LINE
5
78d
100
AcDbEntity
8
1-5
6
CENTER2
62
7
100
AcDbLine
10
270.230000000000
20
206.400000000000
30
0.0
11
279.080000000000
21
206.400000000000
31
0.0
0
LINE
5
78e
100
AcDbEntity
8
1-5
6
CONTINUOUS
62
3
100
AcDbLine
10
521.010000000000
20
208.550000000000
30
0.0
11
521.010000000000
21
204.250000000000
31
0.0
0
POLYLINE
5
78f
100
AcDbEntity
8
1-5
6
CONTINUOUS
62
  3
100
AcDb2dPolyline
66
1
10
0.0
20
0.0
30
0.0
70
0
0
VERTEX
5
790
100
AcDbEntity
8
1-5
6
CONTINUOUS
62
  3
100
AcDbVertex
100
AcDb2dVertex
10
521.170000000000
20
203.680000000000
30
0.0
0
VERTEX
5
791
100
AcDbEntity
8
1-5
6
CONTINUOUS
62
  3
100
AcDbVertex
100
AcDb2dVertex
10
522.980000000000
20
203.680000000000
30
0.0
0
VERTEX
5
792
100
AcDbEntity
8
1-5
6
CONTINUOUS
62
  3
100
AcDbVertex
100
AcDb2dVertex
10
522.980000000000
20
206.400000000000
30
0.0
0
VERTEX
5
793
100
AcDbEntity
8
1-5
6
CONTINUOUS
62
  3
100
AcDbVertex
100
AcDb2dVertex
10
522.980000000000
20
209.130000000000
30
0.0
0
VERTEX
5
794
100
AcDbEntity
8
1-5
6
CONTINUOUS
62
  3
100
AcDbVertex
100
AcDb2dVertex
10
521.170000000000
20
209.130000000000
30
0.0
0
SEQEND
5
795
100
AcDbEntity
8
1-5
0
LINE
5
796
100
AcDbEntity
8
1-5
6
CONTINUOUS
62
3
100
AcDbLine
10
521.170000000000
20
204.830000000000
30
0.0
11
522.980000000000
21
204.830000000000
31
0.0
0
LINE
5
797
100
AcDbEntity
8
1-5
6
CONTINUOUS
62
3
100
AcDbLine
10
522.980000000000
20
207.970000000000
30
0.0
11
521.170000000000
21
207.970000000000
31
0.0
0
LINE
5
798
100
AcDbEntity
8
1-5
6
CONTINUOUS
62
3
100
AcDbLine
10
527.980000000000
20
206.400000000000
30
0.0
11
526.480000000000
21
205.150000000000
31
0.0
0
POLYLINE
5
799
100
AcDbEntity
8
1-5
6
CONTINUOUS
62
  3
100
AcDb2dPolyline
66
1
10
0.0
20
0.0
30
0.0
70
0
0
VERTEX
5
79a
100
AcDbEntity
8
1-5
6
CONTINUOUS
62
  3
100
AcDbVertex
100
AcDb2dVertex
10
527.980000000000
20
206.400000000000
30
0.0
0
VERTEX
5
79b
100
AcDbEntity
8
1-5
6
CONTINUOUS
62
  3
100
AcDbVertex
100
AcDb2dVertex
10
526.480000000000
20
207.650000000000
30
0.0
0
VERTEX
5
79c
100
AcDbEntity
8
1-5
6
CONTINUOUS
62
  3
100
AcDbVertex
100
AcDb2dVertex
10
526.480000000000
20
205.150000000000
30
0.0
0
SEQEND
5
79d
100
AcDbEntity
8
1-5
0
LINE
5
79e
100
AcDbEntity
8
1-5
6
CONTINUOUS
62
3
100
AcDbLine
10
525.560000000000
20
207.650000000000
30
0.0
11
526.480000000000
21
207.650000000000
31
0.0
0
LINE
5
79f
100
AcDbEntity
8
1-5
6
CONTINUOUS
62
3
100
AcDbLine
10
525.560000000000
20
207.400000000000
30
0.0
11
526.480000000000
21
207.400000000000
31
0.0
0
LINE
5
7a0
100
AcDbEntity
8
1-5
6
CONTINUOUS
62
3
100
AcDbLine
10
525.560000000000
20
205.400000000000
30
0.0
11
526.480000000000
21
205.400000000000
31
0.0
0
LINE
5
7a1
100
AcDbEntity
8
1-5
6
CONTINUOUS
62
3
100
AcDbLine
10
525.560000000000
20
205.150000000000
30
0.0
11
526.480000000000
21
205.150000000000
31
0.0
0
LINE
5
7a2
100
AcDbEntity
8
1-5
6
CONTINUOUS
62
3
100
AcDbLine
10
522.980000000000
20
207.650000000000
30
0.0
11
524.410000000000
21
207.650000000000
31
0.0
0
LINE
5
7a3
100
AcDbEntity
8
1-5
6
CONTINUOUS
62
3
100
AcDbLine
10
522.980000000000
20
207.400000000000
30
0.0
11
524.410000000000
21
207.400000000000
31
0.0
0
LINE
5
7a4
100
AcDbEntity
8
1-5
6
CONTINUOUS
62
3
100
AcDbLine
10
522.980000000000
20
205.400000000000
30
0.0
11
524.410000000000
21
205.400000000000
31
0.0
0
LINE
5
7a5
100
AcDbEntity
8
1-5
6
CONTINUOUS
62
3
100
AcDbLine
10
522.980000000000
20
205.150000000000
30
0.0
11
524.410000000000
21
205.150000000000
31
0.0
0
LINE
5
7a6
100
AcDbEntity
8
1-5
6
CENTER2
62
7
100
AcDbLine
10
520.230000000000
20
206.400000000000
30
0.0
11
529.080000000000
21
206.400000000000
31
0.0
0
CIRCLE
5
7a7
100
AcDbEntity
8
F-F
6
CONTINUOUS
62
3
100
AcDbCircle
10
44.420000000000
20
33.050000000000
30
0.0
40
5.656855653775
0
CIRCLE
5
7a8
100
AcDbEntity
8
F-F
6
CONTINUOUS
62
3
100
AcDbCircle
10
44.420000000000
20
33.050000000000
30
0.0
40
6.456855022299
0
CIRCLE
5
7a9
100
AcDbEntity
8
F-F
6
CONTINUOUS
62
4
100
AcDbCircle
10
44.420000000000
20
33.050000000000
30
0.0
40
5.736854893875
0
CIRCLE
5
7aa
100
AcDbEntity
8
F-F
6
CONTINUOUS
62
4
100
AcDbCircle
10
44.420000000000
20
33.050000000000
30
0.0
40
5.896853374073
0
CIRCLE
5
7ab
100
AcDbEntity
8
F-F
6
CONTINUOUS
62
4
100
AcDbCircle
10
44.420000000000
20
33.050000000000
30
0.0
40
6.056854176782
0
CIRCLE
5
7ac
100
AcDbEntity
8
F-F
6
CONTINUOUS
62
4
100
AcDbCircle
10
44.420000000000
20
33.050000000000
30
0.0
40
6.216853044066
0
CIRCLE
5
7ad
100
AcDbEntity
8
F-F
6
CONTINUOUS
62
4
100
AcDbCircle
10
44.420000000000
20
33.050000000000
30
0.0
40
6.376852298435
0
ARC
5
7ae
100
AcDbEntity
8
0-0
6
CONTINUOUS
62
3
100
AcDbCircle
10
609.640000000000
20
421.140000000000
30
0.0
40
1.599999995074
100
AcDbArc
50
268.279190063477
51
44.663528442383
0
ARC
5
7af
100
AcDbEntity
8
0-0
6
CONTINUOUS
62
3
100
AcDbCircle
10
608.770000000000
20
412.510000000000
30
0.0
40
0.499999992412
100
AcDbArc
50
30.002792358398
51
79.616455078125
0
ARC
5
7b0
100
AcDbEntity
8
0-0
6
CONTINUOUS
62
3
100
AcDbCircle
10
608.770000000000
20
412.510000000000
30
0.0
40
1.100000002662
100
AcDbArc
50
30.002792358398
51
79.616455078125
0
ARC
5
7b1
100
AcDbEntity
8
0-0
6
CONTINUOUS
62
3
100
AcDbCircle
10
609.510000000000
20
416.540000000000
30
0.0
40
2.999999954475
100
AcDbArc
50
88.279190063477
51
259.616455078125
0
ARC
5
7b2
100
AcDbEntity
8
0-0
6
CONTINUOUS
62
3
100
AcDbCircle
10
609.510000000000
20
416.540000000000
30
0.0
40
3.599999867952
100
AcDbArc
50
88.279190063477
51
259.616455078125
0
ARC
5
7b3
100
AcDbEntity
8
0-0
6
CONTINUOUS
62
3
100
AcDbCircle
10
609.640000000000
20
421.140000000000
30
0.0
40
0.999999984825
100
AcDbArc
50
268.279190063477
51
44.663528442383
0
ARC
5
7b4
100
AcDbEntity
8
0-0
6
CONTINUOUS
62
3
100
AcDbCircle
10
488.630000000000
20
421.140000000000
30
0.0
40
1.599999995074
100
AcDbArc
50
135.336425781250
51
271.720779418945
0
ARC
5
7b5
100
AcDbEntity
8
0-0
6
CONTINUOUS
62
3
100
AcDbCircle
10
489.500000000000
20
412.510000000000
30
0.0
40
0.499999992412
100
AcDbArc
50
100.383499145508
51
149.997161865234
0
ARC
5
7b6
100
AcDbEntity
8
0-0
6
CONTINUOUS
62
3
100
AcDbCircle
10
489.500000000000
20
412.510000000000
30
0.0
40
1.100000002662
100
AcDbArc
50
100.383499145508
51
149.997161865234
0
ARC
5
7b7
100
AcDbEntity
8
0-0
6
CONTINUOUS
62
3
100
AcDbCircle
10
488.770000000000
20
416.540000000000
30
0.0
40
2.999999954475
100
AcDbArc
50
280.383499145508
51
91.720779418945
0
ARC
5
7b8
100
AcDbEntity
8
0-0
6
CONTINUOUS
62
3
100
AcDbCircle
10
488.770000000000
20
416.540000000000
30
0.0
40
3.599999867952
100
AcDbArc
50
280.383499145508
51
91.720779418945
0
ARC
5
7b9
100
AcDbEntity
8
0-0
6
CONTINUOUS
62
3
100
AcDbCircle
10
488.630000000000
20
421.140000000000
30
0.0
40
0.999999984825
100
AcDbArc
50
135.336425781250
51
271.720779418945
0
ARC
5
7ba
100
AcDbEntity
8
0-0
6
CONTINUOUS
62
3
100
AcDbCircle
10
252.960000000000
20
422.470000000000
30
0.0
40
1.999999969650
100
AcDbArc
50
276.604110717773
51
0.000000000000
0
ARC
5
7bb
100
AcDbEntity
8
0-0
6
CONTINUOUS
62
3
100
AcDbCircle
10
279.130000000000
20
424.600000000000
30
0.0
40
1.999999969650
100
AcDbArc
50
180.000000000000
51
262.134216308594
0
ARC
5
7bc
100
AcDbEntity
8
0-0
6
CONTINUOUS
62
3
100
AcDbCircle
10
272.830000000000
20
440.980000000000
30
0.0
40
1.999999969650
100
AcDbArc
50
360.000000000000
51
450.000000000000
0
ARC
5
7bd
100
AcDbEntity
8
0-0
6
CONTINUOUS
62
3
100
AcDbCircle
10
259.260000000000
20
440.980000000000
30
0.0
40
1.999999969650
100
AcDbArc
50
90.000000000000
51
180.000000000000
0
ARC
5
7be
100
AcDbEntity
8
0-0
6
CONTINUOUS
62
3
100
AcDbCircle
10
279.130000000000
20
424.600000000000
30
0.0
40
4.299999702496
100
AcDbArc
50
180.000000000000
51
262.134216308594
0
ARC
5
7bf
100
AcDbEntity
8
0-0
6
CONTINUOUS
62
3
100
AcDbCircle
10
272.830000000000
20
440.980000000000
30
0.0
40
4.299999702496
100
AcDbArc
50
360.000000000000
51
450.000000000000
0
ARC
5
7c0
100
AcDbEntity
8
0-0
6
CONTINUOUS
62
3
100
AcDbCircle
10
259.260000000000
20
440.980000000000
30
0.0
40
4.299999702496
100
AcDbArc
50
90.000000000000
51
180.000000000000
0
ARC
5
7c1
100
AcDbEntity
8
0-0
6
CONTINUOUS
62
3
100
AcDbCircle
10
252.960000000000
20
422.470000000000
30
0.0
40
4.299999702496
100
AcDbArc
50
276.604110717773
51
0.000000000000
0
ARC
5
7c2
100
AcDbEntity
8
1-5
6
CONTINUOUS
62
7
100
AcDbCircle
10
277.440000000000
20
209.110000000000
30
0.0
40
0.499999992412
100
AcDbArc
50
90.000000000000
51
225.001007080078
0
ARC
5
7c3
100
AcDbEntity
8
1-5
6
CONTINUOUS
62
7
100
AcDbCircle
10
277.440000000000
20
209.110000000000
30
0.0
40
0.999999984825
100
AcDbArc
50
90.000000000000
51
225.001007080078
0
ARC
5
7c4
100
AcDbEntity
8
1-5
6
CONTINUOUS
62
7
100
AcDbCircle
10
283.990000000000
20
209.110000000000
30
0.0
40
0.999999984825
100
AcDbArc
50
360.000000000000
51
450.000000000000
0
ARC
5
7c5
100
AcDbEntity
8
1-5
6
CONTINUOUS
62
7
100
AcDbCircle
10
278.190000000000
20
208.730000000000
30
0.0
40
0.624984313574
100
AcDbArc
50
90.000000000000
51
270.000000000000
0
ARC
5
7c6
100
AcDbEntity
8
1-5
6
CONTINUOUS
62
7
100
AcDbCircle
10
278.190000000000
20
208.730000000000
30
0.0
40
0.125006759994
100
AcDbArc
50
90.000000000000
51
270.000000000000
0
ARC
5
7c7
100
AcDbEntity
8
1-5
6
CONTINUOUS
62
7
100
AcDbCircle
10
281.490000000000
20
203.380000000000
30
0.0
40
1.499999977237
100
AcDbArc
50
332.592086791992
51
62.592239379883
0
ARC
5
7c8
100
AcDbEntity
8
1-5
6
CONTINUOUS
62
7
100
AcDbCircle
10
281.490000000000
20
203.380000000000
30
0.0
40
1.999999969650
100
AcDbArc
50
332.592086791992
51
62.592239379883
0
ARC
5
7c9
100
AcDbEntity
8
1-5
6
CONTINUOUS
62
7
100
AcDbCircle
10
277.440000000000
20
209.110000000000
30
0.0
40
1.349999998868
100
AcDbArc
50
90.000000000000
51
242.907012939453
0
ARC
5
7ca
100
AcDbEntity
8
1-5
6
CONTINUOUS
62
7
100
AcDbCircle
10
277.440000000000
20
209.110000000000
30
0.0
40
1.849999894509
100
AcDbArc
50
90.000000000000
51
243.499023437500
0
ARC
5
7cb
100
AcDbEntity
8
1-5
6
CONTINUOUS
62
7
100
AcDbCircle
10
283.990000000000
20
209.110000000000
30
0.0
40
0.499999992412
100
AcDbArc
50
27.657699584961
51
90.000000000000
0
ARC
5
7cc
100
AcDbEntity
8
1-5
6
CONTINUOUS
62
7
100
AcDbCircle
10
283.990000000000
20
209.110000000000
30
0.0
40
0.499999992412
100
AcDbArc
50
360.000000000000
51
387.657699584961
0
ARC
5
7cd
100
AcDbEntity
8
1-5
6
CONTINUOUS
62
7
100
AcDbCircle
10
283.240000000000
20
208.360000000000
30
0.0
40
0.499999992412
100
AcDbArc
50
360.000000000000
51
450.000000000000
0
ARC
5
7ce
100
AcDbEntity
8
1-5
6
CONTINUOUS
62
7
100
AcDbCircle
10
284.740000000000
20
209.960000000000
30
0.0
40
0.499999992412
100
AcDbArc
50
360.000000000000
51
450.000000000000
0
ARC
5
7cf
100
AcDbEntity
8
1-5
6
CONTINUOUS
62
7
100
AcDbCircle
10
284.740000000000
20
209.960000000000
30
0.0
40
0.999999984825
100
AcDbArc
50
360.000000000000
51
450.000000000000
0
ARC
5
7d0
100
AcDbEntity
8
1-5
6
CONTINUOUS
62
7
100
AcDbCircle
10
283.240000000000
20
208.360000000000
30
0.0
40
0.999999984825
100
AcDbArc
50
48.300964355469
51
90.000000000000
0
ARC
5
7d1
100
AcDbEntity
8
1-5
6
CONTINUOUS
62
7
100
AcDbCircle
10
283.240000000000
20
208.360000000000
30
0.0
40
0.999999984825
100
AcDbArc
50
360.000000000000
51
408.300964355469
0
ARC
5
7d2
100
AcDbEntity
8
1-5
6
CONTINUOUS
62
7
100
AcDbCircle
10
301.460000000000
20
198.960000000000
30
0.0
40
0.499999992412
100
AcDbArc
50
33.020385742188
51
90.000000000000
0
ARC
5
7d3
100
AcDbEntity
8
1-5
6
CONTINUOUS
62
7
100
AcDbCircle
10
301.460000000000
20
198.960000000000
30
0.0
40
0.999999984825
100
AcDbArc
50
33.020385742188
51
90.000000000000
0
ARC
5
7d4
100
AcDbEntity
8
1-5
6
CONTINUOUS
62
7
100
AcDbCircle
10
286.240000000000
20
200.460000000000
30
0.0
40
0.499999992412
100
AcDbArc
50
180.000000000000
51
270.000000000000
0
ARC
5
7d5
100
AcDbEntity
8
1-5
6
CONTINUOUS
62
7
100
AcDbCircle
10
286.240000000000
20
200.460000000000
30
0.0
40
0.999999984825
100
AcDbArc
50
180.000000000000
51
270.000000000000
0
ARC
5
7d6
100
AcDbEntity
8
1-5
6
CONTINUOUS
62
7
100
AcDbCircle
10
283.240000000000
20
200.460000000000
30
0.0
40
0.499999992412
100
AcDbArc
50
270.000000000000
51
0.000000000000
0
ARC
5
7d7
100
AcDbEntity
8
1-5
6
CONTINUOUS
62
7
100
AcDbCircle
10
283.240000000000
20
200.460000000000
30
0.0
40
0.999999984825
100
AcDbArc
50
270.000000000000
51
0.000000000000
0
ARC
5
7d8
100
AcDbEntity
8
1-5
6
CONTINUOUS
62
7
100
AcDbCircle
10
354.280000000000
20
120.460000000000
30
0.0
40
0.499999992412
100
AcDbArc
50
213.020004272461
51
270.000000000000
0
ARC
5
7d9
100
AcDbEntity
8
1-5
6
CONTINUOUS
62
7
100
AcDbCircle
10
354.280000000000
20
120.460000000000
30
0.0
40
0.999999984825
100
AcDbArc
50
213.020004272461
51
270.000000000000
0
ARC
5
7da
100
AcDbEntity
8
1-5
6
CONTINUOUS
62
7
100
AcDbCircle
10
264.530000000000
20
198.960000000000
30
0.0
40
0.499999992412
100
AcDbArc
50
90.000000000000
51
150.371322631836
0
ARC
5
7db
100
AcDbEntity
8
1-5
6
CONTINUOUS
62
7
100
AcDbCircle
10
264.530000000000
20
198.960000000000
30
0.0
40
0.999999984825
100
AcDbArc
50
90.000000000000
51
150.371322631836
0
ARC
5
7dc
100
AcDbEntity
8
1-5
6
CONTINUOUS
62
7
100
AcDbCircle
10
381.650000000000
20
120.460000000000
30
0.0
40
0.499999992412
100
AcDbArc
50
90.000000000000
51
135.003005981445
0
ARC
5
7dd
100
AcDbEntity
8
1-5
6
CONTINUOUS
62
7
100
AcDbCircle
10
379.530000000000
20
120.460000000000
30
0.0
40
0.499999992412
100
AcDbArc
50
270.000000000000
51
315.003005981445
0
ARC
5
7de
100
AcDbEntity
8
1-5
6
CONTINUOUS
62
7
100
AcDbCircle
10
379.530000000000
20
120.460000000000
30
0.0
40
0.999999984825
100
AcDbArc
50
270.000000000000
51
315.003005981445
0
ARC
5
7df
100
AcDbEntity
8
1-5
6
CONTINUOUS
62
7
100
AcDbCircle
10
381.650000000000
20
120.460000000000
30
0.0
40
0.999999984825
100
AcDbArc
50
90.000000000000
51
135.003005981445
0
ARC
5
7e0
100
AcDbEntity
8
1-5
6
CONTINUOUS
62
3
100
AcDbCircle
10
303.130000000000
20
187.220000000000
30
0.0
40
1.249999981031
100
AcDbArc
50
33.025222778320
51
90.000000000000
0
ARC
5
7e1
100
AcDbEntity
8
1-5
6
CONTINUOUS
62
3
100
AcDbCircle
10
303.130000000000
20
187.220000000000
30
0.0
40
2.499999962062
100
AcDbArc
50
33.025222778320
51
90.000000000000
0
ARC
5
7e2
100
AcDbEntity
8
1-5
6
CONTINUOUS
62
7
100
AcDbCircle
10
303.130000000000
20
187.340000000000
30
0.0
40
2.999999954475
100
AcDbArc
50
45.256851196289
51
90.000000000000
0
ARC
5
7e3
100
AcDbEntity
8
1-5
6
CONTINUOUS
62
7
100
AcDbCircle
10
303.130000000000
20
187.340000000000
30
0.0
40
2.499999962062
100
AcDbArc
50
46.430084228516
51
90.000000000000
0
ARC
5
7e4
100
AcDbEntity
8
1-5
6
CONTINUOUS
62
7
100
AcDbCircle
10
285.490000000000
20
190.840000000000
30
0.0
40
0.499999992412
100
AcDbArc
50
180.000000000000
51
270.000000000000
0
ARC
5
7e5
100
AcDbEntity
8
1-5
6
CONTINUOUS
62
7
100
AcDbCircle
10
285.490000000000
20
190.840000000000
30
0.0
40
0.999999984825
100
AcDbArc
50
180.000000000000
51
270.000000000000
0
ARC
5
7e6
100
AcDbEntity
8
1-5
6
CONTINUOUS
62
3
100
AcDbCircle
10
284.240000000000
20
189.720000000000
30
0.0
40
1.249999981031
100
AcDbArc
50
180.000000000000
51
270.000000000000
0
ARC
5
7e7
100
AcDbEntity
8
1-5
6
CONTINUOUS
62
3
100
AcDbCircle
10
282.990000000000
20
198.080000000000
30
0.0
40
1.249999981031
100
AcDbArc
50
360.000000000000
51
450.000000000000
0
ARC
5
7e8
100
AcDbEntity
8
1-5
6
CONTINUOUS
62
3
100
AcDbCircle
10
265.270000000000
20
198.080000000000
30
0.0
40
1.249999981031
100
AcDbArc
50
90.000000000000
51
151.738021850586
0
ARC
5
7e9
100
AcDbEntity
8
1-5
6
CONTINUOUS
62
7
100
AcDbCircle
10
354.280000000000
20
120.460000000000
30
0.0
40
3.499999946887
100
AcDbArc
50
213.020004272461
51
270.000000000000
0
ARC
5
7ea
100
AcDbEntity
8
1-5
6
CONTINUOUS
62
7
100
AcDbCircle
10
379.530000000000
20
120.460000000000
30
0.0
40
3.499999946887
100
AcDbArc
50
270.000000000000
51
315.003005981445
0
ARC
5
7eb
100
AcDbEntity
8
1-5
6
CONTINUOUS
62
7
100
AcDbCircle
10
286.240000000000
20
200.460000000000
30
0.0
40
3.499999946887
100
AcDbArc
50
249.075134277344
51
270.000000000000
0
ARC
5
7ec
100
AcDbEntity
8
1-5
6
CONTINUOUS
62
7
100
AcDbCircle
10
527.440000000000
20
209.110000000000
30
0.0
40
0.499999992412
100
AcDbArc
50
90.000000000000
51
225.001007080078
0
ARC
5
7ed
100
AcDbEntity
8
1-5
6
CONTINUOUS
62
7
100
AcDbCircle
10
527.440000000000
20
209.110000000000
30
0.0
40
0.999999984825
100
AcDbArc
50
90.000000000000
51
225.001007080078
0
ARC
5
7ee
100
AcDbEntity
8
1-5
6
CONTINUOUS
62
7
100
AcDbCircle
10
533.990000000000
20
209.110000000000
30
0.0
40
0.999999984825
100
AcDbArc
50
360.000000000000
51
450.000000000000
0
ARC
5
7ef
100
AcDbEntity
8
1-5
6
CONTINUOUS
62
7
100
AcDbCircle
10
528.190000000000
20
208.730000000000
30
0.0
40
0.624984313574
100
AcDbArc
50
90.000000000000
51
270.000000000000
0
ARC
5
7f0
100
AcDbEntity
8
1-5
6
CONTINUOUS
62
7
100
AcDbCircle
10
528.190000000000
20
208.730000000000
30
0.0
40
0.125006759994
100
AcDbArc
50
90.000000000000
51
270.000000000000
0
ARC
5
7f1
100
AcDbEntity
8
1-5
6
CONTINUOUS
62
7
100
AcDbCircle
10
531.490000000000
20
203.380000000000
30
0.0
40
1.499999977237
100
AcDbArc
50
332.592086791992
51
62.592239379883
0
ARC
5
7f2
100
AcDbEntity
8
1-5
6
CONTINUOUS
62
7
100
AcDbCircle
10
531.490000000000
20
203.380000000000
30
0.0
40
1.999999969650
100
AcDbArc
50
332.592086791992
51
62.592239379883
0
ARC
5
7f3
100
AcDbEntity
8
1-5
6
CONTINUOUS
62
7
100
AcDbCircle
10
527.440000000000
20
209.110000000000
30
0.0
40
1.349999998868
100
AcDbArc
50
90.000000000000
51
242.907012939453
0
ARC
5
7f4
100
AcDbEntity
8
1-5
6
CONTINUOUS
62
7
100
AcDbCircle
10
527.440000000000
20
209.110000000000
30
0.0
40
1.849999894509
100
AcDbArc
50
90.000000000000
51
243.499023437500
0
ARC
5
7f5
100
AcDbEntity
8
1-5
6
CONTINUOUS
62
7
100
AcDbCircle
10
533.990000000000
20
209.110000000000
30
0.0
40
0.499999992412
100
AcDbArc
50
27.657699584961
51
90.000000000000
0
ARC
5
7f6
100
AcDbEntity
8
1-5
6
CONTINUOUS
62
7
100
AcDbCircle
10
533.990000000000
20
209.110000000000
30
0.0
40
0.499999992412
100
AcDbArc
50
360.000000000000
51
387.657699584961
0
ARC
5
7f7
100
AcDbEntity
8
1-5
6
CONTINUOUS
62
7
100
AcDbCircle
10
533.240000000000
20
208.360000000000
30
0.0
40
0.499999992412
100
AcDbArc
50
360.000000000000
51
450.000000000000
0
ARC
5
7f8
100
AcDbEntity
8
1-5
6
CONTINUOUS
62
7
100
AcDbCircle
10
534.740000000000
20
209.960000000000
30
0.0
40
0.499999992412
100
AcDbArc
50
360.000000000000
51
450.000000000000
0
ARC
5
7f9
100
AcDbEntity
8
1-5
6
CONTINUOUS
62
7
100
AcDbCircle
10
534.740000000000
20
209.960000000000
30
0.0
40
0.999999984825
100
AcDbArc
50
360.000000000000
51
450.000000000000
0
ARC
5
7fa
100
AcDbEntity
8
1-5
6
CONTINUOUS
62
7
100
AcDbCircle
10
533.240000000000
20
208.360000000000
30
0.0
40
0.999999984825
100
AcDbArc
50
48.300964355469
51
90.000000000000
0
ARC
5
7fb
100
AcDbEntity
8
1-5
6
CONTINUOUS
62
7
100
AcDbCircle
10
533.240000000000
20
208.360000000000
30
0.0
40
0.999999984825
100
AcDbArc
50
360.000000000000
51
408.300964355469
0
ARC
5
7fc
100
AcDbEntity
8
1-5
6
CONTINUOUS
62
7
100
AcDbCircle
10
551.460000000000
20
198.960000000000
30
0.0
40
0.499999992412
100
AcDbArc
50
33.020385742188
51
90.000000000000
0
ARC
5
7fd
100
AcDbEntity
8
1-5
6
CONTINUOUS
62
7
100
AcDbCircle
10
551.460000000000
20
198.960000000000
30
0.0
40
0.999999984825
100
AcDbArc
50
33.020385742188
51
90.000000000000
0
ARC
5
7fe
100
AcDbEntity
8
1-5
6
CONTINUOUS
62
7
100
AcDbCircle
10
536.240000000000
20
200.460000000000
30
0.0
40
0.499999992412
100
AcDbArc
50
180.000000000000
51
270.000000000000
0
ARC
5
7ff
100
AcDbEntity
8
1-5
6
CONTINUOUS
62
7
100
AcDbCircle
10
536.240000000000
20
200.460000000000
30
0.0
40
0.999999984825
100
AcDbArc
50
180.000000000000
51
270.000000000000
0
ARC
5
800
100
AcDbEntity
8
1-5
6
CONTINUOUS
62
7
100
AcDbCircle
10
533.240000000000
20
200.460000000000
30
0.0
40
0.499999992412
100
AcDbArc
50
270.000000000000
51
0.000000000000
0
ARC
5
801
100
AcDbEntity
8
1-5
6
CONTINUOUS
62
7
100
AcDbCircle
10
533.240000000000
20
200.460000000000
30
0.0
40
0.999999984825
100
AcDbArc
50
270.000000000000
51
0.000000000000
0
ARC
5
802
100
AcDbEntity
8
1-5
6
CONTINUOUS
62
7
100
AcDbCircle
10
514.530000000000
20
198.960000000000
30
0.0
40
0.499999992412
100
AcDbArc
50
90.000000000000
51
150.371322631836
0
ARC
5
803
100
AcDbEntity
8
1-5
6
CONTINUOUS
62
7
100
AcDbCircle
10
514.530000000000
20
198.960000000000
30
0.0
40
0.999999984825
100
AcDbArc
50
90.000000000000
51
150.371322631836
0
ARC
5
804
100
AcDbEntity
8
1-5
6
CONTINUOUS
62
3
100
AcDbCircle
10
553.130000000000
20
187.220000000000
30
0.0
40
1.249999981031
100
AcDbArc
50
33.025222778320
51
90.000000000000
0
ARC
5
805
100
AcDbEntity
8
1-5
6
CONTINUOUS
62
3
100
AcDbCircle
10
553.130000000000
20
187.220000000000
30
0.0
40
2.499999962062
100
AcDbArc
50
33.025222778320
51
90.000000000000
0
ARC
5
806
100
AcDbEntity
8
1-5
6
CONTINUOUS
62
7
100
AcDbCircle
10
553.130000000000
20
187.340000000000
30
0.0
40
2.999999954475
100
AcDbArc
50
45.256851196289
51
90.000000000000
0
ARC
5
807
100
AcDbEntity
8
1-5
6
CONTINUOUS
62
7
100
AcDbCircle
10
553.130000000000
20
187.340000000000
30
0.0
40
2.499999962062
100
AcDbArc
50
46.430084228516
51
90.000000000000
0
ARC
5
808
100
AcDbEntity
8
1-5
6
CONTINUOUS
62
7
100
AcDbCircle
10
535.490000000000
20
190.840000000000
30
0.0
40
0.499999992412
100
AcDbArc
50
180.000000000000
51
270.000000000000
0
ARC
5
809
100
AcDbEntity
8
1-5
6
CONTINUOUS
62
7
100
AcDbCircle
10
535.490000000000
20
190.840000000000
30
0.0
40
0.999999984825
100
AcDbArc
50
180.000000000000
51
270.000000000000
0
ARC
5
80a
100
AcDbEntity
8
1-5
6
CONTINUOUS
62
3
100
AcDbCircle
10
534.240000000000
20
189.720000000000
30
0.0
40
1.249999981031
100
AcDbArc
50
180.000000000000
51
270.000000000000
0
ARC
5
80b
100
AcDbEntity
8
1-5
6
CONTINUOUS
62
3
100
AcDbCircle
10
532.990000000000
20
198.080000000000
30
0.0
40
1.249999981031
100
AcDbArc
50
360.000000000000
51
450.000000000000
0
ARC
5
80c
100
AcDbEntity
8
1-5
6
CONTINUOUS
62
3
100
AcDbCircle
10
515.270000000000
20
198.080000000000
30
0.0
40
1.249999981031
100
AcDbArc
50
90.000000000000
51
151.738021850586
0
ARC
5
80d
100
AcDbEntity
8
1-5
6
CONTINUOUS
62
7
100
AcDbCircle
10
440.810000000000
20
120.460000000000
30
0.0
40
0.499999992412
100
AcDbArc
50
44.996994018555
51
90.000000000000
0
ARC
5
80e
100
AcDbEntity
8
1-5
6
CONTINUOUS
62
7
100
AcDbCircle
10
442.930000000000
20
120.460000000000
30
0.0
40
0.499999992412
100
AcDbArc
50
224.996994018555
51
270.000000000000
0
ARC
5
80f
100
AcDbEntity
8
1-5
6
CONTINUOUS
62
7
100
AcDbCircle
10
442.930000000000
20
120.460000000000
30
0.0
40
0.999999984825
100
AcDbArc
50
224.996994018555
51
270.000000000000
0
ARC
5
810
100
AcDbEntity
8
1-5
6
CONTINUOUS
62
7
100
AcDbCircle
10
440.810000000000
20
120.460000000000
30
0.0
40
0.999999984825
100
AcDbArc
50
44.996994018555
51
90.000000000000
0
ARC
5
811
100
AcDbEntity
8
1-5
6
CONTINUOUS
62
7
100
AcDbCircle
10
442.930000000000
20
120.460000000000
30
0.0
40
3.499999946887
100
AcDbArc
50
224.996994018555
51
270.000000000000
0
ARC
5
812
100
AcDbEntity
8
1-5
6
CONTINUOUS
62
7
100
AcDbCircle
10
536.240000000000
20
200.460000000000
30
0.0
40
3.499999946887
100
AcDbArc
50
249.075134277344
51
270.000000000000
0
ARC
5
813
100
AcDbEntity
8
1-5
6
CONTINUOUS
62
7
100
AcDbCircle
10
294.180000000000
20
192.170000000000
30
0.0
40
6.561029267799
100
AcDbArc
50
214.414550781250
51
325.585449218750
0
ARC
5
814
100
AcDbEntity
8
1-5
6
CONTINUOUS
62
7
100
AcDbCircle
10
468.150000000000
20
120.460000000000
30
0.0
40
0.499999992412
100
AcDbArc
50
270.000000000000
51
330.371322631836
0
ARC
5
815
100
AcDbEntity
8
1-5
6
CONTINUOUS
62
7
100
AcDbCircle
10
468.150000000000
20
120.460000000000
30
0.0
40
0.999999984825
100
AcDbArc
50
270.000000000000
51
330.371322631836
0
ARC
5
816
100
AcDbEntity
8
1-5
6
CONTINUOUS
62
7
100
AcDbCircle
10
468.150000000000
20
120.460000000000
30
0.0
40
3.499999946887
100
AcDbArc
50
270.000000000000
51
330.371322631836
0
ARC
5
817
100
AcDbEntity
8
1-5
6
CONTINUOUS
62
3
100
AcDbCircle
10
352.270000000000
20
116.210000000000
30
0.0
40
1.249999981031
100
AcDbArc
50
213.023635864258
51
270.000000000000
0
ARC
5
818
100
AcDbEntity
8
1-5
6
CONTINUOUS
62
3
100
AcDbCircle
10
469.840000000000
20
116.210000000000
30
0.0
40
1.249999981031
100
AcDbArc
50
270.000000000000
51
331.740615844727
0
ARC
5
819
100
AcDbEntity
8
1-5
6
CONTINUOUS
62
7
100
AcDbCircle
10
563.080000000000
20
192.950000000000
30
0.0
40
0.799999997537
100
AcDbArc
50
260.000000000000
51
36.384338378906
0
ARC
5
81a
100
AcDbEntity
8
1-5
6
CONTINUOUS
62
7
100
AcDbCircle
10
562.030000000000
20
188.750000000000
30
0.0
40
0.249999996206
100
AcDbArc
50
21.723602294922
51
71.337265014648
0
ARC
5
81b
100
AcDbEntity
8
1-5
6
CONTINUOUS
62
7
100
AcDbCircle
10
562.030000000000
20
188.750000000000
30
0.0
40
0.550000001331
100
AcDbArc
50
21.723602294922
51
71.337265014648
0
ARC
5
81c
100
AcDbEntity
8
1-5
6
CONTINUOUS
62
7
100
AcDbCircle
10
562.680000000000
20
190.690000000000
30
0.0
40
1.499999977237
100
AcDbArc
50
80.000000000000
51
251.337265014648
0
ARC
5
81d
100
AcDbEntity
8
1-5
6
CONTINUOUS
62
7
100
AcDbCircle
10
562.680000000000
20
190.690000000000
30
0.0
40
1.799999933976
100
AcDbArc
50
80.000000000000
51
251.337265014648
0
ARC
5
81e
100
AcDbEntity
8
1-5
6
CONTINUOUS
62
7
100
AcDbCircle
10
563.080000000000
20
192.950000000000
30
0.0
40
0.499999992412
100
AcDbArc
50
260.000000000000
51
36.384338378906
0
ARC
5
81f
100
AcDbEntity
8
1-5
6
CONTINUOUS
62
7
100
AcDbCircle
10
504.680000000000
20
192.950000000000
30
0.0
40
0.799999997537
100
AcDbArc
50
143.615646362305
51
280.000000000000
0
ARC
5
820
100
AcDbEntity
8
1-5
6
CONTINUOUS
62
7
100
AcDbCircle
10
505.740000000000
20
188.750000000000
30
0.0
40
0.249999996206
100
AcDbArc
50
108.662719726563
51
158.276382446289
0
ARC
5
821
100
AcDbEntity
8
1-5
6
CONTINUOUS
62
7
100
AcDbCircle
10
505.740000000000
20
188.750000000000
30
0.0
40
0.550000001331
100
AcDbArc
50
108.662719726563
51
158.276382446289
0
ARC
5
822
100
AcDbEntity
8
1-5
6
CONTINUOUS
62
7
100
AcDbCircle
10
505.080000000000
20
190.690000000000
30
0.0
40
1.499999977237
100
AcDbArc
50
288.662719726563
51
100.000000000000
0
ARC
5
823
100
AcDbEntity
8
1-5
6
CONTINUOUS
62
7
100
AcDbCircle
10
505.080000000000
20
190.690000000000
30
0.0
40
1.799999933976
100
AcDbArc
50
288.662719726563
51
100.000000000000
0
ARC
5
824
100
AcDbEntity
8
1-5
6
CONTINUOUS
62
7
100
AcDbCircle
10
504.680000000000
20
192.950000000000
30
0.0
40
0.499999992412
100
AcDbArc
50
143.615646362305
51
280.000000000000
0
ARC
5
825
100
AcDbEntity
8
1-5
6
CONTINUOUS
62
3
100
AcDbCircle
10
534.850000000000
20
212.550000000000
30
0.0
40
0.999999984825
100
AcDbArc
50
360.000000000000
51
450.000000000000
0
ARC
5
826
100
AcDbEntity
8
1-5
6
CONTINUOUS
62
3
100
AcDbCircle
10
526.560000000000
20
212.550000000000
30
0.0
40
0.999999984825
100
AcDbArc
50
90.000000000000
51
180.000000000000
0
ARC
5
827
100
AcDbEntity
8
1-5
6
CONTINUOUS
62
3
100
AcDbCircle
10
534.850000000000
20
212.550000000000
30
0.0
40
2.149999851248
100
AcDbArc
50
360.000000000000
51
450.000000000000
0
ARC
5
828
100
AcDbEntity
8
1-5
6
CONTINUOUS
62
3
100
AcDbCircle
10
526.560000000000
20
212.550000000000
30
0.0
40
2.149999851248
100
AcDbArc
50
90.000000000000
51
180.000000000000
0
ARC
5
829
100
AcDbEntity
8
1-5
6
CONTINUOUS
62
7
100
AcDbCircle
10
313.080000000000
20
192.950000000000
30
0.0
40
0.799999997537
100
AcDbArc
50
260.000000000000
51
36.384338378906
0
ARC
5
82a
100
AcDbEntity
8
1-5
6
CONTINUOUS
62
7
100
AcDbCircle
10
312.020000000000
20
188.750000000000
30
0.0
40
0.249999996206
100
AcDbArc
50
21.723602294922
51
71.337265014648
0
ARC
5
82b
100
AcDbEntity
8
1-5
6
CONTINUOUS
62
7
100
AcDbCircle
10
312.020000000000
20
188.750000000000
30
0.0
40
0.550000001331
100
AcDbArc
50
21.723602294922
51
71.337265014648
0
ARC
5
82c
100
AcDbEntity
8
1-5
6
CONTINUOUS
62
7
100
AcDbCircle
10
312.680000000000
20
190.690000000000
30
0.0
40
1.499999977237
100
AcDbArc
50
80.000000000000
51
251.337265014648
0
ARC
5
82d
100
AcDbEntity
8
1-5
6
CONTINUOUS
62
7
100
AcDbCircle
10
312.680000000000
20
190.690000000000
30
0.0
40
1.799999933976
100
AcDbArc
50
80.000000000000
51
251.337265014648
0
ARC
5
82e
100
AcDbEntity
8
1-5
6
CONTINUOUS
62
7
100
AcDbCircle
10
313.080000000000
20
192.950000000000
30
0.0
40
0.499999992412
100
AcDbArc
50
260.000000000000
51
36.384338378906
0
ARC
5
82f
100
AcDbEntity
8
1-5
6
CONTINUOUS
62
7
100
AcDbCircle
10
254.680000000000
20
192.950000000000
30
0.0
40
0.799999997537
100
AcDbArc
50
143.615646362305
51
280.000000000000
0
ARC
5
830
100
AcDbEntity
8
1-5
6
CONTINUOUS
62
7
100
AcDbCircle
10
255.740000000000
20
188.750000000000
30
0.0
40
0.249999996206
100
AcDbArc
50
108.662719726563
51
158.276382446289
0
ARC
5
831
100
AcDbEntity
8
1-5
6
CONTINUOUS
62
7
100
AcDbCircle
10
255.740000000000
20
188.750000000000
30
0.0
40
0.550000001331
100
AcDbArc
50
108.662719726563
51
158.276382446289
0
ARC
5
832
100
AcDbEntity
8
1-5
6
CONTINUOUS
62
7
100
AcDbCircle
10
255.080000000000
20
190.690000000000
30
0.0
40
1.499999977237
100
AcDbArc
50
288.662719726563
51
100.000000000000
0
ARC
5
833
100
AcDbEntity
8
1-5
6
CONTINUOUS
62
7
100
AcDbCircle
10
255.080000000000
20
190.690000000000
30
0.0
40
1.799999933976
100
AcDbArc
50
288.662719726563
51
100.000000000000
0
ARC
5
834
100
AcDbEntity
8
1-5
6
CONTINUOUS
62
7
100
AcDbCircle
10
254.680000000000
20
192.950000000000
30
0.0
40
0.499999992412
100
AcDbArc
50
143.615646362305
51
280.000000000000
0
ARC
5
835
100
AcDbEntity
8
1-5
6
CONTINUOUS
62
7
100
AcDbCircle
10
544.180000000000
20
192.170000000000
30
0.0
40
6.561029267799
100
AcDbArc
50
214.414550781250
51
325.585449218750
0
ARC
5
836
100
AcDbEntity
8
1-5
6
CONTINUOUS
62
3
100
AcDbCircle
10
523.260000000000
20
203.310000000000
30
0.0
40
1.149999963194
100
AcDbArc
50
276.603118896484
51
0.000000000000
0
ARC
5
837
100
AcDbEntity
8
1-5
6
CONTINUOUS
62
3
100
AcDbCircle
10
523.260000000000
20
203.310000000000
30
0.0
40
2.299999926389
100
AcDbArc
50
276.603118896484
51
0.000000000000
0
ARC
5
838
100
AcDbEntity
8
1-5
6
CONTINUOUS
62
3
100
AcDbCircle
10
538.150000000000
20
204.420000000000
30
0.0
40
1.149999963194
100
AcDbArc
50
180.000000000000
51
262.135055541992
0
ARC
5
839
100
AcDbEntity
8
1-5
6
CONTINUOUS
62
3
100
AcDbCircle
10
538.150000000000
20
204.420000000000
30
0.0
40
2.299999926389
100
AcDbArc
50
180.000000000000
51
262.135055541992
0
ARC
5
83a
100
AcDbEntity
8
1-5
6
CONTINUOUS
62
3
100
AcDbCircle
10
284.850000000000
20
212.550000000000
30
0.0
40
0.999999984825
100
AcDbArc
50
360.000000000000
51
450.000000000000
0
ARC
5
83b
100
AcDbEntity
8
1-5
6
CONTINUOUS
62
3
100
AcDbCircle
10
276.560000000000
20
212.550000000000
30
0.0
40
0.999999984825
100
AcDbArc
50
90.000000000000
51
180.000000000000
0
ARC
5
83c
100
AcDbEntity
8
1-5
6
CONTINUOUS
62
3
100
AcDbCircle
10
284.850000000000
20
212.550000000000
30
0.0
40
2.149999851248
100
AcDbArc
50
360.000000000000
51
450.000000000000
0
ARC
5
83d
100
AcDbEntity
8
1-5
6
CONTINUOUS
62
3
100
AcDbCircle
10
276.560000000000
20
212.550000000000
30
0.0
40
2.149999851248
100
AcDbArc
50
90.000000000000
51
180.000000000000
0
ARC
5
83e
100
AcDbEntity
8
1-5
6
CONTINUOUS
62
3
100
AcDbCircle
10
273.260000000000
20
203.310000000000
30
0.0
40
1.149999963194
100
AcDbArc
50
276.603118896484
51
0.000000000000
0
ARC
5
83f
100
AcDbEntity
8
1-5
6
CONTINUOUS
62
3
100
AcDbCircle
10
273.260000000000
20
203.310000000000
30
0.0
40
2.299999926389
100
AcDbArc
50
276.603118896484
51
0.000000000000
0
ARC
5
840
100
AcDbEntity
8
1-5
6
CONTINUOUS
62
3
100
AcDbCircle
10
288.150000000000
20
204.420000000000
30
0.0
40
1.149999963194
100
AcDbArc
50
180.000000000000
51
262.135055541992
0
ARC
5
841
100
AcDbEntity
8
1-5
6
CONTINUOUS
62
3
100
AcDbCircle
10
288.150000000000
20
204.420000000000
30
0.0
40
2.299999926389
100
AcDbArc
50
180.000000000000
51
262.135055541992
0
ARC
5
842
100
AcDbEntity
8
1-5
6
CONTINUOUS
62
3
100
AcDbCircle
10
272.160000000000
20
208.550000000000
30
0.0
40
1.151150670071
100
AcDbArc
50
150.000030517578
51
-150.000015258789
0
ARC
5
843
100
AcDbEntity
8
1-5
6
CONTINUOUS
62
3
100
AcDbCircle
10
279.110000000000
20
206.400000000000
30
0.0
40
8.093851728912
100
AcDbArc
50
168.797149658203
51
-168.797134399414
0
ARC
5
844
100
AcDbEntity
8
1-5
6
CONTINUOUS
62
3
100
AcDbCircle
10
272.160000000000
20
204.250000000000
30
0.0
40
1.151150670071
100
AcDbArc
50
150.000030517578
51
-150.000015258789
0
ARC
5
845
100
AcDbEntity
8
1-5
6
CONTINUOUS
62
3
100
AcDbCircle
10
522.160000000000
20
208.550000000000
30
0.0
40
1.151150670071
100
AcDbArc
50
150.000030517578
51
-150.000015258789
0
ARC
5
846
100
AcDbEntity
8
1-5
6
CONTINUOUS
62
3
100
AcDbCircle
10
529.110000000000
20
206.400000000000
30
0.0
40
8.093851728912
100
AcDbArc
50
168.797149658203
51
-168.797134399414
0
ARC
5
847
100
AcDbEntity
8
1-5
6
CONTINUOUS
62
3
100
AcDbCircle
10
522.160000000000
20
204.250000000000
30
0.0
40
1.151150670071
100
AcDbArc
50
150.000030517578
51
-150.000015258789
0
TEXT
5
848
100
AcDbEntity
8
F-F
62
3
370
-3
100
AcDbText
10
83.332
20
21.800
30
0.0
40
3.282
1
静岡県静岡市流通センター１６番
41
0.921
50
0.000
100
AcDbText
0
TEXT
5
849
100
AcDbEntity
8
F-F
62
3
370
-3
100
AcDbText
10
83.334
20
14.383
30
0.0
40
3.282
1
電話（０５４）２６３－２２８０（代表）
41
0.921
50
0.000
100
AcDbText
0
TEXT
5
84a
100
AcDbEntity
8
F-F
62
3
370
-3
100
AcDbText
10
266.045
20
37.876
30
0.0
40
2.461
1
変　　　　　　更　　　　　　記　　　　　　事
41
0.914
50
0.000
100
AcDbText
0
TEXT
5
84b
100
AcDbEntity
8
F-F
62
3
370
-3
100
AcDbText
10
407.912
20
37.476
30
0.0
40
2.461
1
受領　　日附
41
0.914
50
0.000
100
AcDbText
0
TEXT
5
84c
100
AcDbEntity
8
F-F
62
3
370
-3
100
AcDbText
10
507.021
20
22.760
30
0.0
40
2.461
1
施工者
41
0.914
50
0.000
100
AcDbText
0
TEXT
5
84d
100
AcDbEntity
8
F-F
62
3
370
-3
100
AcDbText
10
507.021
20
37.575
30
0.0
40
2.461
1
設計者
41
0.914
50
0.000
100
AcDbText
0
TEXT
5
84e
100
AcDbEntity
8
F-F
62
3
370
-3
100
AcDbText
10
609.763
20
22.489
30
0.0
40
2.461
1
作図
41
0.914
50
0.000
100
AcDbText
0
TEXT
5
84f
100
AcDbEntity
8
F-F
62
3
370
-3
100
AcDbText
10
645.676
20
22.754
30
0.0
40
2.461
1
図面名
41
0.914
50
0.000
100
AcDbText
0
TEXT
5
850
100
AcDbEntity
8
F-F
62
3
370
-3
100
AcDbText
10
609.763
20
37.303
30
0.0
40
2.461
1
日附
41
0.914
50
0.000
100
AcDbText
0
TEXT
5
851
100
AcDbEntity
8
F-F
62
3
370
-3
100
AcDbText
10
645.676
20
37.569
30
0.0
40
2.461
1
工事件名
41
0.914
50
0.000
100
AcDbText
0
TEXT
5
852
100
AcDbEntity
8
F-F
62
3
370
-3
100
AcDbText
10
620.831
20
37.178
30
0.0
40
2.461
1
年　月　日
41
0.914
50
0.000
100
AcDbText
0
TEXT
5
853
100
AcDbEntity
8
F-F
62
3
370
-3
100
AcDbText
10
620.831
20
22.363
30
0.0
40
2.461
1
年　月　日
41
0.914
50
0.000
100
AcDbText
0
TEXT
5
854
100
AcDbEntity
8
F-F
62
3
370
-3
100
AcDbText
10
771.848
20
37.569
30
0.0
40
2.461
1
設計番号
41
0.914
50
0.000
100
AcDbText
0
MTEXT
5
855
100
AcDbEntity
8
F-F
62
3
370
-3
100
AcDbMText
10
193.506
20
33.911
30
0.0
40
2.325
41
0.000
71
7
72
1
1
\W1.037;{\W0.747;. }　{\W0.747;.}　{\W0.747; }
7
STANDARD
11
1.00000
21
0.00000
31
0.0
0
MTEXT
5
856
100
AcDbEntity
8
F-F
62
3
370
-3
100
AcDbMText
10
193.506
20
28.972
30
0.0
40
2.325
41
0.000
71
7
72
1
1
\W1.037;{\W0.747;. }　{\W0.747;.}　{\W0.747; }
7
STANDARD
11
1.00000
21
0.00000
31
0.0
0
MTEXT
5
857
100
AcDbEntity
8
F-F
62
3
370
-3
100
AcDbMText
10
193.506
20
24.034
30
0.0
40
2.325
41
0.000
71
7
72
1
1
\W1.037;{\W0.747;. }　{\W0.747;.}　{\W0.747; }
7
STANDARD
11
1.00000
21
0.00000
31
0.0
0
MTEXT
5
858
100
AcDbEntity
8
F-F
62
3
370
-3
100
AcDbMText
10
193.506
20
19.096
30
0.0
40
2.325
41
0.000
71
7
72
1
1
\W1.037;{\W0.747;. }　{\W0.747;.}　{\W0.747; }
7
STANDARD
11
1.00000
21
0.00000
31
0.0
0
MTEXT
5
859
100
AcDbEntity
8
F-F
62
3
370
-3
100
AcDbMText
10
193.506
20
14.157
30
0.0
40
2.325
41
0.000
71
7
72
1
1
\W1.037;{\W0.747;. }　{\W0.747;.}　{\W0.747; }
7
STANDARD
11
1.00000
21
0.00000
31
0.0
0
TEXT
5
85a
100
AcDbEntity
8
F-F
62
3
370
-3
100
AcDbText
10
517.191
20
31.187
30
0.0
40
3.282
1
　　　　　　　　　　
41
0.921
50
0.000
100
AcDbText
0
TEXT
5
85b
100
AcDbEntity
8
F-F
62
3
370
-3
100
AcDbText
10
517.191
20
16.371
30
0.0
40
3.282
1
　　　　　　　　　　
41
0.921
50
0.000
100
AcDbText
0
TEXT
5
85c
100
AcDbEntity
8
F-F
62
3
370
-3
100
AcDbText
10
658.923
20
31.960
30
0.0
40
3.282
1
　　　　　　　　　　　　　
41
0.921
50
0.000
100
AcDbText
0
TEXT
5
85d
100
AcDbEntity
8
F-F
62
3
370
-3
100
AcDbText
10
189.020
20
37.844
30
0.0
40
2.461
1
年　月　日
41
0.914
50
0.000
100
AcDbText
0
TEXT
5
85e
100
AcDbEntity
8
F-F
62
3
370
-3
100
AcDbText
10
436.498
20
37.184
30
0.0
40
2.461
1
年　　月　　日
41
0.914
50
0.000
100
AcDbText
0
MTEXT
5
85f
100
AcDbEntity
8
F-F
62
3
370
-3
100
AcDbMText
10
442.774
20
31.699
30
0.0
40
2.325
41
0.000
71
7
72
1
1
\W1.037;{\W0.747;.}　{\W0.747; }　{\W0.747;.}
7
STANDARD
11
1.00000
21
0.00000
31
0.0
0
TEXT
5
860
100
AcDbEntity
8
F-F
62
3
370
-3
100
AcDbText
10
407.912
20
22.661
30
0.0
40
2.461
1
受領　　日附
41
0.914
50
0.000
100
AcDbText
0
TEXT
5
861
100
AcDbEntity
8
F-F
62
3
370
-3
100
AcDbText
10
436.498
20
22.369
30
0.0
40
2.461
1
年　　月　　日
41
0.914
50
0.000
100
AcDbText
0
MTEXT
5
862
100
AcDbEntity
8
F-F
62
3
370
-3
100
AcDbMText
10
442.774
20
16.884
30
0.0
40
2.325
41
0.000
71
7
72
1
1
\W1.037;{\W0.747;.}　{\W0.747; }　{\W0.747;.}
7
STANDARD
11
1.00000
21
0.00000
31
0.0
0
MTEXT
5
863
100
AcDbEntity
8
F-F
62
3
370
-3
100
AcDbMText
10
624.217
20
30.842
30
0.0
40
2.325
41
0.000
71
7
72
1
1
\W1.037;{\W0.747;.}　　{\W0.747;.}　
7
STANDARD
11
1.00000
21
0.00000
31
0.0
0
TEXT
5
864
100
AcDbEntity
8
F-F
62
3
370
-3
100
AcDbText
10
57.385
20
30.579
30
0.0
40
6.564
1
小　池　弥　太　郎　商　店
41
0.963
50
0.000
100
AcDbText
0
TEXT
5
865
100
AcDbEntity
8
F-F
62
3
370
-3
100
AcDbText
10
771.848
20
22.754
30
0.0
40
2.461
1
縮　尺
41
0.914
50
0.000
100
AcDbText
0
TEXT
5
866
100
AcDbEntity
8
F-F
62
3
370
-3
100
AcDbText
10
783.506
20
20.823
30
0.0
40
3.282
1
Ａ１－１／１　
41
0.921
50
0.000
100
AcDbText
0
TEXT
5
867
100
AcDbEntity
8
F-F
62
3
370
-3
100
AcDbText
10
783.506
20
13.416
30
0.0
40
3.282
1
Ａ３－１／２　
41
0.921
50
0.000
100
AcDbText
0
TEXT
5
868
100
AcDbEntity
8
0-0
62
3
370
-3
100
AcDbText
10
504.653
20
357.042
30
0.0
40
6.564
1
板巾＝２２７ｍｍ
41
0.963
50
0.000
100
AcDbText
0
TEXT
5
869
100
AcDbEntity
8
0-0
62
3
370
-3
100
AcDbText
10
543.026
20
478.078
30
0.0
40
8.205
41
0.639
50
0.000
1
124
72
1
11
551.069
21
477.166
31
0.0
100
AcDbText
73
1
0
TEXT
5
86a
100
AcDbEntity
8
0-0
62
3
370
-3
100
AcDbText
10
636.661
20
427.380
30
0.0
40
8.205
41
0.556
50
90.000
1
66
72
1
11
637.573
21
432.743
31
0.0
100
AcDbText
73
1
0
TEXT
5
86b
100
AcDbEntity
8
0-0
62
3
370
-3
100
AcDbText
10
545.276
20
452.629
30
0.0
40
8.205
41
0.736
50
0.000
1
41
72
1
11
550.638
21
451.717
31
0.0
100
AcDbText
73
1
0
TEXT
5
86c
100
AcDbEntity
8
0-0
62
3
370
-3
100
AcDbText
10
545.276
20
431.882
30
0.0
40
8.205
41
0.575
50
0.000
1
67
72
1
11
550.638
21
430.970
31
0.0
100
AcDbText
73
1
0
TEXT
5
86d
100
AcDbEntity
8
0-0
62
3
370
-3
100
AcDbText
10
543.026
20
410.118
30
0.0
40
8.205
41
0.794
50
0.000
1
114
72
1
11
551.069
21
409.207
31
0.0
100
AcDbText
73
1
0
TEXT
5
86e
100
AcDbEntity
8
0-0
62
3
370
-3
100
AcDbText
10
543.026
20
393.811
30
0.0
40
8.205
41
0.647
50
0.000
1
135
72
1
11
551.069
21
392.899
31
0.0
100
AcDbText
73
1
0
TEXT
5
86f
100
AcDbEntity
8
0-0
62
3
370
-3
100
AcDbText
10
266.333
20
426.980
30
0.0
40
6.564
1
2.3
41
0.706
50
90.000
100
AcDbText
0
TEXT
5
870
100
AcDbEntity
8
0-0
62
3
370
-3
100
AcDbText
10
183.312
20
420.049
30
0.0
40
7.384
41
0.556
50
90.000
1
42
72
1
11
184.132
21
424.924
31
0.0
100
AcDbText
73
1
0
TEXT
5
871
100
AcDbEntity
8
0-0
62
3
370
-3
100
AcDbText
10
234.945
20
461.143
30
0.0
40
7.384
41
0.717
50
0.000
1
31
72
1
11
239.820
21
460.323
31
0.0
100
AcDbText
73
1
0
TEXT
5
872
100
AcDbEntity
8
0-0
62
3
370
-3
100
AcDbText
10
261.645
20
461.143
30
0.0
40
7.384
41
0.512
50
0.000
1
22
72
1
11
266.520
21
460.323
31
0.0
100
AcDbText
73
1
0
TEXT
5
873
100
AcDbEntity
8
0-0
62
3
370
-3
100
AcDbText
10
265.409
20
475.646
30
0.0
40
7.384
41
0.799
50
0.000
1
117
72
1
11
272.721
21
474.826
31
0.0
100
AcDbText
73
1
0
TEXT
5
874
100
AcDbEntity
8
0-0
62
3
370
-3
100
AcDbText
10
294.385
20
461.141
30
0.0
40
7.384
41
0.590
50
359.991
1
43
72
1
11
299.260
21
460.319
31
0.0
100
AcDbText
73
1
0
TEXT
5
875
100
AcDbEntity
8
0-0
62
3
370
-3
100
AcDbText
10
360.749
20
421.469
30
0.0
40
7.384
41
0.590
50
90.000
1
39
72
1
11
361.569
21
426.344
31
0.0
100
AcDbText
73
1
0
TEXT
5
876
100
AcDbEntity
8
F-F
62
3
370
-3
100
AcDbText
10
611.358
20
15.783
30
0.0
40
2.461
1
MA 2015-06-16
41
0.618
50
0.000
100
AcDbText
0
TEXT
5
877
100
AcDbEntity
8
F-F
62
3
370
-3
100
AcDbText
10
658.923
20
17.145
30
0.0
40
3.282
1
コイケルーフ　ハゼキャップ図・金具図　断面図
41
0.921
50
0.000
100
AcDbText
0
TEXT
5
878
100
AcDbEntity
8
1-5
62
3
370
-3
100
AcDbText
10
403.545
20
243.763
30
0.0
40
6.564
41
0.651
50
0.058
1
500
72
1
11
410.127
21
243.040
31
0.0
100
AcDbText
73
1
0
TEXT
5
879
100
AcDbEntity
8
1-5
62
3
370
-3
100
AcDbText
10
253.548
20
243.643
30
0.0
40
6.564
41
0.632
50
0.000
1
@500
72
1
11
262.323
21
242.914
31
0.0
100
AcDbText
73
1
0
TEXT
5
87a
100
AcDbEntity
8
1-5
62
3
370
-3
100
AcDbText
10
549.048
20
243.643
30
0.0
40
6.564
41
0.632
50
0.000
1
@500
72
1
11
557.823
21
242.914
31
0.0
100
AcDbText
73
1
0
TEXT
5
87b
100
AcDbEntity
8
1-5
62
3
370
-3
100
AcDbText
10
313.441
20
219.307
30
0.0
40
5.743
1
吊子
41
0.918
50
0.000
100
AcDbText
0
TEXT
5
87c
100
AcDbEntity
8
1-5
62
3
370
-3
100
AcDbText
10
270.506
20
139.926
30
0.0
40
5.743
1
タイトフレーム
41
0.918
50
0.000
100
AcDbText
0
TEXT
5
87d
100
AcDbEntity
8
1-5
62
3
370
-3
100
AcDbText
10
454.264
20
166.198
30
0.0
40
6.564
41
0.712
50
270.000
1
160
72
1
11
453.535
21
159.617
31
0.0
100
AcDbText
73
1
0
TEXT
5
87e
100
AcDbEntity
8
1-5
62
3
370
-3
100
AcDbText
10
323.079
20
124.064
30
0.0
40
6.564
41
0.816
50
270.000
1
10
72
1
11
322.349
21
119.676
31
0.0
100
AcDbText
73
1
0
TEXT
5
87f
100
AcDbEntity
8
1-5
62
3
370
-3
100
AcDbText
10
312.009
20
231.241
30
0.0
40
5.743
1
キャップ
41
0.918
50
0.000
100
AcDbText
0
MTEXT
5
880
100
AcDbEntity
8
1-5
62
3
370
-3
100
AcDbMText
10
324.922
20
209.344
30
0.0
40
5.424
41
0.000
71
7
72
1
1
\W1.041;ＫＲ角ハゼ５００(D-160{\fMS Gothic;Ⅱ})
7
STANDARD
11
1.00000
21
0.00000
31
0.0
0
MTEXT
5
881
100
AcDbEntity
8
0-0
62
3
370
-3
100
AcDbMText
10
462.128
20
365.937
30
0.0
40
6.199
41
0.000
71
7
72
1
1
\W1.093;ＫＲ角ハゼ５００（Ｄ１６０{\fMS Gothic;Ⅱ}）ハゼキャップ
7
STANDARD
11
1.00000
21
0.00000
31
0.0
0
MTEXT
5
882
100
AcDbEntity
8
0-0
62
3
370
-3
100
AcDbMText
10
184.391
20
368.638
30
0.0
40
6.199
41
0.000
71
7
72
1
1
\W1.093;ＫＲ角ハゼ５００（Ｄ１６０{\fMS Gothic;Ⅱ}）吊子Ｗ＝３０
7
STANDARD
11
1.00000
21
0.00000
31
0.0
0
MTEXT
5
883
100
AcDbEntity
8
F-F
62
3
370
-3
100
AcDbMText
10
774.417
20
30.137
30
0.0
40
3.874
41
0.000
71
7
72
1
1
\W1.050;HK-D160{\fMS Gothic;Ⅱ}- 01
7
STANDARD
11
1.00000
21
0.00000
31
0.0
0
POLYLINE
5
884
100
AcDbEntity
  8
F-F
6
CONTINUOUS
62
3
100
AcDb2dPolyline
66
1
10
0
20
0
70
1
40
0.400
41
0.400
0
VERTEX
5
885
100
AcDbEntity
  8
F-F
6
CONTINUOUS
62
3
100
AcDbVertex
100
AcDb2dVertex
10
27.179
20
571.820
30
0.0
42
1.000
0
VERTEX
5
886
100
AcDbEntity
  8
F-F
6
CONTINUOUS
62
3
100
AcDbVertex
100
AcDb2dVertex
10
27.579
20
571.820
30
0.0
42
1.000
0
SEQEND
5
887
100
AcDbEntity
  8
F-F
0
POLYLINE
5
888
100
AcDbEntity
  8
0-0
6
CONTINUOUS
62
3
100
AcDb2dPolyline
66
1
10
0
20
0
70
1
40
0.400
41
0.400
0
VERTEX
5
889
100
AcDbEntity
  8
0-0
6
CONTINUOUS
62
3
100
AcDbVertex
100
AcDb2dVertex
10
213.461
20
403.618
30
0.0
42
1.000
0
VERTEX
5
88a
100
AcDbEntity
  8
0-0
6
CONTINUOUS
62
3
100
AcDbVertex
100
AcDb2dVertex
10
213.861
20
403.618
30
0.0
42
1.000
0
SEQEND
5
88b
100
AcDbEntity
  8
0-0
0
POLYLINE
5
88c
100
AcDbEntity
  8
0-0
6
CONTINUOUS
62
3
100
AcDb2dPolyline
66
1
10
0
20
0
70
1
40
0.400
41
0.400
0
VERTEX
5
88d
100
AcDbEntity
  8
0-0
6
CONTINUOUS
62
3
100
AcDbVertex
100
AcDb2dVertex
10
330.754
20
406.458
30
0.0
42
1.000
0
VERTEX
5
88e
100
AcDbEntity
  8
0-0
6
CONTINUOUS
62
3
100
AcDbVertex
100
AcDb2dVertex
10
331.154
20
406.458
30
0.0
42
1.000
0
SEQEND
5
88f
100
AcDbEntity
  8
0-0
0
POLYLINE
5
890
100
AcDbEntity
  8
1-5
6
CONTINUOUS
62
3
100
AcDb2dPolyline
66
1
10
0
20
0
70
1
40
0.400
41
0.400
0
VERTEX
5
891
100
AcDbEntity
  8
1-5
6
CONTINUOUS
62
3
100
AcDbVertex
100
AcDb2dVertex
10
284.536
20
240.946
30
0.0
42
1.000
0
VERTEX
5
892
100
AcDbEntity
  8
1-5
6
CONTINUOUS
62
3
100
AcDbVertex
100
AcDb2dVertex
10
284.936
20
240.946
30
0.0
42
1.000
0
SEQEND
5
893
100
AcDbEntity
  8
1-5
0
POLYLINE
5
894
100
AcDbEntity
  8
1-5
6
CONTINUOUS
62
3
100
AcDb2dPolyline
66
1
10
0
20
0
70
1
40
0.400
41
0.400
0
VERTEX
5
895
100
AcDbEntity
  8
1-5
6
CONTINUOUS
62
3
100
AcDbVertex
100
AcDb2dVertex
10
331.258
20
114.960
30
0.0
42
1.000
0
VERTEX
5
896
100
AcDbEntity
  8
1-5
6
CONTINUOUS
62
3
100
AcDbVertex
100
AcDb2dVertex
10
331.658
20
114.960
30
0.0
42
1.000
0
SEQEND
5
897
100
AcDbEntity
  8
1-5
0
POLYLINE
5
898
100
AcDbEntity
  8
1-5
6
CONTINUOUS
62
3
100
AcDb2dPolyline
66
1
10
0
20
0
70
1
40
0.400
41
0.400
0
VERTEX
5
899
100
AcDbEntity
  8
1-5
6
CONTINUOUS
62
3
100
AcDbVertex
100
AcDb2dVertex
10
331.258
20
119.960
30
0.0
42
1.000
0
VERTEX
5
89a
100
AcDbEntity
  8
1-5
6
CONTINUOUS
62
3
100
AcDbVertex
100
AcDb2dVertex
10
331.658
20
119.960
30
0.0
42
1.000
0
SEQEND
5
89b
100
AcDbEntity
  8
1-5
0
POLYLINE
5
89c
100
AcDbEntity
  8
1-5
6
CONTINUOUS
62
3
100
AcDb2dPolyline
66
1
10
0
20
0
70
1
40
0.400
41
0.400
0
VERTEX
5
89d
100
AcDbEntity
  8
1-5
6
CONTINUOUS
62
3
100
AcDbVertex
100
AcDb2dVertex
10
451.367
20
200.010
30
0.0
42
1.000
0
VERTEX
5
89e
100
AcDbEntity
  8
1-5
6
CONTINUOUS
62
3
100
AcDbVertex
100
AcDb2dVertex
10
451.767
20
200.010
30
0.0
42
1.000
0
SEQEND
5
89f
100
AcDbEntity
  8
1-5
0
POLYLINE
5
8a0
100
AcDbEntity
  8
1-5
6
CONTINUOUS
62
3
100
AcDb2dPolyline
66
1
10
0
20
0
70
1
40
0.400
41
0.400
0
VERTEX
5
8a1
100
AcDbEntity
  8
1-5
6
CONTINUOUS
62
3
100
AcDbVertex
100
AcDb2dVertex
10
451.367
20
120.010
30
0.0
42
1.000
0
VERTEX
5
8a2
100
AcDbEntity
  8
1-5
6
CONTINUOUS
62
3
100
AcDbVertex
100
AcDb2dVertex
10
451.767
20
120.010
30
0.0
42
1.000
0
SEQEND
5
8a3
100
AcDbEntity
  8
1-5
0
POLYLINE
5
8a4
100
AcDbEntity
  8
1-5
6
CONTINUOUS
62
3
100
AcDb2dPolyline
66
1
10
0
20
0
70
1
40
0.400
41
0.400
0
VERTEX
5
8a5
100
AcDbEntity
  8
1-5
6
CONTINUOUS
62
3
100
AcDbVertex
100
AcDb2dVertex
10
534.536
20
240.946
30
0.0
42
1.000
0
VERTEX
5
8a6
100
AcDbEntity
  8
1-5
6
CONTINUOUS
62
3
100
AcDbVertex
100
AcDb2dVertex
10
534.936
20
240.946
30
0.0
42
1.000
0
SEQEND
5
8a7
100
AcDbEntity
  8
1-5
0
ENDSEC
 0
SECTION
  2
OBJECTS
 0
DICTIONARY
  5
C
100
AcDbDictionary
  3
ACAD_GROUP
350
D
  3
ACAD_MLINESTYLE
350
E
 0
DICTIONARY
  5
D
102
{ACAD_REACTORS
102
}
100
AcDbDictionary
 0
DICTIONARY
  5
E
102
{ACAD_REACTORS
102
}
100
AcDbDictionary
  3
STANDARD
350
13
0
MLINESTYLE
  5
13
102
{ACAD_REACTORS
102
}
100
AcDbMlineStyle
  2
STANDARD
 70
    0
3

62
256
51
90.0
52
90.0
71
0
0
ACDBPLACEHOLDER
  5
14
102
{ACAD_REACTORS
102
}
0
ENDSEC
0
EOF
